  0
SECTION
  2
HEADER
  9
$ACADVER
  1
AC1021
  9
$ACADMAINTVER
 70
     1
  9
$DWGCODEPAGE
  3
ANSI_932
  9
$LASTSAVEDBY
  1
damet
  9
$INSBASE
 10
0.0
 20
0.0
 30
0.0
  9
$EXTMIN
 10
-13600.05712506433
 20
1859.292102405104
 30
0.0
  9
$EXTMAX
 10
-4898.248294270734
 20
3328.421581219057
 30
0.0
  9
$LIMMIN
 10
0.0
 20
0.0
  9
$LIMMAX
 10
0.0
 20
0.0
  9
$ORTHOMODE
 70
     1
  9
$REGENMODE
 70
     1
  9
$FILLMODE
 70
     1
  9
$QTEXTMODE
 70
     0
  9
$MIRRTEXT
 70
     1
  9
$LTSCALE
 40
5.08
  9
$ATTMODE
 70
     1
  9
$TEXTSIZE
 40
0.2
  9
$TRACEWID
 40
1.0
  9
$TEXTSTYLE
  7
Standard
  9
$CLAYER
  8
寸法
  9
$CELTYPE
  6
ByLayer
  9
$CECOLOR
 62
   256
  9
$CELTSCALE
 40
1.0
  9
$DISPSILH
 70
     0
  9
$DIMSCALE
 40
1.0
  9
$DIMASZ
 40
1.500683593749999
  9
$DIMEXO
 40
8.0
  9
$DIMDLI
 40
10.16
  9
$DIMRND
 40
0.0
  9
$DIMDLE
 40
1.59
  9
$DIMEXE
 40
3.18
  9
$DIMTP
 40
0.0
  9
$DIMTM
 40
0.0
  9
$DIMTXT
 40
24.0
  9
$DIMCEN
 40
0.0
  9
$DIMTSZ
 40
0.0
  9
$DIMTOL
 70
     0
  9
$DIMLIM
 70
     0
  9
$DIMTIH
 70
     0
  9
$DIMTOH
 70
     0
  9
$DIMSE1
 70
     0
  9
$DIMSE2
 70
     0
  9
$DIMTAD
 70
     1
  9
$DIMZIN
 70
    11
  9
$DIMBLK
  1
DOT
  9
$DIMASO
 70
     1
  9
$DIMSHO
 70
     1
  9
$DIMPOST
  1
<>
  9
$DIMAPOST
  1
[]
  9
$DIMALT
 70
     0
  9
$DIMALTD
 70
     3
  9
$DIMALTF
 40
0.0393700787401575
  9
$DIMLFAC
 40
1.0
  9
$DIMTOFL
 70
     1
  9
$DIMTVP
 40
0.0
  9
$DIMTIX
 70
     1
  9
$DIMSOXD
 70
     0
  9
$DIMSAH
 70
     0
  9
$DIMBLK1
  1

  9
$DIMBLK2
  1

  9
$DIMSTYLE
  2
Yamatoya
  9
$DIMCLRD
 70
     0
  9
$DIMCLRE
 70
     0
  9
$DIMCLRT
 70
     0
  9
$DIMTFAC
 40
1.0
  9
$DIMGAP
 40
1.587499999999999
  9
$DIMJUST
 70
     0
  9
$DIMSD1
 70
     0
  9
$DIMSD2
 70
     0
  9
$DIMTOLJ
 70
     1
  9
$DIMTZIN
 70
    11
  9
$DIMALTZ
 70
    15
  9
$DIMALTTZ
 70
    15
  9
$DIMUPT
 70
     0
  9
$DIMDEC
 70
     0
  9
$DIMTDEC
 70
     0
  9
$DIMALTU
 70
     4
  9
$DIMALTTD
 70
     3
  9
$DIMTXSTY
  7
ヒラギノ角ゴ Pro W3
  9
$DIMAUNIT
 70
     0
  9
$DIMADEC
 70
     2
  9
$DIMALTRND
 40
0.0
  9
$DIMAZIN
 70
     0
  9
$DIMDSEP
 70
    46
  9
$DIMATFIT
 70
     0
  9
$DIMFRAC
 70
     2
  9
$DIMLDRBLK
  1
DOT
  9
$DIMLUNIT
 70
     2
  9
$DIMLWD
 70
    -2
  9
$DIMLWE
 70
    -2
  9
$DIMTMOVE
 70
     0
  9
$DIMFXL
 40
1.0
  9
$DIMFXLON
 70
     0
  9
$DIMJOGANG
 40
0.7853981633974483
  9
$DIMTFILL
 70
     0
  9
$DIMTFILLCLR
 70
     0
  9
$DIMARCSYM
 70
     0
  9
$DIMLTYPE
  6

  9
$DIMLTEX1
  6

  9
$DIMLTEX2
  6

  9
$LUNITS
 70
     2
  9
$LUPREC
 70
     4
  9
$SKETCHINC
 40
0.1
  9
$FILLETRAD
 40
2.0
  9
$AUNITS
 70
     0
  9
$AUPREC
 70
     0
  9
$MENU
  1
acad
  9
$ELEVATION
 40
0.0
  9
$PELEVATION
 40
0.0
  9
$THICKNESS
 40
0.0
  9
$LIMCHECK
 70
     0
  9
$CHAMFERA
 40
1.0
  9
$CHAMFERB
 40
1.0
  9
$CHAMFERC
 40
0.0
  9
$CHAMFERD
 40
0.0
  9
$SKPOLY
 70
     0
  9
$TDCREATE
 40
2455276.758078704
  9
$TDUCREATE
 40
2455276.383078704
  9
$TDUPDATE
 40
2458611.696185695
  9
$TDUUPDATE
 40
2458611.321185695
  9
$TDINDWG
 40
3.0717209491
  9
$TDUSRTIMER
 40
3.0717202083
  9
$USRTIMER
 70
     1
  9
$ANGBASE
 50
0.0
  9
$ANGDIR
 70
     0
  9
$PDMODE
 70
     1
  9
$PDSIZE
 40
-2.0
  9
$PLINEWID
 40
0.0
  9
$SPLFRAME
 70
     0
  9
$SPLINETYPE
 70
     6
  9
$SPLINESEGS
 70
     8
  9
$HANDSEED
  5
233F1
  9
$SURFTAB1
 70
     6
  9
$SURFTAB2
 70
     6
  9
$SURFTYPE
 70
     6
  9
$SURFU
 70
     6
  9
$SURFV
 70
     6
  9
$UCSBASE
  2

  9
$UCSNAME
  2

  9
$UCSORG
 10
0.0
 20
0.0
 30
0.0
  9
$UCSXDIR
 10
1.0
 20
0.0
 30
0.0
  9
$UCSYDIR
 10
0.0
 20
1.0
 30
0.0
  9
$UCSORTHOREF
  2

  9
$UCSORTHOVIEW
 70
     0
  9
$UCSORGTOP
 10
0.0
 20
0.0
 30
0.0
  9
$UCSORGBOTTOM
 10
0.0
 20
0.0
 30
0.0
  9
$UCSORGLEFT
 10
0.0
 20
0.0
 30
0.0
  9
$UCSORGRIGHT
 10
0.0
 20
0.0
 30
0.0
  9
$UCSORGFRONT
 10
0.0
 20
0.0
 30
0.0
  9
$UCSORGBACK
 10
0.0
 20
0.0
 30
0.0
  9
$PUCSBASE
  2

  9
$PUCSNAME
  2

  9
$PUCSORG
 10
0.0
 20
0.0
 30
0.0
  9
$PUCSXDIR
 10
1.0
 20
0.0
 30
0.0
  9
$PUCSYDIR
 10
0.0
 20
1.0
 30
0.0
  9
$PUCSORTHOREF
  2

  9
$PUCSORTHOVIEW
 70
     0
  9
$PUCSORGTOP
 10
0.0
 20
0.0
 30
0.0
  9
$PUCSORGBOTTOM
 10
0.0
 20
0.0
 30
0.0
  9
$PUCSORGLEFT
 10
0.0
 20
0.0
 30
0.0
  9
$PUCSORGRIGHT
 10
0.0
 20
0.0
 30
0.0
  9
$PUCSORGFRONT
 10
0.0
 20
0.0
 30
0.0
  9
$PUCSORGBACK
 10
0.0
 20
0.0
 30
0.0
  9
$USERI1
 70
     0
  9
$USERI2
 70
     0
  9
$USERI3
 70
     0
  9
$USERI4
 70
     0
  9
$USERI5
 70
     0
  9
$USERR1
 40
0.0
  9
$USERR2
 40
0.0
  9
$USERR3
 40
0.0
  9
$USERR4
 40
0.0
  9
$USERR5
 40
0.0
  9
$WORLDVIEW
 70
     1
  9
$SHADEDGE
 70
     3
  9
$SHADEDIF
 70
    70
  9
$TILEMODE
 70
     1
  9
$MAXACTVP
 70
    64
  9
$PINSBASE
 10
0.0
 20
0.0
 30
0.0
  9
$PLIMCHECK
 70
     0
  9
$PEXTMIN
 10
25.69999999999999
 20
19.5
 30
0.0
  9
$PEXTMAX
 10
231.3
 20
175.5
 30
0.0
  9
$PLIMMIN
 10
-20.0
 20
-7.5
  9
$PLIMMAX
 10
277.0
 20
202.5
  9
$UNITMODE
 70
     0
  9
$VISRETAIN
 70
     0
  9
$PLINEGEN
 70
     1
  9
$PSLTSCALE
 70
     1
  9
$TREEDEPTH
 70
  3020
  9
$CMLSTYLE
  2
Standard
  9
$CMLJUST
 70
     0
  9
$CMLSCALE
 40
1.0
  9
$PROXYGRAPHICS
 70
     0
  9
$MEASUREMENT
 70
     1
  9
$CELWEIGHT
370
     5
  9
$ENDCAPS
280
     0
  9
$JOINSTYLE
280
     0
  9
$LWDISPLAY
290
     1
  9
$INSUNITS
 70
     4
  9
$HYPERLINKBASE
  1

  9
$STYLESHEET
  1

  9
$XEDIT
290
     1
  9
$CEPSNTYPE
380
     0
  9
$PSTYLEMODE
290
     1
  9
$FINGERPRINTGUID
  2

  9
$VERSIONGUID
  2
{FD50C7AB-0A48-45BE-9C7E-50DC405C509F}
  9
$EXTNAMES
290
     1
  9
$PSVPSCALE
 40
0.0
  9
$OLESTARTUP
290
     0
  9
$SORTENTS
280
   127
  9
$INDEXCTL
280
     0
  9
$HIDETEXT
280
     0
  9
$XCLIPFRAME
290
     0
  9
$HALOGAP
280
     0
  9
$OBSCOLOR
 70
   257
  9
$OBSLTYPE
280
     0
  9
$INTERSECTIONDISPLAY
280
     0
  9
$INTERSECTIONCOLOR
 70
   257
  9
$DIMASSOC
280
     1
  9
$PROJECTNAME
  1

  9
$CAMERADISPLAY
290
     0
  9
$LENSLENGTH
 40
50.0
  9
$CAMERAHEIGHT
 40
0.0
  9
$STEPSPERSEC
 40
2.0
  9
$STEPSIZE
 40
6.0
  9
$3DDWFPREC
 40
2.0
  9
$PSOLWIDTH
 40
0.25
  9
$PSOLHEIGHT
 40
4.0
  9
$LOFTANG1
 40
1.570796326794896
  9
$LOFTANG2
 40
1.570796326794896
  9
$LOFTMAG1
 40
0.0
  9
$LOFTMAG2
 40
0.0
  9
$LOFTPARAM
 70
     7
  9
$LOFTNORMALS
280
     1
  9
$LATITUDE
 40
37.795
  9
$LONGITUDE
 40
-122.394
  9
$NORTHDIRECTION
 40
0.0
  9
$TIMEZONE
 70
 -8000
  9
$LIGHTGLYPHDISPLAY
280
     1
  9
$TILEMODELIGHTSYNCH
280
     1
  9
$CMATERIAL
347
96E
  9
$SOLIDHIST
280
     1
  9
$SHOWHIST
280
     1
  9
$DWFFRAME
280
     2
  9
$DGNFRAME
280
     0
  9
$REALWORLDSCALE
290
     1
  9
$INTERFERECOLOR
 62
     1
  9
$INTERFEREOBJVS
345
97B
  9
$INTERFEREVPVS
346
978
  9
$CSHADOW
280
     0
  9
$SHADOWPLANELOCATION
 40
0.0
  0
ENDSEC
  0
SECTION
  2
CLASSES
  0
CLASS
  1
IMAGE
  2
AcDbRasterImage
  3
ISM
 90
     2175
 91
        0
280
     0
281
     1
  0
CLASS
  1
DICTIONARYVAR
  2
AcDbDictionaryVar
  3
ObjectDBX Classes
 90
        0
 91
        2
280
     0
281
     0
  0
CLASS
  1
RASTERVARIABLES
  2
AcDbRasterVariables
  3
ISM
 90
        0
 91
        0
280
     0
281
     0
  0
CLASS
  1
IMAGEDEF
  2
AcDbRasterImageDef
  3
ISM
 90
        0
 91
        0
280
     0
281
     0
  0
CLASS
  1
IMAGEDEF_REACTOR
  2
AcDbRasterImageDefReactor
  3
ISM
 90
        1
 91
        0
280
     0
281
     0
  0
CLASS
  1
IDBUFFER
  2
AcDbIdBuffer
  3
ObjectDBX Classes
 90
        0
 91
        0
280
     0
281
     0
  0
CLASS
  1
SPATIAL_FILTER
  2
AcDbSpatialFilter
  3
ObjectDBX Classes
 90
        0
 91
        0
280
     0
281
     0
  0
CLASS
  1
SORTENTSTABLE
  2
AcDbSortentsTable
  3
ObjectDBX Classes
 90
        0
 91
        4
280
     0
281
     0
  0
CLASS
  1
LAYER_INDEX
  2
AcDbLayerIndex
  3
ObjectDBX Classes
 90
        0
 91
        0
280
     0
281
     0
  0
CLASS
  1
SPATIAL_INDEX
  2
AcDbSpatialIndex
  3
ObjectDBX Classes
 90
        0
 91
        0
280
     0
281
     0
  0
CLASS
  1
OBJECT_PTR
  2
CAseDLPNTableRecord
  3
ASE-LPNTableRecord
 90
        1
 91
        0
280
     0
281
     0
  0
CLASS
  1
PLOTSETTINGS
  2
AcDbPlotSettings
  3
ObjectDBX Classes
 90
        0
 91
        0
280
     0
281
     0
  0
CLASS
  1
ACDBDICTIONARYWDFLT
  2
AcDbDictionaryWithDefault
  3
ObjectDBX Classes
 90
        0
 91
        1
280
     0
281
     0
  0
CLASS
  1
WIPEOUT
  2
AcDbWipeout
  3
"WipeOut|Product Desc: Object Enabler for WipeOut entity                        |Company: Autodesk, Inc.                        |WEB Address: www.autodesk.com"
 90
     2175
 91
        0
280
     0
281
     1
  0
CLASS
  1
WIPEOUTVARIABLES
  2
AcDbWipeoutVariables
  3
"WipeOut|Product Desc:     WipeOut Dbx Application|Company:          Autodesk, Inc.|WEB Address:      www.autodesk.com"
 90
        0
 91
        1
280
     0
281
     0
  0
CLASS
  1
RTEXT
  2
RText
  3
RText|AutoCAD Express Tool|expresstools@autodesk.com
 90
        0
 91
        0
280
     0
281
     1
  0
CLASS
  1
ARCALIGNEDTEXT
  2
AcDbArcAlignedText
  3
ATEXT|AutoCAD Express Tool|expresstools@autodesk.com
 90
        0
 91
        0
280
     0
281
     1
  0
CLASS
  1
MATERIAL
  2
AcDbMaterial
  3
ObjectDBX Classes
 90
     1024
 91
        3
280
     0
281
     0
  0
CLASS
  1
VISUALSTYLE
  2
AcDbVisualStyle
  3
ObjectDBX Classes
 90
     4095
 91
       16
280
     0
281
     0
  0
CLASS
  1
TABLESTYLE
  2
AcDbTableStyle
  3
ObjectDBX Classes
 90
     4095
 91
        1
280
     0
281
     0
  0
CLASS
  1
LARGE_RADIAL_DIMENSION
  2
AcDbRadialDimensionLarge
  3
ObjectDBX Classes
 90
     1025
 91
        0
280
     0
281
     1
  0
CLASS
  1
ACAD_EVALUATION_GRAPH
  2
AcDbEvalGraph
  3
ObjectDBX Classes
 90
     1153
 91
        0
280
     0
281
     0
  0
CLASS
  1
ACAECUSTOBJ
  2
AcAeEditorObj
  3
AcAeEditorObj
 90
     1024
 91
        0
280
     0
281
     0
  0
CLASS
  1
ACDB_DYNAMICBLOCKPURGEPREVENTER_VERSION
  2
AcDbDynamicBlockPurgePreventer
  3
ObjectDBX Classes
 90
     1153
 91
        0
280
     0
281
     0
  0
ENDSEC
  0
SECTION
  2
TABLES
  0
TABLE
  2
VPORT
  5
7
102
{ACAD_XDICTIONARY
360
3A0F
102
}
330
0
100
AcDbSymbolTable
 70
     1
  0
VPORT
  5
15
330
7
100
AcDbSymbolTableRecord
100
AcDbViewportTableRecord
  2
*ACTIVE
 70
     0
 10
0.0
 20
0.0
 11
1.0
 21
1.0
 12
-8432.938043822792
 22
1998.298612967931
 13
0.0
 23
0.0
 14
1.0
 24
1.0
 15
0.0
 25
0.0
 16
0.0
 26
0.0
 36
1.0
 17
0.0
 27
0.0
 37
0.0
 40
7109.454306665869
 41
1.95631067961165
 42
50.0
 43
0.0
 44
0.0
 50
0.0
 51
0.0
 71
     0
 72
  2000
 73
     1
 74
     1
 75
     0
 76
     0
 77
     0
 78
     1
281
     0
 65
     0
110
0.0
120
0.0
130
0.0
111
1.0
121
0.0
131
0.0
112
0.0
122
1.0
132
0.0
 79
     0
146
0.0
348
977
 60
     3
 61
     5
292
     1
282
     1
141
0.0
142
0.0
 63
   250
421
  3355443
  0
ENDTAB
  0
TABLE
  2
LTYPE
  5
4
330
0
100
AcDbSymbolTable
 70
     2
  0
LTYPE
  5
11
330
4
100
AcDbSymbolTableRecord
100
AcDbLinetypeTableRecord
  2
ByBlock
 70
     0
  3

 72
    65
 73
     0
 40
0.0
  0
LTYPE
  5
12
330
4
100
AcDbSymbolTableRecord
100
AcDbLinetypeTableRecord
  2
ByLayer
 70
     0
  3

 72
    65
 73
     0
 40
0.0
  0
LTYPE
  5
13
330
4
100
AcDbSymbolTableRecord
100
AcDbLinetypeTableRecord
  2
Continuous
 70
     0
  3
Solid line
 72
    65
 73
     0
 40
0.0
  0
LTYPE
  5
86
330
4
100
AcDbSymbolTableRecord
100
AcDbLinetypeTableRecord
  2
STYLE_05
 70
     0
  3

 72
    65
 73
     2
 40
0.20828
 49
0.069425
 74
     0
 49
-0.138855
 74
     0
  0
ENDTAB
  0
TABLE
  2
LAYER
  5
2
102
{ACAD_XDICTIONARY
360
C1E
102
}
330
0
100
AcDbSymbolTable
 70
    13
  0
LAYER
  5
14
330
2
100
AcDbSymbolTableRecord
100
AcDbLayerTableRecord
  2
0
 70
     0
 62
     7
  6
Continuous
370
    -3
390
1D
347
970
  0
LAYER
  5
8C
330
2
100
AcDbSymbolTableRecord
100
AcDbLayerTableRecord
  2
脚
 70
     0
 62
   174
  6
Continuous
370
    25
390
1D
347
970
  0
LAYER
  5
8D
330
2
100
AcDbSymbolTableRecord
100
AcDbLayerTableRecord
  2
寸法
 70
     0
 62
     7
  6
Continuous
370
     5
390
1D
347
970
  0
LAYER
  5
8E
330
2
100
AcDbSymbolTableRecord
100
AcDbLayerTableRecord
  2
Defpoints
 70
     0
 62
    31
  6
Continuous
290
     0
370
    -3
390
1D
347
970
  0
LAYER
  5
14CDE
330
2
100
AcDbSymbolTableRecord
100
AcDbLayerTableRecord
  2
貫
 70
     0
 62
    14
  6
Continuous
370
    25
390
1D
347
970
1001
AcAecLayerStandard
1000

1000

  0
LAYER
  5
14CE1
330
2
100
AcDbSymbolTableRecord
100
AcDbLayerTableRecord
  2
天板
 70
     0
 62
   114
  6
Continuous
370
    25
390
1D
347
970
1001
AcAecLayerStandard
1000

1000

  0
LAYER
  5
14CE7
330
2
100
AcDbSymbolTableRecord
100
AcDbLayerTableRecord
  2
ボルト
 70
     0
 62
   152
  6
Continuous
370
    25
390
1D
347
970
1001
AcAecLayerStandard
1000

1000

  0
LAYER
  5
14CEA
330
2
100
AcDbSymbolTableRecord
100
AcDbLayerTableRecord
  2
ナット
 70
     0
 62
   224
  6
Continuous
370
    25
390
1D
347
970
1001
AcAecLayerStandard
1000

1000

  0
LAYER
  5
14CED
330
2
100
AcDbSymbolTableRecord
100
AcDbLayerTableRecord
  2
木ネジ、ダボ
 70
     0
 62
    44
  6
Continuous
370
    25
390
1D
347
970
1001
AcAecLayerStandard
1000

1000

  0
LAYER
  5
1FA61
330
2
100
AcDbSymbolTableRecord
100
AcDbLayerTableRecord
  2
レイヤー1
 70
     0
 62
     7
  6
Continuous
370
    -3
390
1D
347
970
  0
LAYER
  5
2058F
330
2
100
AcDbSymbolTableRecord
100
AcDbLayerTableRecord
  2
bolt
 70
     0
 62
   152
  6
Continuous
370
    25
390
1D
347
970
1001
AcAecLayerStandard
1000

1000

  0
LAYER
  5
20590
330
2
100
AcDbSymbolTableRecord
100
AcDbLayerTableRecord
  2
一般
 70
     0
 62
     7
  6
Continuous
370
     5
390
1D
347
970
  0
LAYER
  5
230AF
330
2
100
AcDbSymbolTableRecord
100
AcDbLayerTableRecord
  2
木ネジ・ダボ
 70
     0
 62
    44
  6
Continuous
370
    25
390
1D
347
970
1001
AcAecLayerStandard
1000

1000

  0
ENDTAB
  0
TABLE
  2
STYLE
  5
3
330
0
100
AcDbSymbolTable
 70
     2
  0
STYLE
  5
17
330
3
100
AcDbSymbolTableRecord
100
AcDbTextStyleTableRecord
  2
Standard
 70
     0
 40
0.0
 41
1.0
 50
0.0
 71
     0
 42
0.2
  3

  4

1001
ACAD
1000
MS Gothic
1071
    32817
  0
STYLE
  5
81
330
3
100
AcDbSymbolTableRecord
100
AcDbTextStyleTableRecord
  2
ヒラギノ角ゴ Pro W3
 70
     0
 40
0.0
 41
1.0
 50
0.0
 71
     0
 42
0.0
  3

  4

1001
ACAD
1000
MS Gothic
1071
    32817
  0
ENDTAB
  0
TABLE
  2
VIEW
  5
5
330
0
100
AcDbSymbolTable
 70
     0
  0
ENDTAB
  0
TABLE
  2
UCS
  5
6
330
0
100
AcDbSymbolTable
 70
     0
  0
ENDTAB
  0
TABLE
  2
APPID
  5
8
330
0
100
AcDbSymbolTable
 70
    12
  0
APPID
  5
16
330
8
100
AcDbSymbolTableRecord
100
AcDbRegAppTableRecord
  2
ACAD
 70
     0
  0
APPID
  5
98C
330
8
100
AcDbSymbolTableRecord
100
AcDbRegAppTableRecord
  2
DCO15
 70
     0
  0
APPID
  5
991
330
8
100
AcDbSymbolTableRecord
100
AcDbRegAppTableRecord
  2
ACAD_EXEMPT_FROM_CAD_STANDARDS
 70
     0
  0
APPID
  5
C1D
330
8
100
AcDbSymbolTableRecord
100
AcDbRegAppTableRecord
  2
ACAD_PSEXT
 70
     0
  0
APPID
  5
93A3
330
8
100
AcDbSymbolTableRecord
100
AcDbRegAppTableRecord
  2
ACAD_DSTYLE_DIMJOGGED_JOGANGLE_SYMBOL
 70
     0
  0
APPID
  5
93A4
330
8
100
AcDbSymbolTableRecord
100
AcDbRegAppTableRecord
  2
AcAecLayerStandard
 70
     0
  0
APPID
  5
D99E
330
8
100
AcDbSymbolTableRecord
100
AcDbRegAppTableRecord
  2
ACAD_DSTYLE_DIMEXT_ENABLED
 70
     0
  0
APPID
  5
D99F
330
8
100
AcDbSymbolTableRecord
100
AcDbRegAppTableRecord
  2
ACAD_DSTYLE_DIMEXT_LENGTH
 70
     0
  0
APPID
  5
1102C
330
8
100
AcDbSymbolTableRecord
100
AcDbRegAppTableRecord
  2
AcDbDynamicBlockGUID
 70
     0
  0
APPID
  5
1102D
330
8
100
AcDbSymbolTableRecord
100
AcDbRegAppTableRecord
  2
AcDbBlockRepETag
 70
     0
  0
APPID
  5
21A5F
330
8
100
AcDbSymbolTableRecord
100
AcDbRegAppTableRecord
  2
ACAUTHENVIRON
 70
     0
  0
APPID
  5
21A62
330
8
100
AcDbSymbolTableRecord
100
AcDbRegAppTableRecord
  2
AcDbDynamicBlockTrueName
 70
     0
  0
ENDTAB
  0
TABLE
  2
DIMSTYLE
  5
9
330
0
100
AcDbSymbolTable
 70
     2
100
AcDbDimStyleTable
 71
     1
340
CD7E
  0
DIMSTYLE
105
CD7E
330
9
100
AcDbSymbolTableRecord
100
AcDbDimStyleTableRecord
  2
Yamatoya
 70
     0
  3
<>
  4
[]
 41
1.500683593749999
 42
8.0
 43
10.16
 44
3.18
 46
1.59
 73
     0
 74
     0
 77
     1
 78
    11
140
24.0
141
0.0
143
0.0393700787401575
147
1.587499999999999
171
     3
172
     1
174
     1
179
     2
271
     0
272
     0
273
     4
274
     3
276
     2
284
    11
285
    15
286
    15
289
     0
340
81
341
8F
342
8F
  0
DIMSTYLE
105
10565
330
9
100
AcDbSymbolTableRecord
100
AcDbDimStyleTableRecord
  2
Standard
 70
     0
340
17
  0
ENDTAB
  0
TABLE
  2
BLOCK_RECORD
  5
1
330
0
100
AcDbSymbolTable
 70
     5
  0
BLOCK_RECORD
  5
A
102
{ACAD_XDICTIONARY
360
9CE
102
}
330
1
100
AcDbSymbolTableRecord
100
AcDbBlockTableRecord
  2
*MODEL_SPACE
340
20
 70
     0
280
     1
281
     0
  0
BLOCK_RECORD
  5
2315B
330
1
100
AcDbSymbolTableRecord
100
AcDbBlockTableRecord
  2
*Paper_Space
340
2315C
 70
     0
280
     1
281
     0
  0
BLOCK_RECORD
  5
8F
330
1
100
AcDbSymbolTableRecord
100
AcDbBlockTableRecord
  2
_DOT
340
0
102
{BLKREFS
331
233E9
331
233EA
102
}
 70
     0
280
     1
281
     0
  0
BLOCK_RECORD
  5
20BD7
102
{ACAD_XDICTIONARY
360
20D11
102
}
330
1
100
AcDbSymbolTableRecord
100
AcDbBlockTableRecord
  2
A$C41BB26E9
340
0
102
{BLKREFS
331
20FFD
331
21005
331
23233
331
2322D
331
23333
331
23339
102
}
 70
     4
280
     1
281
     0
  0
BLOCK_RECORD
  5
20FB6
102
{ACAD_XDICTIONARY
360
20FBF
102
}
330
1
100
AcDbSymbolTableRecord
100
AcDbBlockTableRecord
  2
A$C153C7E87
340
0
102
{BLKREFS
331
20FC3
331
20FC8
331
2319B
331
2319D
331
23229
331
2322B
331
232B3
331
232B5
331
2332F
331
23331
331
233B9
331
233BB
102
}
 70
     4
280
     1
281
     0
  0
BLOCK_RECORD
  5
230A3
102
{ACAD_XDICTIONARY
360
230A4
102
}
330
1
100
AcDbSymbolTableRecord
100
AcDbBlockTableRecord
  2
A$C73231E16
340
0
102
{BLKREFS
331
230BC
331
230C2
331
230EE
331
230FA
331
231B8
331
231BC
331
23270
331
23271
331
23278
331
23284
331
232D2
331
232D3
331
23378
331
23379
331
23382
331
2338E
331
233DA
331
233DB
102
}
 70
     4
280
     1
281
     0
  0
BLOCK_RECORD
  5
233E5
330
1
100
AcDbSymbolTableRecord
100
AcDbBlockTableRecord
  2
*D4
340
0
 70
     0
280
     1
281
     0
  0
ENDTAB
  0
ENDSEC
  0
SECTION
  2
BLOCKS
  0
BLOCK
  5
D
330
A
100
AcDbEntity
  8
0
100
AcDbBlockBegin
  2
*MODEL_SPACE
 70
     0
 10
0.0
 20
0.0
 30
0.0
  3
*MODEL_SPACE
  1

  0
ENDBLK
  5
E
330
A
100
AcDbEntity
  8
0
100
AcDbBlockEnd
  0
BLOCK
  5
2315D
330
2315B
100
AcDbEntity
 67
     1
  8
0
370
     5
100
AcDbBlockBegin
  2
*Paper_Space
 70
     0
 10
0.0
 20
0.0
 30
0.0
  3
*Paper_Space
  1

  0
ENDBLK
  5
2315E
330
2315B
100
AcDbEntity
 67
     1
  8
0
370
     5
100
AcDbBlockEnd
  0
BLOCK
  5
90
330
8F
100
AcDbEntity
  8
0
370
     5
100
AcDbBlockBegin
  2
_DOT
 70
     0
 10
0.0
 20
0.0
 30
0.0
  3
_DOT
  1

  0
POLYLINE
  5
91
330
8F
100
AcDbEntity
  8
0
  6
ByBlock
 62
     0
370
    -2
100
AcDb2dPolyline
 66
     1
 10
0.0
 20
0.0
 30
0.0
 70
     1
 40
0.5
 41
0.5
  0
VERTEX
  5
92
330
91
100
AcDbEntity
  8
0
  6
ByBlock
 62
     0
370
    -2
100
AcDbVertex
100
AcDb2dVertex
 10
-0.25
 20
0.0
 30
0.0
 42
1.0
  0
VERTEX
  5
93
330
91
100
AcDbEntity
  8
0
  6
ByBlock
 62
     0
370
    -2
100
AcDbVertex
100
AcDb2dVertex
 10
0.25
 20
0.0
 30
0.0
 42
1.0
  0
SEQEND
  5
94
330
91
100
AcDbEntity
  8
0
  0
LINE
  5
95
330
8F
100
AcDbEntity
  8
0
  6
ByBlock
 62
     0
370
    -2
100
AcDbLine
 10
-0.5
 20
0.0
 30
0.0
 11
-1.0
 21
0.0
 31
0.0
  0
ENDBLK
  5
96
330
8F
100
AcDbEntity
  8
0
100
AcDbBlockEnd
  0
BLOCK
  5
20D13
330
20BD7
100
AcDbEntity
  8
0
370
    25
100
AcDbBlockBegin
  2
A$C41BB26E9
 70
     0
 10
0.0
 20
0.0
 30
0.0
  3
A$C41BB26E9
  1

  0
LINE
  5
20BD8
330
20BD7
100
AcDbEntity
  8
bolt
  6
Continuous
370
     5
100
AcDbLine
 10
2.10000254816623
 20
13.00000025982581
 30
0.0
 11
2.10000254816623
 21
0.0000002598258106
 31
0.0
  0
LINE
  5
20BD9
330
20BD7
100
AcDbEntity
  8
bolt
  6
Continuous
370
     5
100
AcDbLine
 10
0.8000025481669581
 20
0.0000002598258106
 30
0.0
 11
2.10000254816623
 21
0.0000002598258106
 31
0.0
  0
LINE
  5
20BDA
330
20BD7
100
AcDbEntity
  8
bolt
  6
Continuous
370
     5
100
AcDbLine
 10
0.0000025481676857
 20
1.50000025982581
 30
0.0
 11
0.8000025481669581
 21
0.0000002598258106
 31
0.0
  0
LINE
  5
20BDB
330
20BD7
100
AcDbEntity
  8
bolt
  6
Continuous
370
     5
100
AcDbLine
 10
0.0000025481676857
 20
11.50000025982581
 30
0.0
 11
0.8000025481669581
 21
13.00000025982581
 31
0.0
  0
LINE
  5
20BDC
330
20BD7
100
AcDbEntity
  8
bolt
  6
Continuous
370
     5
100
AcDbLine
 10
1.300002548166957
 20
13.00000025982581
 30
0.0
 11
1.300002548166957
 21
0.0000002598258106
 31
0.0
  0
LINE
  5
20BDD
330
20BD7
100
AcDbEntity
  8
bolt
  6
Continuous
370
     5
100
AcDbLine
 10
0.8000025481669581
 20
13.00000025982581
 30
0.0
 11
0.8000025481669581
 21
0.0000002598258106
 31
0.0
  0
LINE
  5
20BDE
330
20BD7
100
AcDbEntity
  8
bolt
  6
Continuous
370
     5
100
AcDbLine
 10
0.0000025481676857
 20
11.50000025982581
 30
0.0
 11
0.0000025481676857
 21
1.50000025982581
 31
0.0
  0
LINE
  5
20BDF
330
20BD7
100
AcDbEntity
  8
bolt
  6
Continuous
370
     5
100
AcDbLine
 10
2.10000254816623
 20
9.50000025982581
 30
0.0
 11
2.10000254816623
 21
3.50000025982581
 31
0.0
  0
LINE
  5
20BE0
330
20BD7
100
AcDbEntity
  8
bolt
  6
Continuous
370
     5
100
AcDbLine
 10
2.10000254816623
 20
4.250000259825809
 30
0.0
 11
2.715902548166923
 21
4.250000259825809
 31
0.0
  0
LINE
  5
20BE1
330
20BD7
100
AcDbEntity
  8
bolt
  6
Continuous
370
     5
100
AcDbLine
 10
2.715902548166923
 20
4.250000259825809
 30
0.0
 11
3.354002548167045
 21
3.600000259825718
 31
0.0
  0
LINE
  5
20BE2
330
20BD7
100
AcDbEntity
  8
bolt
  6
Continuous
370
     5
100
AcDbLine
 10
3.354002548167045
 20
3.600000259825718
 30
0.0
 11
3.738302548166756
 21
4.250000259825809
 31
0.0
  0
LINE
  5
20BE3
330
20BD7
100
AcDbEntity
  8
bolt
  6
Continuous
370
     5
100
AcDbLine
 10
3.738302548166756
 20
4.250000259825809
 30
0.0
 11
4.376402548166878
 21
3.600000259825718
 31
0.0
  0
LINE
  5
20BE4
330
20BD7
100
AcDbEntity
  8
bolt
  6
Continuous
370
     5
100
AcDbLine
 10
4.376402548166878
 20
3.600000259825718
 30
0.0
 11
4.760602548167297
 21
4.250000259825809
 31
0.0
  0
LINE
  5
20BE5
330
20BD7
100
AcDbEntity
  8
bolt
  6
Continuous
370
     5
100
AcDbLine
 10
4.760602548167297
 20
4.250000259825809
 30
0.0
 11
5.398702548165601
 21
3.600000259825718
 31
0.0
  0
LINE
  5
20BE6
330
20BD7
100
AcDbEntity
  8
bolt
  6
Continuous
370
     5
100
AcDbLine
 10
5.398702548165601
 20
3.600000259825718
 30
0.0
 11
5.782902548166021
 21
4.250000259825809
 31
0.0
  0
LINE
  5
20BE7
330
20BD7
100
AcDbEntity
  8
bolt
  6
Continuous
370
     5
100
AcDbLine
 10
5.782902548166021
 20
4.250000259825809
 30
0.0
 11
6.421102548167255
 21
3.600000259825718
 31
0.0
  0
LINE
  5
20BE8
330
20BD7
100
AcDbEntity
  8
bolt
  6
Continuous
370
     5
100
AcDbLine
 10
6.421102548167255
 20
3.600000259825718
 30
0.0
 11
6.805302548167673
 21
4.250000259825809
 31
0.0
  0
LINE
  5
20BE9
330
20BD7
100
AcDbEntity
  8
bolt
  6
Continuous
370
     5
100
AcDbLine
 10
6.805302548167673
 20
4.250000259825809
 30
0.0
 11
7.443402548167796
 21
3.600000259825718
 31
0.0
  0
LINE
  5
20BEA
330
20BD7
100
AcDbEntity
  8
bolt
  6
Continuous
370
     5
100
AcDbLine
 10
7.443402548167796
 20
3.600000259825718
 30
0.0
 11
7.827602548166396
 21
4.250000259825809
 31
0.0
  0
LINE
  5
20BEB
330
20BD7
100
AcDbEntity
  8
bolt
  6
Continuous
370
     5
100
AcDbLine
 10
7.827602548166396
 20
4.250000259825809
 30
0.0
 11
8.465702548166516
 21
3.600000259825718
 31
0.0
  0
LINE
  5
20BEC
330
20BD7
100
AcDbEntity
  8
bolt
  6
Continuous
370
     5
100
AcDbLine
 10
8.465702548166516
 20
3.600000259825718
 30
0.0
 11
8.85000254816623
 21
4.250000259825809
 31
0.0
  0
LINE
  5
20BED
330
20BD7
100
AcDbEntity
  8
bolt
  6
Continuous
370
     5
100
AcDbLine
 10
8.85000254816623
 20
4.250000259825809
 30
0.0
 11
9.488102548166351
 21
3.600000259825718
 31
0.0
  0
LINE
  5
20BEE
330
20BD7
100
AcDbEntity
  8
bolt
  6
Continuous
370
     5
100
AcDbLine
 10
9.488102548166351
 20
3.600000259825718
 30
0.0
 11
9.872302548166773
 21
4.250000259825809
 31
0.0
  0
LINE
  5
20BEF
330
20BD7
100
AcDbEntity
  8
bolt
  6
Continuous
370
     5
100
AcDbLine
 10
2.259402548166689
 20
8.750000259825808
 30
0.0
 11
2.621202548167274
 21
9.400000259825901
 31
0.0
  0
LINE
  5
20BF0
330
20BD7
100
AcDbEntity
  8
bolt
  6
Continuous
370
     5
100
AcDbLine
 10
2.621202548167274
 20
9.400000259825901
 30
0.0
 11
3.281802548166524
 21
8.750000259825808
 31
0.0
  0
LINE
  5
20BF1
330
20BD7
100
AcDbEntity
  8
bolt
  6
Continuous
370
     5
100
AcDbLine
 10
3.281802548166524
 20
8.750000259825808
 30
0.0
 11
3.643602548167109
 21
9.400000259825901
 31
0.0
  0
LINE
  5
20BF2
330
20BD7
100
AcDbEntity
  8
bolt
  6
Continuous
370
     5
100
AcDbLine
 10
3.643602548167109
 20
9.400000259825901
 30
0.0
 11
4.304102548167064
 21
8.750000259825808
 31
0.0
  0
LINE
  5
20BF3
330
20BD7
100
AcDbEntity
  8
bolt
  6
Continuous
370
     5
100
AcDbLine
 10
4.304102548167064
 20
8.750000259825808
 30
0.0
 11
4.665902548167649
 21
9.400000259825901
 31
0.0
  0
LINE
  5
20BF4
330
20BD7
100
AcDbEntity
  8
bolt
  6
Continuous
370
     5
100
AcDbLine
 10
4.665902548167649
 20
9.400000259825901
 30
0.0
 11
5.326402548165788
 21
8.750000259825808
 31
0.0
  0
LINE
  5
20BF5
330
20BD7
100
AcDbEntity
  8
bolt
  6
Continuous
370
     5
100
AcDbLine
 10
5.326402548165788
 20
8.750000259825808
 30
0.0
 11
5.688202548166371
 21
9.400000259825901
 31
0.0
  0
LINE
  5
20BF6
330
20BD7
100
AcDbEntity
  8
bolt
  6
Continuous
370
     5
100
AcDbLine
 10
5.688202548166371
 20
9.400000259825901
 30
0.0
 11
6.348802548167441
 21
8.750000259825808
 31
0.0
  0
LINE
  5
20BF7
330
20BD7
100
AcDbEntity
  8
bolt
  6
Continuous
370
     5
100
AcDbLine
 10
6.348802548167441
 20
8.750000259825808
 30
0.0
 11
6.710602548166207
 21
9.400000259825901
 31
0.0
  0
LINE
  5
20BF8
330
20BD7
100
AcDbEntity
  8
bolt
  6
Continuous
370
     5
100
AcDbLine
 10
6.710602548166207
 20
9.400000259825901
 30
0.0
 11
7.371102548167981
 21
8.750000259825808
 31
0.0
  0
LINE
  5
20BF9
330
20BD7
100
AcDbEntity
  8
bolt
  6
Continuous
370
     5
100
AcDbLine
 10
7.371102548167981
 20
8.750000259825808
 30
0.0
 11
7.732902548166746
 21
9.400000259825901
 31
0.0
  0
LINE
  5
20BFA
330
20BD7
100
AcDbEntity
  8
bolt
  6
Continuous
370
     5
100
AcDbLine
 10
7.732902548166746
 20
9.400000259825901
 30
0.0
 11
8.393502548165997
 21
8.750000259825808
 31
0.0
  0
LINE
  5
20BFB
330
20BD7
100
AcDbEntity
  8
bolt
  6
Continuous
370
     5
100
AcDbLine
 10
8.393502548165997
 20
8.750000259825808
 30
0.0
 11
8.755302548166582
 21
9.400000259825901
 31
0.0
  0
LINE
  5
20BFC
330
20BD7
100
AcDbEntity
  8
bolt
  6
Continuous
370
     5
100
AcDbLine
 10
8.755302548166582
 20
9.400000259825901
 30
0.0
 11
9.415802548166539
 21
8.750000259825808
 31
0.0
  0
LINE
  5
20BFD
330
20BD7
100
AcDbEntity
  8
bolt
  6
Continuous
370
     5
100
AcDbLine
 10
9.415802548166539
 20
8.750000259825808
 30
0.0
 11
9.777602548167122
 21
9.400000259825901
 31
0.0
  0
LINE
  5
20BFE
330
20BD7
100
AcDbEntity
  8
bolt
  6
Continuous
370
     5
100
AcDbLine
 10
9.777602548167122
 20
9.400000259825901
 30
0.0
 11
10.43810254816708
 21
8.750000259825808
 31
0.0
  0
LINE
  5
20BFF
330
20BD7
100
AcDbEntity
  8
bolt
  6
Continuous
370
     5
100
AcDbLine
 10
2.10000254816623
 20
8.750000259825808
 30
0.0
 11
2.259402548166689
 21
8.750000259825808
 31
0.0
  0
LINE
  5
20C00
330
20BD7
100
AcDbEntity
  8
bolt
  6
Continuous
370
     5
100
AcDbLine
 10
0.8000025481669581
 20
13.00000025982581
 30
0.0
 11
2.10000254816623
 21
13.00000025982581
 31
0.0
  0
LINE
  5
20C01
330
20BD7
100
AcDbEntity
  8
bolt
  6
Continuous
370
     5
100
AcDbLine
 10
9.872302548166773
 20
4.250000259825809
 30
0.0
 11
10.51040254816689
 21
3.600000259825718
 31
0.0
  0
LINE
  5
20C02
330
20BD7
100
AcDbEntity
  8
bolt
  6
Continuous
370
     5
100
AcDbLine
 10
10.51040254816689
 20
3.600000259825718
 30
0.0
 11
10.89460254816731
 21
4.250000259825809
 31
0.0
  0
LINE
  5
20C03
330
20BD7
100
AcDbEntity
  8
bolt
  6
Continuous
370
     5
100
AcDbLine
 10
10.43810254816708
 20
8.750000259825808
 30
0.0
 11
10.79990254816584
 21
9.400000259825901
 31
0.0
  0
LINE
  5
20C04
330
20BD7
100
AcDbEntity
  8
bolt
  6
Continuous
370
     5
100
AcDbLine
 10
10.79990254816584
 20
9.400000259825901
 30
0.0
 11
11.46050254816691
 21
8.750000259825808
 31
0.0
  0
LINE
  5
20C05
330
20BD7
100
AcDbEntity
  8
bolt
  6
Continuous
370
     5
100
AcDbLine
 10
10.89460254816731
 20
4.250000259825809
 30
0.0
 11
11.53280254816673
 21
3.600000259825718
 31
0.0
  0
LINE
  5
20C06
330
20BD7
100
AcDbEntity
  8
bolt
  6
Continuous
370
     5
100
AcDbLine
 10
11.53280254816673
 20
3.600000259825718
 30
0.0
 11
11.91700254816715
 21
4.250000259825809
 31
0.0
  0
LINE
  5
20C07
330
20BD7
100
AcDbEntity
  8
bolt
  6
Continuous
370
     5
100
AcDbLine
 10
11.46050254816691
 20
8.750000259825808
 30
0.0
 11
11.8223025481675
 21
9.400000259825901
 31
0.0
  0
LINE
  5
20C08
330
20BD7
100
AcDbEntity
  8
bolt
  6
Continuous
370
     5
100
AcDbLine
 10
11.8223025481675
 20
9.400000259825901
 30
0.0
 11
12.48280254816563
 21
8.750000259825808
 31
0.0
  0
LINE
  5
20C09
330
20BD7
100
AcDbEntity
  8
bolt
  6
Continuous
370
     5
100
AcDbLine
 10
11.91700254816715
 20
4.250000259825809
 30
0.0
 11
12.55510254816727
 21
3.600000259825718
 31
0.0
  0
LINE
  5
20C0A
330
20BD7
100
AcDbEntity
  8
bolt
  6
Continuous
370
     5
100
AcDbLine
 10
12.55510254816727
 20
3.600000259825718
 30
0.0
 11
12.93930254816587
 21
4.250000259825809
 31
0.0
  0
LINE
  5
20C0B
330
20BD7
100
AcDbEntity
  8
bolt
  6
Continuous
370
     5
100
AcDbLine
 10
12.48280254816563
 20
8.750000259825808
 30
0.0
 11
12.84460254816622
 21
9.400000259825901
 31
0.0
  0
LINE
  5
20C0C
330
20BD7
100
AcDbEntity
  8
bolt
  6
Continuous
370
     5
100
AcDbLine
 10
12.84460254816622
 20
9.400000259825901
 30
0.0
 11
13.50520254816729
 21
8.750000259825808
 31
0.0
  0
LINE
  5
20C0D
330
20BD7
100
AcDbEntity
  8
bolt
  6
Continuous
370
     5
100
AcDbLine
 10
12.93930254816587
 20
4.250000259825809
 30
0.0
 11
13.57740254816599
 21
3.600000259825718
 31
0.0
  0
LINE
  5
20C0E
330
20BD7
100
AcDbEntity
  8
bolt
  6
Continuous
370
     5
100
AcDbLine
 10
13.57740254816599
 20
3.600000259825718
 30
0.0
 11
13.96170254816752
 21
4.250000259825809
 31
0.0
  0
LINE
  5
20C0F
330
20BD7
100
AcDbEntity
  8
bolt
  6
Continuous
370
     5
100
AcDbLine
 10
13.50520254816729
 20
8.750000259825808
 30
0.0
 11
13.86700254816605
 21
9.400000259825901
 31
0.0
  0
LINE
  5
20C10
330
20BD7
100
AcDbEntity
  8
bolt
  6
Continuous
370
     5
100
AcDbLine
 10
13.86700254816605
 20
9.400000259825901
 30
0.0
 11
14.52750254816783
 21
8.750000259825808
 31
0.0
  0
LINE
  5
20C11
330
20BD7
100
AcDbEntity
  8
bolt
  6
Continuous
370
     5
100
AcDbLine
 10
13.96170254816752
 20
4.250000259825809
 30
0.0
 11
14.59980254816764
 21
3.600000259825718
 31
0.0
  0
LINE
  5
20C12
330
20BD7
100
AcDbEntity
  8
bolt
  6
Continuous
370
     5
100
AcDbLine
 10
14.59980254816764
 20
3.600000259825718
 30
0.0
 11
14.98400254816624
 21
4.250000259825809
 31
0.0
  0
LINE
  5
20C13
330
20BD7
100
AcDbEntity
  8
bolt
  6
Continuous
370
     5
100
AcDbLine
 10
14.52750254816783
 20
8.750000259825808
 30
0.0
 11
14.8893025481666
 21
9.400000259825901
 31
0.0
  0
LINE
  5
20C14
330
20BD7
100
AcDbEntity
  8
bolt
  6
Continuous
370
     5
100
AcDbLine
 10
14.8893025481666
 20
9.400000259825901
 30
0.0
 11
15.54980254816655
 21
8.750000259825808
 31
0.0
  0
LINE
  5
20C15
330
20BD7
100
AcDbEntity
  8
bolt
  6
Continuous
370
     5
100
AcDbLine
 10
14.98400254816624
 20
4.250000259825809
 30
0.0
 11
15.62210254816637
 21
3.600000259825718
 31
0.0
  0
LINE
  5
20C16
330
20BD7
100
AcDbEntity
  8
bolt
  6
Continuous
370
     5
100
AcDbLine
 10
15.62210254816637
 20
3.600000259825718
 30
0.0
 11
16.00630254816678
 21
4.250000259825809
 31
0.0
  0
LINE
  5
20C17
330
20BD7
100
AcDbEntity
  8
bolt
  6
Continuous
370
     5
100
AcDbLine
 10
15.54980254816655
 20
8.750000259825808
 30
0.0
 11
15.91160254816714
 21
9.400000259825901
 31
0.0
  0
LINE
  5
20C18
330
20BD7
100
AcDbEntity
  8
bolt
  6
Continuous
370
     5
100
AcDbLine
 10
15.91160254816714
 20
9.400000259825901
 30
0.0
 11
16.57220254816639
 21
8.750000259825808
 31
0.0
  0
LINE
  5
20C19
330
20BD7
100
AcDbEntity
  8
bolt
  6
Continuous
370
     5
100
AcDbLine
 10
16.00630254816678
 20
4.250000259825809
 30
0.0
 11
16.64450254816619
 21
3.600000259825718
 31
0.0
  0
LINE
  5
20C1A
330
20BD7
100
AcDbEntity
  8
bolt
  6
Continuous
370
     5
100
AcDbLine
 10
16.64450254816619
 20
3.600000259825718
 30
0.0
 11
17.02870254816662
 21
4.250000259825809
 31
0.0
  0
LINE
  5
20C1B
330
20BD7
100
AcDbEntity
  8
bolt
  6
Continuous
370
     5
100
AcDbLine
 10
16.57220254816639
 20
8.750000259825808
 30
0.0
 11
16.93400254816697
 21
9.400000259825901
 31
0.0
  0
LINE
  5
20C1C
330
20BD7
100
AcDbEntity
  8
bolt
  6
Continuous
370
     5
100
AcDbLine
 10
16.93400254816697
 20
9.400000259825901
 30
0.0
 11
17.59450254816693
 21
8.750000259825808
 31
0.0
  0
LINE
  5
20C1D
330
20BD7
100
AcDbEntity
  8
bolt
  6
Continuous
370
     5
100
AcDbLine
 10
17.02870254816662
 20
4.250000259825809
 30
0.0
 11
17.66680254816674
 21
3.600000259825718
 31
0.0
  0
LINE
  5
20C1E
330
20BD7
100
AcDbEntity
  8
bolt
  6
Continuous
370
     5
100
AcDbLine
 10
17.66680254816674
 20
3.600000259825718
 30
0.0
 11
18.05100254816716
 21
4.250000259825809
 31
0.0
  0
LINE
  5
20C1F
330
20BD7
100
AcDbEntity
  8
bolt
  6
Continuous
370
     5
100
AcDbLine
 10
17.59450254816693
 20
8.750000259825808
 30
0.0
 11
17.95630254816569
 21
9.400000259825901
 31
0.0
  0
LINE
  5
20C20
330
20BD7
100
AcDbEntity
  8
bolt
  6
Continuous
370
     5
100
AcDbLine
 10
17.95630254816569
 20
9.400000259825901
 30
0.0
 11
18.61690254816676
 21
8.750000259825808
 31
0.0
  0
LINE
  5
20C21
330
20BD7
100
AcDbEntity
  8
bolt
  6
Continuous
370
     5
100
AcDbLine
 10
18.05100254816716
 20
4.250000259825809
 30
0.0
 11
18.68910254816728
 21
3.600000259825718
 31
0.0
  0
LINE
  5
20C22
330
20BD7
100
AcDbEntity
  8
bolt
  6
Continuous
370
     5
100
AcDbLine
 10
18.68910254816728
 20
3.600000259825718
 30
0.0
 11
19.07340254816699
 21
4.250000259825809
 31
0.0
  0
LINE
  5
20C23
330
20BD7
100
AcDbEntity
  8
bolt
  6
Continuous
370
     5
100
AcDbLine
 10
18.61690254816676
 20
8.750000259825808
 30
0.0
 11
18.97870254816735
 21
9.400000259825901
 31
0.0
  0
LINE
  5
20C24
330
20BD7
100
AcDbEntity
  8
bolt
  6
Continuous
370
     5
100
AcDbLine
 10
18.97870254816735
 20
9.400000259825901
 30
0.0
 11
19.6392025481673
 21
8.750000259825808
 31
0.0
  0
LINE
  5
20C25
330
20BD7
100
AcDbEntity
  8
bolt
  6
Continuous
370
     5
100
AcDbLine
 10
19.07340254816699
 20
4.250000259825809
 30
0.0
 11
19.71150254816712
 21
3.600000259825718
 31
0.0
  0
LINE
  5
20C26
330
20BD7
100
AcDbEntity
  8
bolt
  6
Continuous
370
     5
100
AcDbLine
 10
19.71150254816712
 20
3.600000259825718
 30
0.0
 11
20.09570254816572
 21
4.250000259825809
 31
0.0
  0
LINE
  5
20C27
330
20BD7
100
AcDbEntity
  8
bolt
  6
Continuous
370
     5
100
AcDbLine
 10
19.6392025481673
 20
8.750000259825808
 30
0.0
 11
20.00100254816789
 21
9.400000259825901
 31
0.0
  0
LINE
  5
20C28
330
20BD7
100
AcDbEntity
  8
bolt
  6
Continuous
370
     5
100
AcDbLine
 10
20.00100254816789
 20
9.400000259825901
 30
0.0
 11
20.66150254816603
 21
8.750000259825808
 31
0.0
  0
LINE
  5
20C29
330
20BD7
100
AcDbEntity
  8
bolt
  6
Continuous
370
     5
100
AcDbLine
 10
20.09570254816572
 20
4.250000259825809
 30
0.0
 11
20.73380254816584
 21
3.600000259825718
 31
0.0
  0
LINE
  5
20C2A
330
20BD7
100
AcDbEntity
  8
bolt
  6
Continuous
370
     5
100
AcDbLine
 10
20.73380254816584
 20
3.600000259825718
 30
0.0
 11
21.11800254816626
 21
4.250000259825809
 31
0.0
  0
LINE
  5
20C2B
330
20BD7
100
AcDbEntity
  8
bolt
  6
Continuous
370
     5
100
AcDbLine
 10
20.66150254816603
 20
8.750000259825808
 30
0.0
 11
21.02330254816661
 21
9.400000259825901
 31
0.0
  0
LINE
  5
20C2C
330
20BD7
100
AcDbEntity
  8
bolt
  6
Continuous
370
     5
100
AcDbLine
 10
21.02330254816661
 20
9.400000259825901
 30
0.0
 11
21.68390254816768
 21
8.750000259825808
 31
0.0
  0
LINE
  5
20C2D
330
20BD7
100
AcDbEntity
  8
bolt
  6
Continuous
370
     5
100
AcDbLine
 10
21.11800254816626
 20
4.250000259825809
 30
0.0
 11
21.75620254816749
 21
3.600000259825718
 31
0.0
  0
LINE
  5
20C2E
330
20BD7
100
AcDbEntity
  8
bolt
  6
Continuous
370
     5
100
AcDbLine
 10
21.75620254816749
 20
3.600000259825718
 30
0.0
 11
22.14040254816791
 21
4.250000259825809
 31
0.0
  0
LINE
  5
20C2F
330
20BD7
100
AcDbEntity
  8
bolt
  6
Continuous
370
     5
100
AcDbLine
 10
21.68390254816768
 20
8.750000259825808
 30
0.0
 11
22.04570254816645
 21
9.400000259825901
 31
0.0
  0
LINE
  5
20C30
330
20BD7
100
AcDbEntity
  8
bolt
  6
Continuous
370
     5
100
AcDbLine
 10
22.04570254816645
 20
9.400000259825901
 30
0.0
 11
22.7062025481664
 21
8.750000259825808
 31
0.0
  0
LINE
  5
20C31
330
20BD7
100
AcDbEntity
  8
bolt
  6
Continuous
370
     5
100
AcDbLine
 10
22.14040254816791
 20
4.250000259825809
 30
0.0
 11
22.77850254816621
 21
3.600000259825718
 31
0.0
  0
LINE
  5
20C32
330
20BD7
100
AcDbEntity
  8
bolt
  6
Continuous
370
     5
100
AcDbLine
 10
22.77850254816621
 20
3.600000259825718
 30
0.0
 11
23.16270254816664
 21
4.250000259825809
 31
0.0
  0
LINE
  5
20C33
330
20BD7
100
AcDbEntity
  8
bolt
  6
Continuous
370
     5
100
AcDbLine
 10
22.7062025481664
 20
8.750000259825808
 30
0.0
 11
23.06800254816699
 21
9.400000259825901
 31
0.0
  0
LINE
  5
20C34
330
20BD7
100
AcDbEntity
  8
bolt
  6
Continuous
370
     5
100
AcDbLine
 10
23.06800254816699
 20
9.400000259825901
 30
0.0
 11
23.72860254816623
 21
8.750000259825808
 31
0.0
  0
LINE
  5
20C35
330
20BD7
100
AcDbEntity
  8
bolt
  6
Continuous
370
     5
100
AcDbLine
 10
23.16270254816664
 20
4.250000259825809
 30
0.0
 11
23.80080254816676
 21
3.600000259825718
 31
0.0
  0
LINE
  5
20C36
330
20BD7
100
AcDbEntity
  8
bolt
  6
Continuous
370
     5
100
AcDbLine
 10
23.80080254816676
 20
3.600000259825718
 30
0.0
 11
24.18510254816647
 21
4.250000259825809
 31
0.0
  0
LINE
  5
20C37
330
20BD7
100
AcDbEntity
  8
bolt
  6
Continuous
370
     5
100
AcDbLine
 10
23.72860254816623
 20
8.750000259825808
 30
0.0
 11
24.09040254816682
 21
9.400000259825901
 31
0.0
  0
LINE
  5
20C38
330
20BD7
100
AcDbEntity
  8
bolt
  6
Continuous
370
     5
100
AcDbLine
 10
24.09040254816682
 20
9.400000259825901
 30
0.0
 11
24.75090254816678
 21
8.750000259825808
 31
0.0
  0
LINE
  5
20C39
330
20BD7
100
AcDbEntity
  8
bolt
  6
Continuous
370
     5
100
AcDbLine
 10
27.25210254816739
 20
4.250000259825809
 30
0.0
 11
27.89020254816569
 21
3.600000259825718
 31
0.0
  0
LINE
  5
20C3A
330
20BD7
100
AcDbEntity
  8
bolt
  6
Continuous
370
     5
100
AcDbLine
 10
27.89020254816569
 20
3.600000259825718
 30
0.0
 11
28.27440254816611
 21
4.250000259825809
 31
0.0
  0
LINE
  5
20C3B
330
20BD7
100
AcDbEntity
  8
bolt
  6
Continuous
370
     5
100
AcDbLine
 10
27.81790254816588
 20
8.750000259825808
 30
0.0
 11
28.17970254816646
 21
9.400000259825901
 31
0.0
  0
LINE
  5
20C3C
330
20BD7
100
AcDbEntity
  8
bolt
  6
Continuous
370
     5
100
AcDbLine
 10
28.17970254816646
 20
9.400000259825901
 30
0.0
 11
28.84030254816753
 21
8.750000259825808
 31
0.0
  0
LINE
  5
20C3D
330
20BD7
100
AcDbEntity
  8
bolt
  6
Continuous
370
     5
100
AcDbLine
 10
28.27440254816611
 20
4.250000259825809
 30
0.0
 11
28.91250254816623
 21
3.600000259825718
 31
0.0
  0
LINE
  5
20C3E
330
20BD7
100
AcDbEntity
  8
bolt
  6
Continuous
370
     5
100
AcDbLine
 10
28.91250254816623
 20
3.600000259825718
 30
0.0
 11
29.29680254816776
 21
4.250000259825809
 31
0.0
  0
LINE
  5
20C3F
330
20BD7
100
AcDbEntity
  8
bolt
  6
Continuous
370
     5
100
AcDbLine
 10
28.84030254816753
 20
8.750000259825808
 30
0.0
 11
29.20210254816629
 21
9.400000259825901
 31
0.0
  0
LINE
  5
20C40
330
20BD7
100
AcDbEntity
  8
bolt
  6
Continuous
370
     5
100
AcDbLine
 10
29.20210254816629
 20
9.400000259825901
 30
0.0
 11
29.86260254816625
 21
8.750000259825808
 31
0.0
  0
LINE
  5
20C41
330
20BD7
100
AcDbEntity
  8
bolt
  6
Continuous
370
     5
100
AcDbLine
 10
29.29680254816776
 20
4.250000259825809
 30
0.0
 11
29.93490254816789
 21
3.600000259825718
 31
0.0
  0
LINE
  5
20C42
330
20BD7
100
AcDbEntity
  8
bolt
  6
Continuous
370
     5
100
AcDbLine
 10
29.93490254816789
 20
3.600000259825718
 30
0.0
 11
30.31910254816648
 21
4.250000259825809
 31
0.0
  0
LINE
  5
20C43
330
20BD7
100
AcDbEntity
  8
bolt
  6
Continuous
370
     5
100
AcDbLine
 10
29.86260254816625
 20
8.750000259825808
 30
0.0
 11
30.22440254816684
 21
9.400000259825901
 31
0.0
  0
LINE
  5
20C44
330
20BD7
100
AcDbEntity
  8
bolt
  6
Continuous
370
     5
100
AcDbLine
 10
30.22440254816684
 20
9.400000259825901
 30
0.0
 11
30.88490254816679
 21
8.750000259825808
 31
0.0
  0
LINE
  5
20C45
330
20BD7
100
AcDbEntity
  8
bolt
  6
Continuous
370
     5
100
AcDbLine
 10
30.31910254816648
 20
4.250000259825809
 30
0.0
 11
30.95720254816661
 21
3.600000259825718
 31
0.0
  0
LINE
  5
20C46
330
20BD7
100
AcDbEntity
  8
bolt
  6
Continuous
370
     5
100
AcDbLine
 10
30.95720254816661
 20
3.600000259825718
 30
0.0
 11
31.34140254816703
 21
4.250000259825809
 31
0.0
  0
LINE
  5
20C47
330
20BD7
100
AcDbEntity
  8
bolt
  6
Continuous
370
     5
100
AcDbLine
 10
30.88490254816679
 20
8.750000259825808
 30
0.0
 11
31.24680254816667
 21
9.400000259825901
 31
0.0
  0
LINE
  5
20C48
330
20BD7
100
AcDbEntity
  8
bolt
  6
Continuous
370
     5
100
AcDbLine
 10
31.24680254816667
 20
9.400000259825901
 30
0.0
 11
31.90730254816663
 21
8.750000259825808
 31
0.0
  0
LINE
  5
20C49
330
20BD7
100
AcDbEntity
  8
bolt
  6
Continuous
370
     5
100
AcDbLine
 10
31.34140254816703
 20
4.250000259825809
 30
0.0
 11
31.97960254816644
 21
3.600000259825718
 31
0.0
  0
LINE
  5
20C4A
330
20BD7
100
AcDbEntity
  8
bolt
  6
Continuous
370
     5
100
AcDbLine
 10
31.97960254816644
 20
3.600000259825718
 30
0.0
 11
32.36380254816686
 21
4.250000259825809
 31
0.0
  0
LINE
  5
20C4B
330
20BD7
100
AcDbEntity
  8
bolt
  6
Continuous
370
     5
100
AcDbLine
 10
31.90730254816663
 20
8.750000259825808
 30
0.0
 11
32.26910254816721
 21
9.400000259825901
 31
0.0
  0
LINE
  5
20C4C
330
20BD7
100
AcDbEntity
  8
bolt
  6
Continuous
370
     5
100
AcDbLine
 10
32.26910254816721
 20
9.400000259825901
 30
0.0
 11
32.92960254816718
 21
8.750000259825808
 31
0.0
  0
LINE
  5
20C4D
330
20BD7
100
AcDbEntity
  8
bolt
  6
Continuous
370
     5
100
AcDbLine
 10
32.36380254816686
 20
4.250000259825809
 30
0.0
 11
33.00190254816698
 21
3.600000259825718
 31
0.0
  0
LINE
  5
20C4E
330
20BD7
100
AcDbEntity
  8
bolt
  6
Continuous
370
     5
100
AcDbLine
 10
33.00190254816698
 20
3.600000259825718
 30
0.0
 11
33.3861025481674
 21
4.250000259825809
 31
0.0
  0
LINE
  5
20C4F
330
20BD7
100
AcDbEntity
  8
bolt
  6
Continuous
370
     5
100
AcDbLine
 10
32.92960254816718
 20
8.750000259825808
 30
0.0
 11
33.29140254816593
 21
9.400000259825901
 31
0.0
  0
LINE
  5
20C50
330
20BD7
100
AcDbEntity
  8
bolt
  6
Continuous
370
     5
100
AcDbLine
 10
33.29140254816593
 20
9.400000259825901
 30
0.0
 11
33.952002548167
 21
8.750000259825808
 31
0.0
  0
LINE
  5
20C51
330
20BD7
100
AcDbEntity
  8
bolt
  6
Continuous
370
     5
100
AcDbLine
 10
33.3861025481674
 20
4.250000259825809
 30
0.0
 11
34.02420254816752
 21
3.600000259825718
 31
0.0
  0
LINE
  5
20C52
330
20BD7
100
AcDbEntity
  8
bolt
  6
Continuous
370
     5
100
AcDbLine
 10
34.02420254816752
 20
3.600000259825718
 30
0.0
 11
34.40850254816723
 21
4.250000259825809
 31
0.0
  0
LINE
  5
20C53
330
20BD7
100
AcDbEntity
  8
bolt
  6
Continuous
370
     5
100
AcDbLine
 10
33.952002548167
 20
8.750000259825808
 30
0.0
 11
34.3138025481676
 21
9.400000259825901
 31
0.0
  0
LINE
  5
20C54
330
20BD7
100
AcDbEntity
  8
bolt
  6
Continuous
370
     5
100
AcDbLine
 10
34.3138025481676
 20
9.400000259825901
 30
0.0
 11
34.97430254816573
 21
8.750000259825808
 31
0.0
  0
LINE
  5
20C55
330
20BD7
100
AcDbEntity
  8
bolt
  6
Continuous
370
     5
100
AcDbLine
 10
34.40850254816723
 20
4.250000259825809
 30
0.0
 11
35.04660254816736
 21
3.600000259825718
 31
0.0
  0
LINE
  5
20C56
330
20BD7
100
AcDbEntity
  8
bolt
  6
Continuous
370
     5
100
AcDbLine
 10
35.04660254816736
 20
3.600000259825718
 30
0.0
 11
35.43080254816596
 21
4.250000259825809
 31
0.0
  0
LINE
  5
20C57
330
20BD7
100
AcDbEntity
  8
bolt
  6
Continuous
370
     5
100
AcDbLine
 10
34.97430254816573
 20
8.750000259825808
 30
0.0
 11
35.33610254816632
 21
9.400000259825901
 31
0.0
  0
LINE
  5
20C58
330
20BD7
100
AcDbEntity
  8
bolt
  6
Continuous
370
     5
100
AcDbLine
 10
35.33610254816632
 20
9.400000259825901
 30
0.0
 11
35.99660254816626
 21
8.750000259825808
 31
0.0
  0
LINE
  5
20C59
330
20BD7
100
AcDbEntity
  8
bolt
  6
Continuous
370
     5
100
AcDbLine
 10
35.43080254816596
 20
4.250000259825809
 30
0.0
 11
36.06890254816608
 21
3.600000259825718
 31
0.0
  0
LINE
  5
20C5A
330
20BD7
100
AcDbEntity
  8
bolt
  6
Continuous
370
     5
100
AcDbLine
 10
36.06890254816608
 20
3.600000259825718
 30
0.0
 11
36.4531025481665
 21
4.250000259825809
 31
0.0
  0
LINE
  5
20C5B
330
20BD7
100
AcDbEntity
  8
bolt
  6
Continuous
370
     5
100
AcDbLine
 10
50.38170254816577
 20
3.600000259825718
 30
0.0
 11
50.76590254816618
 21
4.250000259825809
 31
0.0
  0
LINE
  5
20C5C
330
20BD7
100
AcDbEntity
  8
bolt
  6
Continuous
370
     5
100
AcDbLine
 10
50.30940254816596
 20
8.750000259825808
 30
0.0
 11
50.67120254816654
 21
9.400000259825901
 31
0.0
  0
LINE
  5
20C5D
330
20BD7
100
AcDbEntity
  8
bolt
  6
Continuous
370
     5
100
AcDbLine
 10
50.67120254816654
 20
9.400000259825901
 30
0.0
 11
51.33170254816651
 21
8.750000259825808
 31
0.0
  0
LINE
  5
20C5E
330
20BD7
100
AcDbEntity
  8
bolt
  6
Continuous
370
     5
100
AcDbLine
 10
50.76590254816618
 20
4.250000259825809
 30
0.0
 11
51.40400254816633
 21
3.600000259825718
 31
0.0
  0
LINE
  5
20C5F
330
20BD7
100
AcDbEntity
  8
bolt
  6
Continuous
370
     5
100
AcDbLine
 10
51.40400254816633
 20
3.600000259825718
 30
0.0
 11
51.78820254816674
 21
4.250000259825809
 31
0.0
  0
LINE
  5
20C60
330
20BD7
100
AcDbEntity
  8
bolt
  6
Continuous
370
     5
100
AcDbLine
 10
26.22970254816755
 20
4.250000259825809
 30
0.0
 11
26.86790254816697
 21
3.600000259825718
 31
0.0
  0
LINE
  5
20C61
330
20BD7
100
AcDbEntity
  8
bolt
  6
Continuous
370
     5
100
AcDbLine
 10
26.86790254816697
 20
3.600000259825718
 30
0.0
 11
27.25210254816739
 21
4.250000259825809
 31
0.0
  0
LINE
  5
20C62
330
20BD7
100
AcDbEntity
  8
bolt
  6
Continuous
370
     5
100
AcDbLine
 10
26.79560254816716
 20
8.750000259825808
 30
0.0
 11
27.15740254816774
 21
9.400000259825901
 31
0.0
  0
LINE
  5
20C63
330
20BD7
100
AcDbEntity
  8
bolt
  6
Continuous
370
     5
100
AcDbLine
 10
27.15740254816774
 20
9.400000259825901
 30
0.0
 11
27.81790254816588
 21
8.750000259825808
 31
0.0
  0
LINE
  5
20C64
330
20BD7
100
AcDbEntity
  8
bolt
  6
Continuous
370
     5
100
AcDbLine
 10
25.20740254816701
 20
4.250000259825809
 30
0.0
 11
25.84550254816714
 21
3.600000259825718
 31
0.0
  0
LINE
  5
20C65
330
20BD7
100
AcDbEntity
  8
bolt
  6
Continuous
370
     5
100
AcDbLine
 10
25.84550254816714
 20
3.600000259825718
 30
0.0
 11
26.22970254816755
 21
4.250000259825809
 31
0.0
  0
LINE
  5
20C66
330
20BD7
100
AcDbEntity
  8
bolt
  6
Continuous
370
     5
100
AcDbLine
 10
25.77320254816732
 20
8.750000259825808
 30
0.0
 11
26.13500254816609
 21
9.400000259825901
 31
0.0
  0
LINE
  5
20C67
330
20BD7
100
AcDbEntity
  8
bolt
  6
Continuous
370
     5
100
AcDbLine
 10
26.13500254816609
 20
9.400000259825901
 30
0.0
 11
26.79560254816716
 21
8.750000259825808
 31
0.0
  0
LINE
  5
20C68
330
20BD7
100
AcDbEntity
  8
bolt
  6
Continuous
370
     5
100
AcDbLine
 10
24.18510254816647
 20
4.250000259825809
 30
0.0
 11
24.82320254816659
 21
3.600000259825718
 31
0.0
  0
LINE
  5
20C69
330
20BD7
100
AcDbEntity
  8
bolt
  6
Continuous
370
     5
100
AcDbLine
 10
24.82320254816659
 20
3.600000259825718
 30
0.0
 11
25.20740254816701
 21
4.250000259825809
 31
0.0
  0
LINE
  5
20C6A
330
20BD7
100
AcDbEntity
  8
bolt
  6
Continuous
370
     5
100
AcDbLine
 10
24.75090254816678
 20
8.750000259825808
 30
0.0
 11
25.11270254816736
 21
9.400000259825901
 31
0.0
  0
LINE
  5
20C6B
330
20BD7
100
AcDbEntity
  8
bolt
  6
Continuous
370
     5
100
AcDbLine
 10
25.11270254816736
 20
9.400000259825901
 30
0.0
 11
25.77320254816732
 21
8.750000259825808
 31
0.0
  0
LINE
  5
20C6C
330
20BD7
100
AcDbEntity
  8
bolt
  6
Continuous
370
     5
100
AcDbLine
 10
2.621202548167274
 20
9.400000259825901
 30
0.0
 11
3.354002548167045
 21
3.600000259825718
 31
0.0
  0
LINE
  5
20C6D
330
20BD7
100
AcDbEntity
  8
bolt
  6
Continuous
370
     5
100
AcDbLine
 10
3.281802548166524
 20
8.750000259825808
 30
0.0
 11
3.738302548166756
 21
4.250000259825809
 31
0.0
  0
LINE
  5
20C6E
330
20BD7
100
AcDbEntity
  8
bolt
  6
Continuous
370
     5
100
AcDbLine
 10
3.643602548167109
 20
9.400000259825901
 30
0.0
 11
4.376402548166878
 21
3.600000259825718
 31
0.0
  0
LINE
  5
20C6F
330
20BD7
100
AcDbEntity
  8
bolt
  6
Continuous
370
     5
100
AcDbLine
 10
4.304102548167064
 20
8.750000259825808
 30
0.0
 11
4.760602548167297
 21
4.250000259825809
 31
0.0
  0
LINE
  5
20C70
330
20BD7
100
AcDbEntity
  8
bolt
  6
Continuous
370
     5
100
AcDbLine
 10
4.665902548167649
 20
9.400000259825901
 30
0.0
 11
5.398702548165601
 21
3.600000259825718
 31
0.0
  0
LINE
  5
20C71
330
20BD7
100
AcDbEntity
  8
bolt
  6
Continuous
370
     5
100
AcDbLine
 10
5.326402548165788
 20
8.750000259825808
 30
0.0
 11
5.782902548166021
 21
4.250000259825809
 31
0.0
  0
LINE
  5
20C72
330
20BD7
100
AcDbEntity
  8
bolt
  6
Continuous
370
     5
100
AcDbLine
 10
5.688202548166371
 20
9.400000259825901
 30
0.0
 11
6.421102548167255
 21
3.600000259825718
 31
0.0
  0
LINE
  5
20C73
330
20BD7
100
AcDbEntity
  8
bolt
  6
Continuous
370
     5
100
AcDbLine
 10
6.348802548167441
 20
8.750000259825808
 30
0.0
 11
6.805302548167673
 21
4.250000259825809
 31
0.0
  0
LINE
  5
20C74
330
20BD7
100
AcDbEntity
  8
bolt
  6
Continuous
370
     5
100
AcDbLine
 10
6.710602548166207
 20
9.400000259825901
 30
0.0
 11
7.443402548167796
 21
3.600000259825718
 31
0.0
  0
LINE
  5
20C75
330
20BD7
100
AcDbEntity
  8
bolt
  6
Continuous
370
     5
100
AcDbLine
 10
7.371102548167981
 20
8.750000259825808
 30
0.0
 11
7.827602548166396
 21
4.250000259825809
 31
0.0
  0
LINE
  5
20C76
330
20BD7
100
AcDbEntity
  8
bolt
  6
Continuous
370
     5
100
AcDbLine
 10
7.732902548166746
 20
9.400000259825901
 30
0.0
 11
8.465702548166516
 21
3.600000259825718
 31
0.0
  0
LINE
  5
20C77
330
20BD7
100
AcDbEntity
  8
bolt
  6
Continuous
370
     5
100
AcDbLine
 10
8.393502548165997
 20
8.750000259825808
 30
0.0
 11
8.85000254816623
 21
4.250000259825809
 31
0.0
  0
LINE
  5
20C78
330
20BD7
100
AcDbEntity
  8
bolt
  6
Continuous
370
     5
100
AcDbLine
 10
8.755302548166582
 20
9.400000259825901
 30
0.0
 11
9.488102548166351
 21
3.600000259825718
 31
0.0
  0
LINE
  5
20C79
330
20BD7
100
AcDbEntity
  8
bolt
  6
Continuous
370
     5
100
AcDbLine
 10
9.415802548166539
 20
8.750000259825808
 30
0.0
 11
9.872302548166773
 21
4.250000259825809
 31
0.0
  0
LINE
  5
20C7A
330
20BD7
100
AcDbEntity
  8
bolt
  6
Continuous
370
     5
100
AcDbLine
 10
9.777602548167122
 20
9.400000259825901
 30
0.0
 11
10.51040254816689
 21
3.600000259825718
 31
0.0
  0
LINE
  5
20C7B
330
20BD7
100
AcDbEntity
  8
bolt
  6
Continuous
370
     5
100
AcDbLine
 10
10.43810254816708
 20
8.750000259825808
 30
0.0
 11
10.89460254816731
 21
4.250000259825809
 31
0.0
  0
LINE
  5
20C7C
330
20BD7
100
AcDbEntity
  8
bolt
  6
Continuous
370
     5
100
AcDbLine
 10
10.79990254816584
 20
9.400000259825901
 30
0.0
 11
11.53280254816673
 21
3.600000259825718
 31
0.0
  0
LINE
  5
20C7D
330
20BD7
100
AcDbEntity
  8
bolt
  6
Continuous
370
     5
100
AcDbLine
 10
11.46050254816691
 20
8.750000259825808
 30
0.0
 11
11.91700254816715
 21
4.250000259825809
 31
0.0
  0
LINE
  5
20C7E
330
20BD7
100
AcDbEntity
  8
bolt
  6
Continuous
370
     5
100
AcDbLine
 10
11.8223025481675
 20
9.400000259825901
 30
0.0
 11
12.55510254816727
 21
3.600000259825718
 31
0.0
  0
LINE
  5
20C7F
330
20BD7
100
AcDbEntity
  8
bolt
  6
Continuous
370
     5
100
AcDbLine
 10
12.48280254816563
 20
8.750000259825808
 30
0.0
 11
12.93930254816587
 21
4.250000259825809
 31
0.0
  0
LINE
  5
20C80
330
20BD7
100
AcDbEntity
  8
bolt
  6
Continuous
370
     5
100
AcDbLine
 10
12.84460254816622
 20
9.400000259825901
 30
0.0
 11
13.57740254816599
 21
3.600000259825718
 31
0.0
  0
LINE
  5
20C81
330
20BD7
100
AcDbEntity
  8
bolt
  6
Continuous
370
     5
100
AcDbLine
 10
13.50520254816729
 20
8.750000259825808
 30
0.0
 11
13.96170254816752
 21
4.250000259825809
 31
0.0
  0
LINE
  5
20C82
330
20BD7
100
AcDbEntity
  8
bolt
  6
Continuous
370
     5
100
AcDbLine
 10
13.86700254816605
 20
9.400000259825901
 30
0.0
 11
14.59980254816764
 21
3.600000259825718
 31
0.0
  0
LINE
  5
20C83
330
20BD7
100
AcDbEntity
  8
bolt
  6
Continuous
370
     5
100
AcDbLine
 10
14.52750254816783
 20
8.750000259825808
 30
0.0
 11
14.98400254816624
 21
4.250000259825809
 31
0.0
  0
LINE
  5
20C84
330
20BD7
100
AcDbEntity
  8
bolt
  6
Continuous
370
     5
100
AcDbLine
 10
14.8893025481666
 20
9.400000259825901
 30
0.0
 11
15.62210254816637
 21
3.600000259825718
 31
0.0
  0
LINE
  5
20C85
330
20BD7
100
AcDbEntity
  8
bolt
  6
Continuous
370
     5
100
AcDbLine
 10
15.54980254816655
 20
8.750000259825808
 30
0.0
 11
16.00630254816678
 21
4.250000259825809
 31
0.0
  0
LINE
  5
20C86
330
20BD7
100
AcDbEntity
  8
bolt
  6
Continuous
370
     5
100
AcDbLine
 10
15.91160254816714
 20
9.400000259825901
 30
0.0
 11
16.64450254816619
 21
3.600000259825718
 31
0.0
  0
LINE
  5
20C87
330
20BD7
100
AcDbEntity
  8
bolt
  6
Continuous
370
     5
100
AcDbLine
 10
16.57220254816639
 20
8.750000259825808
 30
0.0
 11
17.02870254816662
 21
4.250000259825809
 31
0.0
  0
LINE
  5
20C88
330
20BD7
100
AcDbEntity
  8
bolt
  6
Continuous
370
     5
100
AcDbLine
 10
16.93400254816697
 20
9.400000259825901
 30
0.0
 11
17.66680254816674
 21
3.600000259825718
 31
0.0
  0
LINE
  5
20C89
330
20BD7
100
AcDbEntity
  8
bolt
  6
Continuous
370
     5
100
AcDbLine
 10
17.59450254816693
 20
8.750000259825808
 30
0.0
 11
18.05100254816716
 21
4.250000259825809
 31
0.0
  0
LINE
  5
20C8A
330
20BD7
100
AcDbEntity
  8
bolt
  6
Continuous
370
     5
100
AcDbLine
 10
17.95630254816569
 20
9.400000259825901
 30
0.0
 11
18.68910254816728
 21
3.600000259825718
 31
0.0
  0
LINE
  5
20C8B
330
20BD7
100
AcDbEntity
  8
bolt
  6
Continuous
370
     5
100
AcDbLine
 10
18.61690254816676
 20
8.750000259825808
 30
0.0
 11
19.07340254816699
 21
4.250000259825809
 31
0.0
  0
LINE
  5
20C8C
330
20BD7
100
AcDbEntity
  8
bolt
  6
Continuous
370
     5
100
AcDbLine
 10
18.97870254816735
 20
9.400000259825901
 30
0.0
 11
19.71150254816712
 21
3.600000259825718
 31
0.0
  0
LINE
  5
20C8D
330
20BD7
100
AcDbEntity
  8
bolt
  6
Continuous
370
     5
100
AcDbLine
 10
19.6392025481673
 20
8.750000259825808
 30
0.0
 11
20.09570254816572
 21
4.250000259825809
 31
0.0
  0
LINE
  5
20C8E
330
20BD7
100
AcDbEntity
  8
bolt
  6
Continuous
370
     5
100
AcDbLine
 10
20.00100254816789
 20
9.400000259825901
 30
0.0
 11
20.73380254816584
 21
3.600000259825718
 31
0.0
  0
LINE
  5
20C8F
330
20BD7
100
AcDbEntity
  8
bolt
  6
Continuous
370
     5
100
AcDbLine
 10
20.66150254816603
 20
8.750000259825808
 30
0.0
 11
21.11800254816626
 21
4.250000259825809
 31
0.0
  0
LINE
  5
20C90
330
20BD7
100
AcDbEntity
  8
bolt
  6
Continuous
370
     5
100
AcDbLine
 10
21.02330254816661
 20
9.400000259825901
 30
0.0
 11
21.75620254816749
 21
3.600000259825718
 31
0.0
  0
LINE
  5
20C91
330
20BD7
100
AcDbEntity
  8
bolt
  6
Continuous
370
     5
100
AcDbLine
 10
21.68390254816768
 20
8.750000259825808
 30
0.0
 11
22.14040254816791
 21
4.250000259825809
 31
0.0
  0
LINE
  5
20C92
330
20BD7
100
AcDbEntity
  8
bolt
  6
Continuous
370
     5
100
AcDbLine
 10
22.04570254816645
 20
9.400000259825901
 30
0.0
 11
22.77850254816621
 21
3.600000259825718
 31
0.0
  0
LINE
  5
20C93
330
20BD7
100
AcDbEntity
  8
bolt
  6
Continuous
370
     5
100
AcDbLine
 10
22.7062025481664
 20
8.750000259825808
 30
0.0
 11
23.16270254816664
 21
4.250000259825809
 31
0.0
  0
LINE
  5
20C94
330
20BD7
100
AcDbEntity
  8
bolt
  6
Continuous
370
     5
100
AcDbLine
 10
23.06800254816699
 20
9.400000259825901
 30
0.0
 11
23.80080254816676
 21
3.600000259825718
 31
0.0
  0
LINE
  5
20C95
330
20BD7
100
AcDbEntity
  8
bolt
  6
Continuous
370
     5
100
AcDbLine
 10
23.72860254816623
 20
8.750000259825808
 30
0.0
 11
24.18510254816647
 21
4.250000259825809
 31
0.0
  0
LINE
  5
20C96
330
20BD7
100
AcDbEntity
  8
bolt
  6
Continuous
370
     5
100
AcDbLine
 10
24.09040254816682
 20
9.400000259825901
 30
0.0
 11
24.82320254816659
 21
3.600000259825718
 31
0.0
  0
LINE
  5
20C97
330
20BD7
100
AcDbEntity
  8
bolt
  6
Continuous
370
     5
100
AcDbLine
 10
24.75090254816678
 20
8.750000259825808
 30
0.0
 11
25.20740254816701
 21
4.250000259825809
 31
0.0
  0
LINE
  5
20C98
330
20BD7
100
AcDbEntity
  8
bolt
  6
Continuous
370
     5
100
AcDbLine
 10
25.11270254816736
 20
9.400000259825901
 30
0.0
 11
25.84550254816714
 21
3.600000259825718
 31
0.0
  0
LINE
  5
20C99
330
20BD7
100
AcDbEntity
  8
bolt
  6
Continuous
370
     5
100
AcDbLine
 10
25.77320254816732
 20
8.750000259825808
 30
0.0
 11
26.22970254816755
 21
4.250000259825809
 31
0.0
  0
LINE
  5
20C9A
330
20BD7
100
AcDbEntity
  8
bolt
  6
Continuous
370
     5
100
AcDbLine
 10
26.13500254816609
 20
9.400000259825901
 30
0.0
 11
26.86790254816697
 21
3.600000259825718
 31
0.0
  0
LINE
  5
20C9B
330
20BD7
100
AcDbEntity
  8
bolt
  6
Continuous
370
     5
100
AcDbLine
 10
26.79560254816716
 20
8.750000259825808
 30
0.0
 11
27.25210254816739
 21
4.250000259825809
 31
0.0
  0
LINE
  5
20C9C
330
20BD7
100
AcDbEntity
  8
bolt
  6
Continuous
370
     5
100
AcDbLine
 10
27.15740254816774
 20
9.400000259825901
 30
0.0
 11
27.89020254816569
 21
3.600000259825718
 31
0.0
  0
LINE
  5
20C9D
330
20BD7
100
AcDbEntity
  8
bolt
  6
Continuous
370
     5
100
AcDbLine
 10
27.81790254816588
 20
8.750000259825808
 30
0.0
 11
28.27440254816611
 21
4.250000259825809
 31
0.0
  0
LINE
  5
20C9E
330
20BD7
100
AcDbEntity
  8
bolt
  6
Continuous
370
     5
100
AcDbLine
 10
28.17970254816646
 20
9.400000259825901
 30
0.0
 11
28.91250254816623
 21
3.600000259825718
 31
0.0
  0
LINE
  5
20C9F
330
20BD7
100
AcDbEntity
  8
bolt
  6
Continuous
370
     5
100
AcDbLine
 10
28.84030254816753
 20
8.750000259825808
 30
0.0
 11
29.29680254816776
 21
4.250000259825809
 31
0.0
  0
LINE
  5
20CA0
330
20BD7
100
AcDbEntity
  8
bolt
  6
Continuous
370
     5
100
AcDbLine
 10
29.20210254816629
 20
9.400000259825901
 30
0.0
 11
29.93490254816789
 21
3.600000259825718
 31
0.0
  0
LINE
  5
20CA1
330
20BD7
100
AcDbEntity
  8
bolt
  6
Continuous
370
     5
100
AcDbLine
 10
29.86260254816625
 20
8.750000259825808
 30
0.0
 11
30.31910254816648
 21
4.250000259825809
 31
0.0
  0
LINE
  5
20CA2
330
20BD7
100
AcDbEntity
  8
bolt
  6
Continuous
370
     5
100
AcDbLine
 10
30.22440254816684
 20
9.400000259825901
 30
0.0
 11
30.95720254816661
 21
3.600000259825718
 31
0.0
  0
LINE
  5
20CA3
330
20BD7
100
AcDbEntity
  8
bolt
  6
Continuous
370
     5
100
AcDbLine
 10
30.88490254816679
 20
8.750000259825808
 30
0.0
 11
31.34140254816703
 21
4.250000259825809
 31
0.0
  0
LINE
  5
20CA4
330
20BD7
100
AcDbEntity
  8
bolt
  6
Continuous
370
     5
100
AcDbLine
 10
31.24680254816667
 20
9.400000259825901
 30
0.0
 11
31.97960254816644
 21
3.600000259825718
 31
0.0
  0
LINE
  5
20CA5
330
20BD7
100
AcDbEntity
  8
bolt
  6
Continuous
370
     5
100
AcDbLine
 10
31.90730254816663
 20
8.750000259825808
 30
0.0
 11
32.36380254816686
 21
4.250000259825809
 31
0.0
  0
LINE
  5
20CA6
330
20BD7
100
AcDbEntity
  8
bolt
  6
Continuous
370
     5
100
AcDbLine
 10
32.26910254816721
 20
9.400000259825901
 30
0.0
 11
33.00190254816698
 21
3.600000259825718
 31
0.0
  0
LINE
  5
20CA7
330
20BD7
100
AcDbEntity
  8
bolt
  6
Continuous
370
     5
100
AcDbLine
 10
32.92960254816718
 20
8.750000259825808
 30
0.0
 11
33.3861025481674
 21
4.250000259825809
 31
0.0
  0
LINE
  5
20CA8
330
20BD7
100
AcDbEntity
  8
bolt
  6
Continuous
370
     5
100
AcDbLine
 10
33.29140254816593
 20
9.400000259825901
 30
0.0
 11
34.02420254816752
 21
3.600000259825718
 31
0.0
  0
LINE
  5
20CA9
330
20BD7
100
AcDbEntity
  8
bolt
  6
Continuous
370
     5
100
AcDbLine
 10
33.952002548167
 20
8.750000259825808
 30
0.0
 11
34.40850254816723
 21
4.250000259825809
 31
0.0
  0
LINE
  5
20CAA
330
20BD7
100
AcDbEntity
  8
bolt
  6
Continuous
370
     5
100
AcDbLine
 10
34.3138025481676
 20
9.400000259825901
 30
0.0
 11
35.04660254816736
 21
3.600000259825718
 31
0.0
  0
LINE
  5
20CAB
330
20BD7
100
AcDbEntity
  8
bolt
  6
Continuous
370
     5
100
AcDbLine
 10
34.97430254816573
 20
8.750000259825808
 30
0.0
 11
35.43080254816596
 21
4.250000259825809
 31
0.0
  0
LINE
  5
20CAC
330
20BD7
100
AcDbEntity
  8
bolt
  6
Continuous
370
     5
100
AcDbLine
 10
35.33610254816632
 20
9.400000259825901
 30
0.0
 11
36.06890254816608
 21
3.600000259825718
 31
0.0
  0
LINE
  5
20CAD
330
20BD7
100
AcDbEntity
  8
bolt
  6
Continuous
370
     5
100
AcDbLine
 10
35.99660254816626
 20
8.750000259825808
 30
0.0
 11
36.4531025481665
 21
4.250000259825809
 31
0.0
  0
LINE
  5
20CAE
330
20BD7
100
AcDbEntity
  8
bolt
  6
Continuous
370
     5
100
AcDbLine
 10
50.30940254816596
 20
8.750000259825808
 30
0.0
 11
50.76590254816618
 21
4.250000259825809
 31
0.0
  0
LINE
  5
20CAF
330
20BD7
100
AcDbEntity
  8
bolt
  6
Continuous
370
     5
100
AcDbLine
 10
50.67120254816654
 20
9.400000259825901
 30
0.0
 11
51.40400254816633
 21
3.600000259825718
 31
0.0
  0
LINE
  5
20CB0
330
20BD7
100
AcDbEntity
  8
bolt
  6
Continuous
370
     5
100
AcDbLine
 10
51.33170254816651
 20
8.750000259825808
 30
0.0
 11
51.78820254816674
 21
4.250000259825809
 31
0.0
  0
LINE
  5
20CB1
330
20BD7
100
AcDbEntity
  8
bolt
  6
Continuous
370
     5
100
AcDbLine
 10
52.10030254816594
 20
8.750000259825808
 30
0.0
 11
52.10030254816594
 21
4.250000259825809
 31
0.0
  0
LINE
  5
20CB2
330
20BD7
100
AcDbEntity
  8
bolt
  6
Continuous
370
     5
100
AcDbLine
 10
51.33170254816651
 20
8.750000259825808
 30
0.0
 11
52.10030254816594
 21
8.750000259825808
 31
0.0
  0
LINE
  5
20CB3
330
20BD7
100
AcDbEntity
  8
bolt
  6
Continuous
370
     5
100
AcDbLine
 10
51.78820254816674
 20
4.250000259825809
 30
0.0
 11
52.10030254816594
 21
4.250000259825809
 31
0.0
  0
LINE
  5
20CB4
330
20BD7
100
AcDbEntity
  8
bolt
  6
Continuous
370
     5
100
AcDbLine
 10
2.259402548166689
 20
8.750000259825808
 30
0.0
 11
2.715902548166923
 21
4.250000259825809
 31
0.0
  0
LINE
  5
20CB5
330
20BD7
100
AcDbEntity
  8
bolt
  6
Continuous
370
     5
100
AcDbLine
 10
49.28710254816724
 20
8.750000259825808
 30
0.0
 11
49.64890254816783
 21
9.400000259825901
 31
0.0
  0
LINE
  5
20CB6
330
20BD7
100
AcDbEntity
  8
bolt
  6
Continuous
370
     5
100
AcDbLine
 10
49.64890254816783
 20
9.400000259825901
 30
0.0
 11
50.30940254816596
 21
8.750000259825808
 31
0.0
  0
LINE
  5
20CB7
330
20BD7
100
AcDbEntity
  8
bolt
  6
Continuous
370
     5
100
AcDbLine
 10
49.74360254816565
 20
4.250000259825809
 30
0.0
 11
50.38170254816577
 21
3.600000259825718
 31
0.0
  0
LINE
  5
20CB8
330
20BD7
100
AcDbEntity
  8
bolt
  6
Continuous
370
     5
100
AcDbLine
 10
49.28710254816724
 20
8.750000259825808
 30
0.0
 11
49.74360254816565
 21
4.250000259825809
 31
0.0
  0
LINE
  5
20CB9
330
20BD7
100
AcDbEntity
  8
bolt
  6
Continuous
370
     5
100
AcDbLine
 10
49.64890254816783
 20
9.400000259825901
 30
0.0
 11
50.38170254816577
 21
3.600000259825718
 31
0.0
  0
LINE
  5
20CBA
330
20BD7
100
AcDbEntity
  8
0
  6
Continuous
 62
     5
370
     5
100
AcDbLine
 10
3.600002548166229
 20
13.00000025982581
 30
0.0
 11
3.600002548166229
 21
0.0000002598258106
 31
0.0
  0
LINE
  5
20CBB
330
20BD7
100
AcDbEntity
  8
0
  6
Continuous
 62
     5
370
     5
100
AcDbLine
 10
4.60000254816623
 20
13.00000025982581
 30
0.0
 11
4.60000254816623
 21
0.0000002598258106
 31
0.0
  0
LINE
  5
20CBC
330
20BD7
100
AcDbEntity
  8
一般
  6
Continuous
 62
     5
370
    13
100
AcDbLine
 10
2.10000254816623
 20
0.4000002598259016
 30
0.0
 11
3.600002548166229
 21
0.4000002598259016
 31
0.0
  0
LINE
  5
20CBD
330
20BD7
100
AcDbEntity
  8
一般
  6
Continuous
 62
     5
370
    13
100
AcDbLine
 10
2.10000254816623
 20
6.100000259825718
 30
0.0
 11
3.600002548166229
 21
6.100000259825718
 31
0.0
  0
LINE
  5
20CBE
330
20BD7
100
AcDbEntity
  8
一般
  6
Continuous
 62
     5
370
    13
100
AcDbLine
 10
2.10000254816623
 20
12.60000025982572
 30
0.0
 11
3.600002548166229
 21
12.60000025982572
 31
0.0
  0
LINE
  5
20CBF
330
20BD7
100
AcDbEntity
  8
一般
  6
Continuous
 62
     5
370
    13
100
AcDbLine
 10
2.10000254816623
 20
6.9000002598259
 30
0.0
 11
3.600002548166229
 21
6.9000002598259
 31
0.0
  0
LINE
  5
20CC0
330
20BD7
100
AcDbEntity
  8
一般
  6
Continuous
 62
     5
370
    13
100
AcDbLine
 10
3.600002548166229
 20
13.00000025982581
 30
0.0
 11
4.60000254816623
 21
13.00000025982581
 31
0.0
  0
LINE
  5
20CC1
330
20BD7
100
AcDbEntity
  8
一般
  6
Continuous
 62
     5
370
    13
100
AcDbLine
 10
4.60000254816623
 20
0.0000002598258106
 30
0.0
 11
3.600002548166229
 21
0.0000002598258106
 31
0.0
  0
LINE
  5
20CC2
330
20BD7
100
AcDbEntity
  8
bolt
  6
Continuous
370
     5
100
AcDbLine
 10
35.99660254816626
 20
8.750000259825808
 30
0.0
 11
36.35840254816685
 21
9.400000259825901
 31
0.0
  0
LINE
  5
20CC3
330
20BD7
100
AcDbEntity
  8
bolt
  6
Continuous
370
     5
100
AcDbLine
 10
36.35840254816685
 20
9.400000259825901
 30
0.0
 11
37.01890254816682
 21
8.750000259825808
 31
0.0
  0
LINE
  5
20CC4
330
20BD7
100
AcDbEntity
  8
bolt
  6
Continuous
370
     5
100
AcDbLine
 10
36.4531025481665
 20
4.250000259825809
 30
0.0
 11
37.09120254816662
 21
3.600000259825718
 31
0.0
  0
LINE
  5
20CC5
330
20BD7
100
AcDbEntity
  8
bolt
  6
Continuous
370
     5
100
AcDbLine
 10
37.09120254816662
 20
3.600000259825718
 30
0.0
 11
37.47540254816704
 21
4.250000259825809
 31
0.0
  0
LINE
  5
20CC6
330
20BD7
100
AcDbEntity
  8
bolt
  6
Continuous
370
     5
100
AcDbLine
 10
36.35840254816685
 20
9.400000259825901
 30
0.0
 11
37.09120254816662
 21
3.600000259825718
 31
0.0
  0
LINE
  5
20CC7
330
20BD7
100
AcDbEntity
  8
bolt
  6
Continuous
370
     5
100
AcDbLine
 10
37.01890254816682
 20
8.750000259825808
 30
0.0
 11
37.47540254816704
 21
4.250000259825809
 31
0.0
  0
LINE
  5
20CC8
330
20BD7
100
AcDbEntity
  8
bolt
  6
Continuous
370
     5
100
AcDbLine
 10
48.2648025481667
 20
8.750000259825808
 30
0.0
 11
48.62660254816728
 21
9.400000259825901
 31
0.0
  0
LINE
  5
20CC9
330
20BD7
100
AcDbEntity
  8
bolt
  6
Continuous
370
     5
100
AcDbLine
 10
48.62660254816728
 20
9.400000259825901
 30
0.0
 11
49.28710254816724
 21
8.750000259825808
 31
0.0
  0
LINE
  5
20CCA
330
20BD7
100
AcDbEntity
  8
bolt
  6
Continuous
370
     5
100
AcDbLine
 10
48.72130254816693
 20
4.250000259825809
 30
0.0
 11
49.35940254816705
 21
3.600000259825718
 31
0.0
  0
LINE
  5
20CCB
330
20BD7
100
AcDbEntity
  8
bolt
  6
Continuous
370
     5
100
AcDbLine
 10
49.35940254816705
 20
3.600000259825718
 30
0.0
 11
49.74360254816565
 21
4.250000259825809
 31
0.0
  0
LINE
  5
20CCC
330
20BD7
100
AcDbEntity
  8
bolt
  6
Continuous
370
     5
100
AcDbLine
 10
48.2648025481667
 20
8.750000259825808
 30
0.0
 11
48.72130254816693
 21
4.250000259825809
 31
0.0
  0
LINE
  5
20CCD
330
20BD7
100
AcDbEntity
  8
bolt
  6
Continuous
370
     5
100
AcDbLine
 10
48.62660254816728
 20
9.400000259825901
 30
0.0
 11
49.35940254816705
 21
3.600000259825718
 31
0.0
  0
LINE
  5
20CCE
330
20BD7
100
AcDbEntity
  8
bolt
  6
Continuous
370
     5
100
AcDbLine
 10
49.28710254816724
 20
8.750000259825808
 30
0.0
 11
49.74360254816565
 21
4.250000259825809
 31
0.0
  0
LINE
  5
20CCF
330
20BD7
100
AcDbEntity
  8
bolt
  6
Continuous
370
     5
100
AcDbLine
 10
38.04140254816593
 20
8.750000259825808
 30
0.0
 11
38.40320254816653
 21
9.400000259825901
 31
0.0
  0
LINE
  5
20CD0
330
20BD7
100
AcDbEntity
  8
bolt
  6
Continuous
370
     5
100
AcDbLine
 10
38.40320254816653
 20
9.400000259825901
 30
0.0
 11
39.0638025481676
 21
8.750000259825808
 31
0.0
  0
LINE
  5
20CD1
330
20BD7
100
AcDbEntity
  8
bolt
  6
Continuous
370
     5
100
AcDbLine
 10
38.49790254816618
 20
4.250000259825809
 30
0.0
 11
39.13600254816629
 21
3.600000259825718
 31
0.0
  0
LINE
  5
20CD2
330
20BD7
100
AcDbEntity
  8
bolt
  6
Continuous
370
     5
100
AcDbLine
 10
39.13600254816629
 20
3.600000259825718
 30
0.0
 11
39.520302548166
 21
4.250000259825809
 31
0.0
  0
LINE
  5
20CD3
330
20BD7
100
AcDbEntity
  8
bolt
  6
Continuous
370
     5
100
AcDbLine
 10
39.0638025481676
 20
8.750000259825808
 30
0.0
 11
39.42560254816635
 21
9.400000259825901
 31
0.0
  0
LINE
  5
20CD4
330
20BD7
100
AcDbEntity
  8
bolt
  6
Continuous
370
     5
100
AcDbLine
 10
39.42560254816635
 20
9.400000259825901
 30
0.0
 11
40.0861025481663
 21
8.750000259825808
 31
0.0
  0
LINE
  5
20CD5
330
20BD7
100
AcDbEntity
  8
bolt
  6
Continuous
370
     5
100
AcDbLine
 10
39.520302548166
 20
4.250000259825809
 30
0.0
 11
40.15840254816612
 21
3.600000259825718
 31
0.0
  0
LINE
  5
20CD6
330
20BD7
100
AcDbEntity
  8
bolt
  6
Continuous
370
     5
100
AcDbLine
 10
40.15840254816612
 20
3.600000259825718
 30
0.0
 11
40.54260254816653
 21
4.250000259825809
 31
0.0
  0
LINE
  5
20CD7
330
20BD7
100
AcDbEntity
  8
bolt
  6
Continuous
370
     5
100
AcDbLine
 10
40.0861025481663
 20
8.750000259825808
 30
0.0
 11
40.44790254816688
 21
9.400000259825901
 31
0.0
  0
LINE
  5
20CD8
330
20BD7
100
AcDbEntity
  8
bolt
  6
Continuous
370
     5
100
AcDbLine
 10
40.44790254816688
 20
9.400000259825901
 30
0.0
 11
41.10850254816614
 21
8.750000259825808
 31
0.0
  0
LINE
  5
20CD9
330
20BD7
100
AcDbEntity
  8
bolt
  6
Continuous
370
     5
100
AcDbLine
 10
40.54260254816653
 20
4.250000259825809
 30
0.0
 11
41.18070254816665
 21
3.600000259825718
 31
0.0
  0
LINE
  5
20CDA
330
20BD7
100
AcDbEntity
  8
bolt
  6
Continuous
370
     5
100
AcDbLine
 10
41.18070254816665
 20
3.600000259825718
 30
0.0
 11
41.56500254816637
 21
4.250000259825809
 31
0.0
  0
LINE
  5
20CDB
330
20BD7
100
AcDbEntity
  8
bolt
  6
Continuous
370
     5
100
AcDbLine
 10
41.10850254816614
 20
8.750000259825808
 30
0.0
 11
41.47030254816672
 21
9.400000259825901
 31
0.0
  0
LINE
  5
20CDC
330
20BD7
100
AcDbEntity
  8
bolt
  6
Continuous
370
     5
100
AcDbLine
 10
41.47030254816672
 20
9.400000259825901
 30
0.0
 11
42.13080254816667
 21
8.750000259825808
 31
0.0
  0
LINE
  5
20CDD
330
20BD7
100
AcDbEntity
  8
bolt
  6
Continuous
370
     5
100
AcDbLine
 10
41.56500254816637
 20
4.250000259825809
 30
0.0
 11
42.2031025481665
 21
3.600000259825718
 31
0.0
  0
LINE
  5
20CDE
330
20BD7
100
AcDbEntity
  8
bolt
  6
Continuous
370
     5
100
AcDbLine
 10
42.2031025481665
 20
3.600000259825718
 30
0.0
 11
42.58730254816692
 21
4.250000259825809
 31
0.0
  0
LINE
  5
20CDF
330
20BD7
100
AcDbEntity
  8
bolt
  6
Continuous
370
     5
100
AcDbLine
 10
42.13080254816667
 20
8.750000259825808
 30
0.0
 11
42.49260254816727
 21
9.400000259825901
 31
0.0
  0
LINE
  5
20CE0
330
20BD7
100
AcDbEntity
  8
bolt
  6
Continuous
370
     5
100
AcDbLine
 10
42.49260254816727
 20
9.400000259825901
 30
0.0
 11
43.15310254816721
 21
8.750000259825808
 31
0.0
  0
LINE
  5
20CE1
330
20BD7
100
AcDbEntity
  8
bolt
  6
Continuous
370
     5
100
AcDbLine
 10
42.58730254816692
 20
4.250000259825809
 30
0.0
 11
43.22540254816702
 21
3.600000259825718
 31
0.0
  0
LINE
  5
20CE2
330
20BD7
100
AcDbEntity
  8
bolt
  6
Continuous
370
     5
100
AcDbLine
 10
43.22540254816702
 20
3.600000259825718
 30
0.0
 11
43.60960254816745
 21
4.250000259825809
 31
0.0
  0
LINE
  5
20CE3
330
20BD7
100
AcDbEntity
  8
bolt
  6
Continuous
370
     5
100
AcDbLine
 10
43.15310254816721
 20
8.750000259825808
 30
0.0
 11
43.51490254816599
 21
9.400000259825901
 31
0.0
  0
LINE
  5
20CE4
330
20BD7
100
AcDbEntity
  8
bolt
  6
Continuous
370
     5
100
AcDbLine
 10
43.51490254816599
 20
9.400000259825901
 30
0.0
 11
44.17550254816704
 21
8.750000259825808
 31
0.0
  0
LINE
  5
20CE5
330
20BD7
100
AcDbEntity
  8
bolt
  6
Continuous
370
     5
100
AcDbLine
 10
43.60960254816745
 20
4.250000259825809
 30
0.0
 11
44.24780254816687
 21
3.600000259825718
 31
0.0
  0
LINE
  5
20CE6
330
20BD7
100
AcDbEntity
  8
bolt
  6
Continuous
370
     5
100
AcDbLine
 10
44.24780254816687
 20
3.600000259825718
 30
0.0
 11
44.63200254816547
 21
4.250000259825809
 31
0.0
  0
LINE
  5
20CE7
330
20BD7
100
AcDbEntity
  8
bolt
  6
Continuous
370
     5
100
AcDbLine
 10
44.17550254816704
 20
8.750000259825808
 30
0.0
 11
44.53730254816583
 21
9.400000259825901
 31
0.0
  0
LINE
  5
20CE8
330
20BD7
100
AcDbEntity
  8
bolt
  6
Continuous
370
     5
100
AcDbLine
 10
44.53730254816583
 20
9.400000259825901
 30
0.0
 11
45.19780254816578
 21
8.750000259825808
 31
0.0
  0
LINE
  5
20CE9
330
20BD7
100
AcDbEntity
  8
bolt
  6
Continuous
370
     5
100
AcDbLine
 10
44.63200254816547
 20
4.250000259825809
 30
0.0
 11
45.27010254816559
 21
3.600000259825718
 31
0.0
  0
LINE
  5
20CEA
330
20BD7
100
AcDbEntity
  8
bolt
  6
Continuous
370
     5
100
AcDbLine
 10
38.40320254816653
 20
9.400000259825901
 30
0.0
 11
39.13600254816629
 21
3.600000259825718
 31
0.0
  0
LINE
  5
20CEB
330
20BD7
100
AcDbEntity
  8
bolt
  6
Continuous
370
     5
100
AcDbLine
 10
39.0638025481676
 20
8.750000259825808
 30
0.0
 11
39.520302548166
 21
4.250000259825809
 31
0.0
  0
LINE
  5
20CEC
330
20BD7
100
AcDbEntity
  8
bolt
  6
Continuous
370
     5
100
AcDbLine
 10
39.42560254816635
 20
9.400000259825901
 30
0.0
 11
40.15840254816612
 21
3.600000259825718
 31
0.0
  0
LINE
  5
20CED
330
20BD7
100
AcDbEntity
  8
bolt
  6
Continuous
370
     5
100
AcDbLine
 10
40.0861025481663
 20
8.750000259825808
 30
0.0
 11
40.54260254816653
 21
4.250000259825809
 31
0.0
  0
LINE
  5
20CEE
330
20BD7
100
AcDbEntity
  8
bolt
  6
Continuous
370
     5
100
AcDbLine
 10
40.44790254816688
 20
9.400000259825901
 30
0.0
 11
41.18070254816665
 21
3.600000259825718
 31
0.0
  0
LINE
  5
20CEF
330
20BD7
100
AcDbEntity
  8
bolt
  6
Continuous
370
     5
100
AcDbLine
 10
41.10850254816614
 20
8.750000259825808
 30
0.0
 11
41.56500254816637
 21
4.250000259825809
 31
0.0
  0
LINE
  5
20CF0
330
20BD7
100
AcDbEntity
  8
bolt
  6
Continuous
370
     5
100
AcDbLine
 10
41.47030254816672
 20
9.400000259825901
 30
0.0
 11
42.2031025481665
 21
3.600000259825718
 31
0.0
  0
LINE
  5
20CF1
330
20BD7
100
AcDbEntity
  8
bolt
  6
Continuous
370
     5
100
AcDbLine
 10
42.13080254816667
 20
8.750000259825808
 30
0.0
 11
42.58730254816692
 21
4.250000259825809
 31
0.0
  0
LINE
  5
20CF2
330
20BD7
100
AcDbEntity
  8
bolt
  6
Continuous
370
     5
100
AcDbLine
 10
42.49260254816727
 20
9.400000259825901
 30
0.0
 11
43.22540254816702
 21
3.600000259825718
 31
0.0
  0
LINE
  5
20CF3
330
20BD7
100
AcDbEntity
  8
bolt
  6
Continuous
370
     5
100
AcDbLine
 10
43.15310254816721
 20
8.750000259825808
 30
0.0
 11
43.60960254816745
 21
4.250000259825809
 31
0.0
  0
LINE
  5
20CF4
330
20BD7
100
AcDbEntity
  8
bolt
  6
Continuous
370
     5
100
AcDbLine
 10
43.51490254816599
 20
9.400000259825901
 30
0.0
 11
44.24780254816687
 21
3.600000259825718
 31
0.0
  0
LINE
  5
20CF5
330
20BD7
100
AcDbEntity
  8
bolt
  6
Continuous
370
     5
100
AcDbLine
 10
44.17550254816704
 20
8.750000259825808
 30
0.0
 11
44.63200254816547
 21
4.250000259825809
 31
0.0
  0
LINE
  5
20CF6
330
20BD7
100
AcDbEntity
  8
bolt
  6
Continuous
370
     5
100
AcDbLine
 10
44.53730254816583
 20
9.400000259825901
 30
0.0
 11
45.27010254816559
 21
3.600000259825718
 31
0.0
  0
LINE
  5
20CF8
330
20BD7
100
AcDbEntity
  8
bolt
  6
Continuous
370
     5
100
AcDbLine
 10
45.27010254816559
 20
3.600000259825718
 30
0.0
 11
45.654302548166
 21
4.250000259825809
 31
0.0
  0
LINE
  5
20CF9
330
20BD7
100
AcDbEntity
  8
bolt
  6
Continuous
370
     5
100
AcDbLine
 10
45.19780254816578
 20
8.750000259825808
 30
0.0
 11
45.55960254816636
 21
9.400000259825901
 31
0.0
  0
LINE
  5
20CFA
330
20BD7
100
AcDbEntity
  8
bolt
  6
Continuous
370
     5
100
AcDbLine
 10
45.55960254816636
 20
9.400000259825901
 30
0.0
 11
46.22020254816742
 21
8.750000259825808
 31
0.0
  0
LINE
  5
20CFB
330
20BD7
100
AcDbEntity
  8
bolt
  6
Continuous
370
     5
100
AcDbLine
 10
45.654302548166
 20
4.250000259825809
 30
0.0
 11
46.29240254816614
 21
3.600000259825718
 31
0.0
  0
LINE
  5
20CFC
330
20BD7
100
AcDbEntity
  8
bolt
  6
Continuous
370
     5
100
AcDbLine
 10
46.29240254816614
 20
3.600000259825718
 30
0.0
 11
46.67670254816584
 21
4.250000259825809
 31
0.0
  0
LINE
  5
20CFD
330
20BD7
100
AcDbEntity
  8
bolt
  6
Continuous
370
     5
100
AcDbLine
 10
46.22020254816742
 20
8.750000259825808
 30
0.0
 11
46.5820025481662
 21
9.400000259825901
 31
0.0
  0
LINE
  5
20CFE
330
20BD7
100
AcDbEntity
  8
bolt
  6
Continuous
370
     5
100
AcDbLine
 10
46.5820025481662
 20
9.400000259825901
 30
0.0
 11
47.24250254816616
 21
8.750000259825808
 31
0.0
  0
LINE
  5
20CFF
330
20BD7
100
AcDbEntity
  8
bolt
  6
Continuous
370
     5
100
AcDbLine
 10
46.67670254816584
 20
4.250000259825809
 30
0.0
 11
47.31480254816597
 21
3.600000259825718
 31
0.0
  0
LINE
  5
20D00
330
20BD7
100
AcDbEntity
  8
bolt
  6
Continuous
370
     5
100
AcDbLine
 10
47.31480254816597
 20
3.600000259825718
 30
0.0
 11
47.69900254816639
 21
4.250000259825809
 31
0.0
  0
LINE
  5
20D01
330
20BD7
100
AcDbEntity
  8
bolt
  6
Continuous
370
     5
100
AcDbLine
 10
47.24250254816616
 20
8.750000259825808
 30
0.0
 11
47.60430254816674
 21
9.400000259825901
 31
0.0
  0
LINE
  5
20D02
330
20BD7
100
AcDbEntity
  8
bolt
  6
Continuous
370
     5
100
AcDbLine
 10
47.60430254816674
 20
9.400000259825901
 30
0.0
 11
48.2648025481667
 21
8.750000259825808
 31
0.0
  0
LINE
  5
20D03
330
20BD7
100
AcDbEntity
  8
bolt
  6
Continuous
370
     5
100
AcDbLine
 10
47.69900254816639
 20
4.250000259825809
 30
0.0
 11
48.33710254816651
 21
3.600000259825718
 31
0.0
  0
LINE
  5
20D04
330
20BD7
100
AcDbEntity
  8
bolt
  6
Continuous
370
     5
100
AcDbLine
 10
48.33710254816651
 20
3.600000259825718
 30
0.0
 11
48.72130254816693
 21
4.250000259825809
 31
0.0
  0
LINE
  5
20D05
330
20BD7
100
AcDbEntity
  8
bolt
  6
Continuous
370
     5
100
AcDbLine
 10
45.19780254816578
 20
8.750000259825808
 30
0.0
 11
45.654302548166
 21
4.250000259825809
 31
0.0
  0
LINE
  5
20D06
330
20BD7
100
AcDbEntity
  8
bolt
  6
Continuous
370
     5
100
AcDbLine
 10
45.55960254816636
 20
9.400000259825901
 30
0.0
 11
46.29240254816614
 21
3.600000259825718
 31
0.0
  0
LINE
  5
20D07
330
20BD7
100
AcDbEntity
  8
bolt
  6
Continuous
370
     5
100
AcDbLine
 10
46.22020254816742
 20
8.750000259825808
 30
0.0
 11
46.67670254816584
 21
4.250000259825809
 31
0.0
  0
LINE
  5
20D08
330
20BD7
100
AcDbEntity
  8
bolt
  6
Continuous
370
     5
100
AcDbLine
 10
46.5820025481662
 20
9.400000259825901
 30
0.0
 11
47.31480254816597
 21
3.600000259825718
 31
0.0
  0
LINE
  5
20D09
330
20BD7
100
AcDbEntity
  8
bolt
  6
Continuous
370
     5
100
AcDbLine
 10
47.24250254816616
 20
8.750000259825808
 30
0.0
 11
47.69900254816639
 21
4.250000259825809
 31
0.0
  0
LINE
  5
20D0A
330
20BD7
100
AcDbEntity
  8
bolt
  6
Continuous
370
     5
100
AcDbLine
 10
47.60430254816674
 20
9.400000259825901
 30
0.0
 11
48.33710254816651
 21
3.600000259825718
 31
0.0
  0
LINE
  5
20D0B
330
20BD7
100
AcDbEntity
  8
bolt
  6
Continuous
370
     5
100
AcDbLine
 10
37.01900254816611
 20
8.750000259825808
 30
0.0
 11
37.38080254816669
 21
9.400000259825901
 31
0.0
  0
LINE
  5
20D0C
330
20BD7
100
AcDbEntity
  8
bolt
  6
Continuous
370
     5
100
AcDbLine
 10
37.38080254816669
 20
9.400000259825901
 30
0.0
 11
38.04140254816593
 21
8.750000259825808
 31
0.0
  0
LINE
  5
20D0D
330
20BD7
100
AcDbEntity
  8
bolt
  6
Continuous
370
     5
100
AcDbLine
 10
37.47550254816633
 20
4.250000259825809
 30
0.0
 11
38.11360254816646
 21
3.600000259825718
 31
0.0
  0
LINE
  5
20D0E
330
20BD7
100
AcDbEntity
  8
bolt
  6
Continuous
370
     5
100
AcDbLine
 10
37.38080254816669
 20
9.400000259825901
 30
0.0
 11
38.11360254816646
 21
3.600000259825718
 31
0.0
  0
LINE
  5
20D0F
330
20BD7
100
AcDbEntity
  8
bolt
  6
Continuous
370
     5
100
AcDbLine
 10
38.11360254816646
 20
3.600000259825718
 30
0.0
 11
38.49780254816688
 21
4.250000259825809
 31
0.0
  0
LINE
  5
20D10
330
20BD7
100
AcDbEntity
  8
bolt
  6
Continuous
370
     5
100
AcDbLine
 10
38.04140254816593
 20
8.750000259825808
 30
0.0
 11
38.49790254816618
 21
4.250000259825809
 31
0.0
  0
ENDBLK
  5
20D14
330
20BD7
100
AcDbEntity
  8
0
370
    25
100
AcDbBlockEnd
  0
BLOCK
  5
20FC1
330
20FB6
100
AcDbEntity
  8
0
370
    25
100
AcDbBlockBegin
  2
A$C153C7E87
 70
     0
 10
0.0
 20
0.0
 30
0.0
  3
A$C153C7E87
  1

  0
CIRCLE
  5
20FB7
330
20FB6
100
AcDbEntity
  8
bolt
  6
Continuous
370
     5
100
AcDbCircle
 10
6.500016386497009
 20
6.500001344672909
 30
0.0
 40
6.5
  0
CIRCLE
  5
20FB8
330
20FB6
100
AcDbEntity
  8
bolt
  6
Continuous
370
     5
100
AcDbCircle
 10
6.500016386497009
 20
6.500001344672909
 30
0.0
 40
5.7
  0
LINE
  5
20FB9
330
20FB6
100
AcDbEntity
  8
bolt
  6
Continuous
370
     5
100
AcDbLine
 10
5.500016386497009
 20
8.23200134467288
 30
0.0
 11
7.500016386497009
 21
8.23200134467288
 31
0.0
  0
LINE
  5
20FBA
330
20FB6
100
AcDbEntity
  8
bolt
  6
Continuous
370
     5
100
AcDbLine
 10
4.500016386497009
 20
6.500001344672909
 30
0.0
 11
5.500016386497009
 21
8.23200134467288
 31
0.0
  0
LINE
  5
20FBB
330
20FB6
100
AcDbEntity
  8
bolt
  6
Continuous
370
     5
100
AcDbLine
 10
4.500016386497009
 20
6.500001344672909
 30
0.0
 11
5.500016386497009
 21
4.767901344672736
 31
0.0
  0
LINE
  5
20FBC
330
20FB6
100
AcDbEntity
  8
bolt
  6
Continuous
370
     5
100
AcDbLine
 10
5.500016386497009
 20
4.767901344672736
 30
0.0
 11
7.500016386497009
 21
4.767901344672736
 31
0.0
  0
LINE
  5
20FBD
330
20FB6
100
AcDbEntity
  8
bolt
  6
Continuous
370
     5
100
AcDbLine
 10
7.500016386497009
 20
4.767901344672736
 30
0.0
 11
8.500016386497009
 21
6.500001344672909
 31
0.0
  0
LINE
  5
20FBE
330
20FB6
100
AcDbEntity
  8
bolt
  6
Continuous
370
     5
100
AcDbLine
 10
7.500016386497009
 20
8.23200134467288
 30
0.0
 11
8.500016386497009
 21
6.500001344672909
 31
0.0
  0
ENDBLK
  5
20FC2
330
20FB6
100
AcDbEntity
  8
0
370
    25
100
AcDbBlockEnd
  0
BLOCK
  5
230A6
330
230A3
100
AcDbEntity
  8
0
100
AcDbBlockBegin
  2
A$C73231E16
 70
     0
 10
0.0
 20
0.0
 30
0.0
  3
A$C73231E16
  1

  0
LINE
  5
230A7
330
230A3
100
AcDbEntity
  8
木ネジ・ダボ
100
AcDbLine
 10
0.0
 20
1.999996000417013
 30
0.0
 11
10.0
 21
1.999996000417013
 31
0.0
  0
LINE
  5
230A8
330
230A3
100
AcDbEntity
  8
木ネジ・ダボ
100
AcDbLine
 10
10.0
 20
1.999996000417013
 30
0.0
 11
10.00000000000182
 21
0.9999960004170134
 31
0.0
  0
LINE
  5
230A9
330
230A3
100
AcDbEntity
  8
木ネジ・ダボ
100
AcDbLine
 10
9.0
 20
-0.0000039995829866
 30
0.0
 11
1.000000000001817
 21
-0.0000039995829866
 31
0.0
  0
LINE
  5
230AA
330
230A3
100
AcDbEntity
  8
木ネジ・ダボ
100
AcDbLine
 10
-0.000000000001819
 20
0.9999960004170134
 30
0.0
 11
0.0
 21
1.999996000416785
 31
0.0
  0
LINE
  5
230AB
330
230A3
100
AcDbEntity
  8
木ネジ・ダボ
100
AcDbLine
 10
0.0
 20
0.9999960004170134
 30
0.0
 11
10.0
 21
0.9999960004170134
 31
0.0
  0
LINE
  5
230AC
330
230A3
100
AcDbEntity
  8
木ネジ・ダボ
100
AcDbLine
 10
0.0
 20
0.9999960004170134
 30
0.0
 11
1.0
 21
-0.0000039995829866
 31
0.0
  0
LINE
  5
230AD
330
230A3
100
AcDbEntity
  8
木ネジ・ダボ
100
AcDbLine
 10
10.0
 20
0.9999960004170134
 30
0.0
 11
9.0
 21
-0.0000039995829866
 31
0.0
  0
ENDBLK
  5
230AE
330
230A3
100
AcDbEntity
  8
0
100
AcDbBlockEnd
  0
BLOCK
  5
233EF
330
233E5
100
AcDbEntity
  8
0
370
     5
100
AcDbBlockBegin
  2
*D4
 70
     1
 10
0.0
 20
0.0
 30
0.0
  3
*D4
  1

  0
LINE
  5
233E6
330
233E5
100
AcDbEntity
  8
寸法
 62
     0
370
    -2
100
AcDbLine
 10
-13305.49381872773
 20
2221.292102425417
 30
0.0
 11
-13574.84759460748
 21
2221.292102425417
 31
0.0
  0
LINE
  5
233E7
330
233E5
100
AcDbEntity
  8
寸法
 62
     0
370
    -2
100
AcDbLine
 10
-13342.99381872773
 20
1869.29210242542
 30
0.0
 11
-13574.84759460748
 21
1869.29210242542
 31
0.0
  0
LINE
  5
233E8
330
233E5
100
AcDbEntity
  8
寸法
 62
     0
370
    -2
100
AcDbLine
 10
-13571.66759460748
 20
2219.791418831667
 30
0.0
 11
-13571.66759460748
 21
1870.79278601917
 31
0.0
  0
INSERT
  5
233E9
330
233E5
100
AcDbEntity
  8
寸法
 62
     0
370
    -2
100
AcDbBlockReference
  2
_DOT
 10
-13571.66759460748
 20
2221.292102425417
 30
0.0
 41
1.500683593749999
 42
1.500683593749999
 43
1.500683593749999
 50
90.0
  0
INSERT
  5
233EA
330
233E5
100
AcDbEntity
  8
寸法
 62
     0
370
    -2
100
AcDbBlockReference
  2
_DOT
 10
-13571.66759460748
 20
1869.29210242542
 30
0.0
 41
1.500683593749999
 42
1.500683593749999
 43
1.500683593749999
 50
270.0
  0
MTEXT
  5
233EB
330
233E5
100
AcDbEntity
  8
寸法
 62
     0
370
     5
100
AcDbMText
 10
-13585.25509460748
 20
2045.292102425417
 30
0.0
 40
24.0
 41
0.0
 46
0.0
 71
     5
 72
     1
  1
\A1;352
  7
ヒラギノ角ゴ Pro W3
 11
0.0000000000000001
 21
1.0
 31
0.0
 73
     1
 44
1.0
  0
POINT
  5
233EC
330
233E5
100
AcDbEntity
  8
Defpoints
 62
     0
370
     5
100
AcDbPoint
 10
-13297.49381872773
 20
2221.292102425417
 30
0.0
  0
POINT
  5
233ED
330
233E5
100
AcDbEntity
  8
Defpoints
 62
     0
370
     5
100
AcDbPoint
 10
-13334.99381872772
 20
1869.29210242542
 30
0.0
  0
POINT
  5
233EE
330
233E5
100
AcDbEntity
  8
Defpoints
 62
     0
370
     5
100
AcDbPoint
 10
-13571.66759460748
 20
1869.29210242542
 30
0.0
  0
ENDBLK
  5
233F0
330
233E5
100
AcDbEntity
  8
0
370
     5
100
AcDbBlockEnd
  0
ENDSEC
  0
SECTION
  2
ENTITIES
  0
ARC
  5
1FBB2
330
A
100
AcDbEntity
  8
天板
 62
     7
370
    50
100
AcDbCircle
 10
-13289.99381872773
 20
3198.421581229216
 30
0.0
 40
20.0
100
AcDbArc
 50
90.0
 51
180.0
  0
ARC
  5
1FBB3
330
A
100
AcDbEntity
  8
天板
 62
     7
370
    50
100
AcDbCircle
 10
-13289.99381872773
 20
3198.421581229216
 30
0.0
 40
5.0
100
AcDbArc
 50
90.0
 51
180.0
  0
LINE
  5
1FBB4
330
A
100
AcDbEntity
  8
天板
 62
     7
370
    25
100
AcDbLine
 10
-13293.52935263366
 20
3201.957115135149
 30
0.0
 11
-13304.13595435146
 21
3212.563716852947
 31
0.0
  0
LINE
  5
1FBD1
330
A
100
AcDbEntity
  8
天板
 62
     7
370
    50
100
AcDbLine
 10
-13309.99381872773
 20
3198.421581229216
 30
0.0
 11
-13309.99381872773
 21
2638.421581229215
 31
0.0
  0
LINE
  5
1FBD2
330
A
100
AcDbEntity
  8
天板
 62
     7
370
    50
100
AcDbLine
 10
-13294.99381872773
 20
3198.421581229216
 30
0.0
 11
-13294.99381872773
 21
2638.421581229215
 31
0.0
  0
LINE
  5
1FBD3
330
A
100
AcDbEntity
  8
脚
 62
     7
370
    50
100
AcDbLine
 10
-13310.99381872773
 20
2683.421581229215
 30
0.0
 11
-13310.99381872773
 21
2643.421581229216
 31
0.0
  0
ARC
  5
1FBD4
330
A
100
AcDbEntity
  8
脚
 62
     7
370
    50
100
AcDbCircle
 10
-13325.99381872773
 20
2663.421581229215
 30
0.0
 40
25.0
100
AcDbArc
 50
89.9999995002631
 51
269.9999999940594
  0
LINE
  5
1FBD5
330
A
100
AcDbEntity
  8
脚
 62
     7
370
    50
100
AcDbLine
 10
-13325.99381872773
 20
2688.421581229216
 30
0.0
 11
-13315.99381872773
 21
2688.421581229216
 31
0.0
  0
ARC
  5
1FBDA
330
A
100
AcDbEntity
  8
脚
 62
     7
370
    50
100
AcDbCircle
 10
13315.99381872773
 20
2683.421581229215
 30
0.0
 40
5.0
210
0.0
220
0.0
230
-1.0
100
AcDbArc
 50
90.0
 51
180.0
  0
ARC
  5
1FBDE
330
A
100
AcDbEntity
  8
天板
 62
     7
370
    50
100
AcDbCircle
 10
-13289.99381872773
 20
2638.421581229215
 30
0.0
 40
20.0
100
AcDbArc
 50
180.0
 51
270.0
  0
ARC
  5
1FBDF
330
A
100
AcDbEntity
  8
天板
 62
     7
370
    50
100
AcDbCircle
 10
-13289.99381872773
 20
2638.421581229215
 30
0.0
 40
5.0
100
AcDbArc
 50
180.0
 51
270.0
  0
LINE
  5
1FBE0
330
A
100
AcDbEntity
  8
天板
 62
     7
370
    25
100
AcDbLine
 10
-13293.52935263366
 20
2634.886047323283
 30
0.0
 11
-13304.13595435146
 21
2624.279445605484
 31
0.0
  0
LINE
  5
1FBE1
330
A
100
AcDbEntity
  8
脚
 62
     7
370
    50
100
AcDbLine
 10
-13325.99381872773
 20
2638.421581229215
 30
0.0
 11
-13315.99381872773
 21
2638.421581229215
 31
0.0
  0
ARC
  5
1FBE2
330
A
100
AcDbEntity
  8
脚
 62
     7
370
    50
100
AcDbCircle
 10
13315.99381872773
 20
2643.421581229216
 30
0.0
 40
5.0
210
0.0
220
0.0
230
-1.0
100
AcDbArc
 50
180.0
 51
270.0
  0
ARC
  5
1FC01
330
A
100
AcDbEntity
  8
天板
 62
     7
370
    50
100
AcDbCircle
 10
11265.03878255768
 20
2208.792102450813
 30
0.0
 40
12.5
210
0.0
220
0.0
230
-1.0
100
AcDbArc
 50
180.0
 51
270.0000001164142
  0
ARC
  5
1FC02
330
A
100
AcDbEntity
  8
天板
 62
     7
370
    50
100
AcDbCircle
 10
11265.03878255768
 20
2208.792102425416
 30
0.0
 40
12.5
210
0.0
220
0.0
230
-1.0
100
AcDbArc
 50
90.0
 51
180.0
  0
LINE
  5
1FC0F
102
{ACAD_REACTORS
330
22359
102
}
330
A
100
AcDbEntity
  8
貫
  6
STYLE_05
 62
     7
 48
3.0
370
    25
100
AcDbLine
 10
-11287.5387825669
 20
2196.29210251684
 30
0.0
 11
-11287.5387825669
 21
2136.292791844562
 31
0.0
  0
ARC
  5
1FC10
330
A
100
AcDbEntity
  8
脚
 62
     7
370
    50
100
AcDbCircle
 10
11272.53878255768
 20
1861.292102415262
 30
0.0
 40
5.0
210
0.0
220
0.0
230
-1.0
100
AcDbArc
 50
0.0
 51
90.0
  0
LINE
  5
1FC11
330
A
100
AcDbEntity
  8
脚
 62
     7
370
    50
100
AcDbLine
 10
-11272.5387825669
 20
2196.292102466049
 30
0.0
 11
-11272.53878323734
 21
1866.292102415262
 31
0.0
  0
LINE
  5
1FC15
102
{ACAD_REACTORS
330
22359
102
}
330
A
100
AcDbEntity
  8
貫
  6
STYLE_05
 62
     7
 48
3.0
370
    25
100
AcDbLine
 10
-11307.5387825669
 20
2136.292791787877
 30
0.0
 11
-11307.5387825669
 21
2196.29210251684
 31
0.0
  0
ARC
  5
1FC16
102
{ACAD_REACTORS
330
22359
102
}
330
A
100
AcDbEntity
  8
貫
  6
STYLE_05
 62
     7
 48
3.0
370
    25
100
AcDbCircle
 10
-11297.5387825669
 20
2136.292793117589
 30
0.0
 40
9.999999999999886
100
AcDbArc
 50
180.0
 51
0.0
  0
LINE
  5
1FC17
330
A
100
AcDbEntity
  8
レイヤー1
 62
     7
370
    13
100
AcDbLine
 10
-11307.5387825669
 20
2196.29210251684
 30
0.0
 11
-11287.5387825669
 21
2196.29210251684
 31
0.0
  0
LINE
  5
1FC18
330
A
100
AcDbEntity
  8
脚
 62
     7
370
    25
100
AcDbLine
 10
-11272.53878255768
 20
1866.292102415262
 30
0.0
 11
-11322.53878255768
 21
1866.292102415262
 31
0.0
  0
LINE
  5
1FC19
330
A
100
AcDbEntity
  8
脚
 62
     7
370
    50
100
AcDbLine
 10
-11317.53878255768
 20
1861.292102415262
 30
0.0
 11
-11277.53878255768
 21
1861.292102415262
 31
0.0
  0
LINE
  5
1FC1A
330
A
100
AcDbEntity
  8
脚
 62
     7
370
    50
100
AcDbLine
 10
-11322.53878257538
 20
1866.292102415262
 30
0.0
 11
-11322.5387821151
 21
2126.292793016006
 31
0.0
  0
LINE
  5
1FC1B
330
A
100
AcDbEntity
  8
脚
 62
     7
370
    50
100
AcDbLine
 10
-11320.45166104168
 20
2126.292102563391
 30
0.0
 11
-11320.45166087915
 21
2196.29210256339
 31
0.0
  0
ARC
  5
1FC1C
330
A
100
AcDbEntity
  8
脚
 62
     7
370
    50
100
AcDbCircle
 10
-11322.53878255768
 20
1861.292102415262
 30
0.0
 40
5.0
100
AcDbArc
 50
0.0
 51
90.0
  0
ARC
  5
1FC27
330
A
100
AcDbEntity
  8
天板
 62
     7
370
    50
100
AcDbCircle
 10
12422.49381872773
 20
2208.792102425416
 30
0.0
 40
12.5
210
0.0
220
0.0
230
-1.0
100
AcDbArc
 50
90.0
 51
180.0
  0
LINE
  5
1FC28
330
A
100
AcDbEntity
  8
脚
 62
     7
370
    25
100
AcDbLine
 10
-12409.99381872773
 20
2208.292102425417
 30
0.0
 11
-12409.99381872773
 21
2208.292102425417
 31
0.0
  0
ARC
  5
1FC29
330
A
100
AcDbEntity
  8
天板
 62
     7
370
    50
100
AcDbCircle
 10
12422.49381872773
 20
2208.792102425416
 30
0.0
 40
12.5
210
0.0
220
0.0
230
-1.0
100
AcDbArc
 50
180.0
 51
270.0
  0
LINE
  5
1FC30
330
A
100
AcDbEntity
  8
脚
 62
     7
370
    50
100
AcDbLine
 10
-11832.53878255768
 20
1866.29210242542
 30
0.0
 11
-11832.53878255768
 21
2183.292102425417
 31
0.0
  0
ARC
  5
1FC31
330
A
100
AcDbEntity
  8
脚
 62
     7
370
    50
100
AcDbCircle
 10
-11832.53878255768
 20
1861.29210242542
 30
0.0
 40
5.0
100
AcDbArc
 50
0.0
 51
90.0
  0
ARC
  5
1FC32
330
A
100
AcDbEntity
  8
天板
 62
     7
370
    50
100
AcDbCircle
 10
-11840.03878255768
 20
2208.792103619001
 30
0.0
 40
12.5
100
AcDbArc
 50
180.0
 51
269.9999998835858
  0
ARC
  5
1FC33
330
A
100
AcDbEntity
  8
天板
 62
     7
370
    50
100
AcDbCircle
 10
-11840.03878255768
 20
2208.792102425416
 30
0.0
 40
12.5
100
AcDbArc
 50
90.0
 51
180.0
  0
ARC
  5
1FC34
330
A
100
AcDbEntity
  8
脚
 62
     7
370
    50
100
AcDbCircle
 10
11807.53878255768
 20
2183.292102425417
 30
0.0
 40
25.0
210
0.0
220
0.0
230
-1.0
100
AcDbArc
 50
90.0
 51
180.0
  0
LINE
  5
1FC35
330
A
100
AcDbEntity
  8
脚
 62
     7
370
    25
100
AcDbLine
 10
-11782.53878255768
 20
1866.29210242542
 30
0.0
 11
-11832.53878255768
 21
1866.29210242542
 31
0.0
  0
LINE
  5
1FC36
330
A
100
AcDbEntity
  8
脚
 62
     7
370
    50
100
AcDbLine
 10
-11827.53878255768
 20
1861.29210242542
 30
0.0
 11
-11787.53878255768
 21
1861.29210242542
 31
0.0
  0
LINE
  5
1FC37
330
A
100
AcDbEntity
  8
天板
 62
     7
370
    50
100
AcDbLine
 10
-11840.03878255768
 20
2221.292102425417
 30
0.0
 11
-11792.53878255768
 21
2221.292102425417
 31
0.0
  0
LINE
  5
1FC38
330
A
100
AcDbEntity
  8
脚
 62
     7
370
    50
100
AcDbLine
 10
-11782.53878255768
 20
1866.29210242542
 30
0.0
 11
-11782.53878255768
 21
2183.292102425417
 31
0.0
  0
ARC
  5
1FC39
330
A
100
AcDbEntity
  8
脚
 62
     7
370
    50
100
AcDbCircle
 10
11782.53878255768
 20
1861.29210242542
 30
0.0
 40
5.0
210
0.0
220
0.0
230
-1.0
100
AcDbArc
 50
0.0
 51
90.0
  0
LINE
  5
1FC3A
330
A
100
AcDbEntity
  8
脚
 62
     7
370
    50
100
AcDbLine
 10
-11807.53878255768
 20
2208.792102425416
 30
0.0
 11
-11807.53878255768
 21
2208.792102425416
 31
0.0
  0
ARC
  5
1FC3B
330
A
100
AcDbEntity
  8
脚
 62
     7
370
    50
100
AcDbCircle
 10
-11807.53878255768
 20
2183.292102425417
 30
0.0
 40
25.0
100
AcDbArc
 50
90.0
 51
180.0
  0
LINE
  5
1FC3C
330
A
100
AcDbEntity
  8
レイヤー1
  6
STYLE_05
 62
     7
 48
3.0
370
    13
100
AcDbLine
 10
-11817.53878255768
 20
2196.292103532656
 30
0.0
 11
-11797.53878255768
 21
2196.292103532656
 31
0.0
  0
LINE
  5
1FC3E
102
{ACAD_REACTORS
330
225DF
102
}
330
A
100
AcDbEntity
  8
貫
  6
STYLE_05
 62
     7
 48
3.0
370
    25
100
AcDbLine
 10
-11797.53878255768
 20
2196.292103532656
 30
0.0
 11
-11797.53878255768
 21
2126.292103532657
 31
0.0
  0
LINE
  5
1FC40
102
{ACAD_REACTORS
330
225DF
102
}
330
A
100
AcDbEntity
  8
貫
  6
STYLE_05
 62
     7
 48
3.0
370
    25
100
AcDbLine
 10
-11817.53878255768
 20
2136.292103552973
 30
0.0
 11
-11817.53878255768
 21
2196.292103532656
 31
0.0
  0
LINE
  5
1FC4A
330
A
100
AcDbEntity
  8
脚
 62
     7
370
    50
100
AcDbLine
 10
-13350.99381872773
 20
1866.29210242542
 30
0.0
 11
-13350.99381872773
 21
2183.292102425417
 31
0.0
  0
LINE
  5
1FC4B
330
A
100
AcDbEntity
  8
脚
 62
     7
370
    50
100
AcDbLine
 10
-13310.99381872773
 20
2203.292102425416
 30
0.0
 11
-13310.99381872773
 21
1866.29210242542
 31
0.0
  0
LINE
  5
1FC4C
330
A
100
AcDbEntity
  8
脚
 62
     7
370
    25
100
AcDbLine
 10
-13349.99381872773
 20
1866.29210242542
 30
0.0
 11
-13310.99381872773
 21
1866.29210242542
 31
0.0
  0
ARC
  5
1FC4D
330
A
100
AcDbEntity
  8
脚
 62
     7
370
    50
100
AcDbCircle
 10
13310.99381872773
 20
1861.29210242542
 30
0.0
 40
5.0
210
0.0
220
0.0
230
-1.0
100
AcDbArc
 50
0.0
 51
90.0
  0
ARC
  5
1FC4E
330
A
100
AcDbEntity
  8
脚
 62
     7
370
    50
100
AcDbCircle
 10
-13350.99381872773
 20
1861.29210242542
 30
0.0
 40
5.0
100
AcDbArc
 50
0.0
 51
90.0
  0
ARC
  5
1FC4F
330
A
100
AcDbEntity
  8
天板
 62
     7
370
    50
100
AcDbCircle
 10
-13297.49381872773
 20
2208.792102425416
 30
0.0
 40
12.5
100
AcDbArc
 50
90.0
 51
180.0
  0
LINE
  5
1FC50
330
A
100
AcDbEntity
  8
脚
 62
     7
370
    50
100
AcDbLine
 10
-13309.99381872773
 20
2208.292102425417
 30
0.0
 11
-13309.99381872773
 21
2208.292102425417
 31
0.0
  0
ARC
  5
1FC51
330
A
100
AcDbEntity
  8
天板
 62
     7
370
    50
100
AcDbCircle
 10
-13297.49381872773
 20
2208.792102425416
 30
0.0
 40
12.5
100
AcDbArc
 50
180.0
 51
270.0
  0
ARC
  5
1FC52
330
A
100
AcDbEntity
  8
脚
 62
     7
370
    50
100
AcDbCircle
 10
-13325.99381872773
 20
2183.292102425417
 30
0.0
 40
25.0
100
AcDbArc
 50
90.0
 51
180.0
  0
LINE
  5
1FC53
330
A
100
AcDbEntity
  8
脚
 62
     7
370
    50
100
AcDbLine
 10
-13325.99381872773
 20
2208.292102425417
 30
0.0
 11
-13315.99381872773
 21
2208.292102425417
 31
0.0
  0
ARC
  5
1FC54
330
A
100
AcDbEntity
  8
脚
 62
     7
370
    50
100
AcDbCircle
 10
13315.99381872773
 20
2203.292102425416
 30
0.0
 40
5.0
210
0.0
220
0.0
230
-1.0
100
AcDbArc
 50
90.0
 51
180.0
  0
LINE
  5
1FC55
330
A
100
AcDbEntity
  8
脚
 62
     7
370
    50
100
AcDbLine
 10
-13315.99381872773
 20
1861.29210242542
 30
0.0
 11
-13345.99381872773
 21
1861.29210242542
 31
0.0
  0
LINE
  5
1FC5A
330
A
100
AcDbEntity
  8
脚
 62
     7
370
    25
100
AcDbLine
 10
-13244.99381872773
 20
1861.29210242542
 30
0.0
 11
-13284.99381872773
 21
1861.29210242542
 31
0.0
  0
LINE
  5
1FC5B
330
A
100
AcDbEntity
  8
脚
 62
     7
370
    25
100
AcDbLine
 10
-13239.99381872773
 20
1866.29210242542
 30
0.0
 11
-13239.99381872773
 21
2126.292793026164
 31
0.0
  0
LINE
  5
1FC5C
330
A
100
AcDbEntity
  8
脚
 62
     7
370
    25
100
AcDbLine
 10
-13289.99381872773
 20
1866.29210242542
 30
0.0
 11
-13289.99381872773
 21
2126.292793026164
 31
0.0
  0
LINE
  5
1FC60
330
A
100
AcDbEntity
  8
脚
 62
     7
370
    25
100
AcDbLine
 10
-13289.99381872773
 20
1866.29210242542
 30
0.0
 11
-13239.99381872773
 21
1866.29210242542
 31
0.0
  0
ARC
  5
1FC61
330
A
100
AcDbEntity
  8
脚
 62
     7
370
    25
100
AcDbCircle
 10
13239.99381872773
 20
1861.29210242542
 30
0.0
 40
5.0
210
0.0
220
0.0
230
-1.0
100
AcDbArc
 50
0.0
 51
90.0
  0
ARC
  5
1FC62
330
A
100
AcDbEntity
  8
脚
 62
     7
370
    25
100
AcDbCircle
 10
-13289.99381872773
 20
1861.29210242542
 30
0.0
 40
5.0
100
AcDbArc
 50
0.0
 51
90.0
  0
LINE
  5
1FC77
330
A
100
AcDbEntity
  8
天板
 62
     7
370
    50
100
AcDbLine
 10
-13289.99381872773
 20
2618.421581229215
 30
0.0
 11
-12859.99381872773
 21
2618.421581229215
 31
0.0
  0
LINE
  5
1FC78
330
A
100
AcDbEntity
  8
天板
 62
     7
370
    50
100
AcDbLine
 10
-13289.99381872773
 20
2633.421581229216
 30
0.0
 11
-12859.99381872773
 21
2633.421581229216
 31
0.0
  0
LINE
  5
1FC80
330
A
100
AcDbEntity
  8
貫
 62
     7
370
    25
100
AcDbLine
 10
-13310.99381872773
 20
2136.292099879366
 30
0.0
 11
-12408.99381872773
 21
2136.292099879366
 31
0.0
  0
LINE
  5
1FC81
330
A
100
AcDbEntity
  8
貫
 62
     7
370
    50
100
AcDbLine
 10
-13310.99381872773
 20
2126.292101152392
 30
0.0
 11
-12408.99381872774
 21
2126.292101152392
 31
0.0
  0
LINE
  5
1FC82
330
A
100
AcDbEntity
  8
天板
 62
     7
370
    50
100
AcDbLine
 10
-13297.49381872773
 20
2221.492102425417
 30
0.0
 11
-12424.99381872773
 21
2221.492102425417
 31
0.0
  0
LINE
  5
1FC83
330
A
100
AcDbEntity
  8
貫
 62
     7
370
    50
100
AcDbLine
 10
-13310.99381872773
 20
2196.292102425417
 30
0.0
 11
-12859.99381872773
 21
2196.292102425417
 31
0.0
  0
LINE
  5
1FC84
330
A
100
AcDbEntity
  8
貫
  6
STYLE_05
 62
     7
370
    13
100
AcDbLine
 10
-11797.53878255768
 20
2136.292793026495
 30
0.0
 11
-11782.53878255768
 21
2136.292793026165
 31
0.0
  0
LINE
  5
1FC87
330
A
100
AcDbEntity
  8
天板
 62
     7
370
    50
100
AcDbLine
 10
-11792.53878255768
 20
2221.292102425417
 30
0.0
 11
-11265.03878255768
 21
2221.292102425417
 31
0.0
  0
LINE
  5
1FC88
330
A
100
AcDbEntity
  8
天板
 62
     7
370
    50
100
AcDbLine
 10
-11840.03878258308
 20
2196.292103619001
 30
0.0
 11
-11829.1894169759
 21
2196.292103596959
 31
0.0
  0
LINE
  5
2007B
330
A
100
AcDbEntity
  8
貫
 62
     7
370
    25
100
AcDbLine
 10
-12859.99381872773
 20
2136.292099879366
 30
0.0
 11
-12408.99381872773
 21
2136.292099879366
 31
0.0
  0
LINE
  5
20082
330
A
100
AcDbEntity
  8
天板
 62
     7
370
    50
100
AcDbLine
 10
-13297.49381872773
 20
2196.292102425417
 30
0.0
 11
-12422.49381872773
 21
2196.292102425417
 31
0.0
  0
CIRCLE
  5
201ED
102
{ACAD_REACTORS
330
201F7
102
}
330
A
100
AcDbEntity
  8
木ネジ、ダボ
 62
     7
370
    25
100
AcDbCircle
 10
-13320.99381872773
 20
2181.292101788904
 30
0.0
 40
4.0
  0
CIRCLE
  5
201EE
102
{ACAD_REACTORS
330
201F7
102
}
330
A
100
AcDbEntity
  8
木ネジ、ダボ
 62
     7
370
    25
100
AcDbCircle
 10
-13320.99381872773
 20
2151.292101788905
 30
0.0
 40
4.0
  0
HATCH
  5
201F7
330
A
100
AcDbEntity
  8
木ネジ、ダボ
 62
     7
370
    25
100
AcDbHatch
 10
0.0
 20
0.0
 30
0.0
210
0.0
220
0.0
230
1.0
  2
ANSI31
 70
     0
 71
     1
 91
        2
 92
        7
 72
     1
 73
     1
 93
        2
 10
-13316.99381872773
 20
2181.292101788904
 42
1.0
 10
-13324.99381872773
 20
2181.292101788904
 42
1.0
 97
        1
330
201ED
 92
        7
 72
     1
 73
     1
 93
        2
 10
-13316.99381872773
 20
2151.292101788905
 42
1.0
 10
-13324.99381872773
 20
2151.292101788905
 42
1.0
 97
        1
330
201EE
 75
     0
 76
     1
 52
0.0
 41
1.0
 77
     0
 78
     1
 53
134.9999999999978
 43
-25715.98763745555
 44
106.0142565226683
 45
2.245064030267374
 46
2.245064030267201
 79
     0
 47
0.442748012474673
 98
        2
 10
-13318.96753913897
 20
2181.189484050294
 10
-13320.73955735032
 20
2151.525368112363
1001
ACAD
1010
0.0
1020
0.0
1030
0.0
  0
LINE
  5
20571
330
A
100
AcDbEntity
  8
天板
 62
     7
370
    50
100
AcDbLine
 10
-12859.99381872773
 20
3218.421581229215
 30
0.0
 11
-13289.99381872773
 21
3218.421581229215
 31
0.0
  0
LINE
  5
20572
330
A
100
AcDbEntity
  8
天板
 62
     7
370
    50
100
AcDbLine
 10
-12859.99381872773
 20
3203.421581229215
 30
0.0
 11
-13289.99381872773
 21
3203.421581229215
 31
0.0
  0
INSERT
  5
20FC3
330
A
100
AcDbEntity
  8
ボルト
 62
     7
370
    25
100
AcDbBlockReference
  2
A$C153C7E87
 10
-13271.49383511423
 20
2174.792100444232
 30
0.0
  0
CIRCLE
  5
20FC7
330
A
100
AcDbEntity
  8
貫
 62
     7
370
    50
100
AcDbCircle
 10
-13264.99381872773
 20
2181.292101788904
 30
0.0
 40
7.0
  0
INSERT
  5
20FC8
330
A
100
AcDbEntity
  8
ボルト
 62
     7
370
    25
100
AcDbBlockReference
  2
A$C153C7E87
 10
-13271.49383511423
 20
2144.792100444231
 30
0.0
  0
CIRCLE
  5
20FC9
330
A
100
AcDbEntity
  8
貫
 62
     7
370
    50
100
AcDbCircle
 10
-13264.99381872773
 20
2151.292101788905
 30
0.0
 40
7.0
  0
INSERT
  5
20FFD
330
A
100
AcDbEntity
  8
天板
 62
     7
370
    25
100
AcDbBlockReference
  2
A$C41BB26E9
 10
-11818.13878510585
 20
2174.792101529078
 30
0.0
  0
LWPOLYLINE
  5
20FFF
102
{ACAD_REACTORS
330
225DF
102
}
330
A
100
AcDbEntity
  8
貫
  6
STYLE_05
 62
     7
 48
3.0
370
    25
100
AcDbPolyline
 90
        4
 70
     1
 43
0.0
 10
-11813.53878255768
 20
2188.292101788905
 10
-11813.53878255768
 20
2174.292101788905
 10
-11817.53878255768
 20
2174.292101788905
 10
-11817.53878255768
 20
2188.292101788905
  0
LWPOLYLINE
  5
21000
102
{ACAD_REACTORS
330
225DF
102
}
330
A
100
AcDbEntity
  8
貫
  6
STYLE_05
 62
     7
 48
3.0
370
    25
100
AcDbPolyline
 90
        4
 70
     1
 43
0.0
 10
-11797.53878255768
 20
2185.292101788905
 10
-11797.53878255768
 20
2177.292101788905
 10
-11813.53878255768
 20
2177.292101788905
 10
-11813.53878255768
 20
2185.292101788905
  0
LWPOLYLINE
  5
21001
330
A
100
AcDbEntity
  8
貫
  6
STYLE_05
 62
     7
 48
3.0
370
    25
100
AcDbPolyline
 90
        4
 70
     1
 43
0.0
 10
-11762.53878255768
 20
2185.292101788905
 10
-11762.53878255768
 20
2177.292101788905
 10
-11797.53878255768
 20
2177.292101788905
 10
-11797.53878255768
 20
2185.292101788905
  0
CIRCLE
  5
21003
330
A
100
AcDbEntity
  8
ナット
 62
     7
370
    25
100
AcDbCircle
 10
-11772.53878255769
 20
2181.292101788904
 30
0.0
 40
5.0
  0
CIRCLE
  5
21004
330
A
100
AcDbEntity
  8
貫
  6
STYLE_05
 62
     7
 48
3.0
370
    25
100
AcDbCircle
 10
-11772.53878255769
 20
2181.292101788904
 30
0.0
 40
5.25
  0
INSERT
  5
21005
330
A
100
AcDbEntity
  8
天板
 62
     7
370
    25
100
AcDbBlockReference
  2
A$C41BB26E9
 10
-11818.13878510585
 20
2144.792101529078
 30
0.0
  0
LWPOLYLINE
  5
21006
102
{ACAD_REACTORS
330
225DF
102
}
330
A
100
AcDbEntity
  8
貫
  6
STYLE_05
 62
     7
 48
3.0
370
    25
100
AcDbPolyline
 90
        4
 70
     1
 43
0.0
 10
-11813.53878255768
 20
2158.292101788905
 10
-11813.53878255768
 20
2144.292101788904
 10
-11817.53878255768
 20
2144.292101788904
 10
-11817.53878255768
 20
2158.292101788905
  0
LWPOLYLINE
  5
21007
102
{ACAD_REACTORS
330
225DF
102
}
330
A
100
AcDbEntity
  8
貫
  6
STYLE_05
 62
     7
 48
3.0
370
    25
100
AcDbPolyline
 90
        4
 70
     1
 43
0.0
 10
-11797.53878255768
 20
2155.292101788905
 10
-11797.53878255768
 20
2147.292101788904
 10
-11813.53878255768
 20
2147.292101788904
 10
-11813.53878255768
 20
2155.292101788905
  0
LWPOLYLINE
  5
21008
330
A
100
AcDbEntity
  8
貫
  6
STYLE_05
 62
     7
 48
3.0
370
    25
100
AcDbPolyline
 90
        4
 70
     1
 43
0.0
 10
-11762.53878255768
 20
2155.292101788905
 10
-11762.53878255768
 20
2147.292101788904
 10
-11797.53878255768
 20
2147.292101788904
 10
-11797.53878255768
 20
2155.292101788905
  0
CIRCLE
  5
21009
330
A
100
AcDbEntity
  8
ナット
 62
     7
370
    25
100
AcDbCircle
 10
-11772.53878255769
 20
2151.292101788904
 30
0.0
 40
5.0
  0
CIRCLE
  5
2100A
330
A
100
AcDbEntity
  8
貫
  6
STYLE_05
 62
     7
 48
3.0
370
    25
100
AcDbCircle
 10
-11772.53878255769
 20
2151.292101788904
 30
0.0
 40
5.25
  0
LINE
  5
21018
102
{ACAD_REACTORS
330
225DF
102
}
330
A
100
AcDbEntity
  8
貫
  6
STYLE_05
 62
     7
 48
3.0
370
    25
100
AcDbLine
 10
-11807.538782578
 20
2126.292103552973
 30
0.0
 11
-11797.53878255819
 21
2126.292103532657
 31
0.0
  0
ARC
  5
21019
102
{ACAD_REACTORS
330
225DF
102
}
330
A
100
AcDbEntity
  8
貫
  6
STYLE_05
 62
     7
 48
3.0
370
    25
100
AcDbCircle
 10
-11807.53878255768
 20
2136.292103552973
 30
0.0
 40
10.0
100
AcDbArc
 50
180.0
 51
269.9999998835965
  0
LINE
  5
2101A
330
A
100
AcDbEntity
  8
貫
  6
STYLE_05
 62
     7
 48
3.0
370
    25
100
AcDbLine
 10
-11797.53878255819
 20
2126.292103532657
 30
0.0
 11
-11782.53878255768
 21
2126.292103502183
 31
0.0
  0
LINE
  5
2101B
330
A
100
AcDbEntity
  8
貫
  6
Continuous
 62
     7
 48
3.0
370
    50
100
AcDbLine
 10
-11782.53878255768
 20
2126.292103502183
 30
0.0
 11
-11320.45166104168
 21
2126.292102563391
 31
0.0
  0
LINE
  5
2101C
330
A
100
AcDbEntity
  8
貫
  6
Continuous
 62
     7
370
    13
100
AcDbLine
 10
-11782.53878255768
 20
2136.292793026165
 30
0.0
 11
-11320.45166104168
 21
2136.292793016006
 31
0.0
  0
LINE
  5
2101D
102
{ACAD_REACTORS
330
225DF
102
}
330
A
100
AcDbEntity
  8
天板
  6
STYLE_05
 62
     7
 48
3.0
370
    25
100
AcDbLine
 10
-11829.1894169759
 20
2196.292103596959
 30
0.0
 11
-11785.88814808867
 21
2196.292103508987
 31
0.0
  0
LINE
  5
2101E
102
{ACAD_REACTORS
330
22359
102
}
330
A
100
AcDbEntity
  8
天板
 62
     7
370
    50
100
AcDbLine
 10
-11785.88814808867
 20
2196.292103508987
 30
0.0
 11
-11265.03878258308
 21
2196.292102450812
 31
0.0
  0
LINE
  5
21218
330
A
100
AcDbEntity
  8
天板
 62
     7
370
    50
100
AcDbLine
 10
-12424.99381872773
 20
2221.292102425417
 30
0.0
 11
-12422.49381872773
 21
2221.292102425417
 31
0.0
  0
LINE
  5
21219
330
A
100
AcDbEntity
  8
天板
 62
     7
370
    50
100
AcDbLine
 10
-12424.99381872773
 20
2221.492102425417
 30
0.0
 11
-12424.99381872773
 21
2221.292102425417
 31
0.0
  0
LINE
  5
21346
330
A
100
AcDbEntity
  8
天板
 62
     7
370
    50
100
AcDbLine
 10
-13297.49381872773
 20
2221.492102425417
 30
0.0
 11
-13297.49381872773
 21
2221.292102425417
 31
0.0
  0
LINE
  5
21347
330
A
100
AcDbEntity
  8
天板
 62
     7
370
    50
100
AcDbLine
 10
-13297.49381872773
 20
2221.292102425417
 30
0.0
 11
-12424.99381872773
 21
2221.292102425417
 31
0.0
  0
HATCH
  5
22359
330
A
100
AcDbEntity
  8
貫
 62
     7
370
     5
100
AcDbHatch
 10
0.0
 20
0.0
 30
0.0
210
0.0
220
0.0
230
1.0
  2
ANSI31
 70
     0
 71
     1
 91
        1
 92
        7
 72
     1
 73
     1
 93
        4
 10
-11287.5387825669
 20
2196.292102496524
 42
0.0
 10
-11307.5387825669
 20
2196.292102537157
 42
0.0
 10
-11307.5387825669
 20
2136.29279311759
 42
1.0
 10
-11287.5387825669
 20
2136.292793117589
 42
0.0
 97
        4
330
2101E
330
1FC15
330
1FC16
330
1FC0F
 75
     0
 76
     1
 52
0.0
 41
1.0
 77
     0
 78
     1
 53
45.0
 43
170.8500342978113
 44
101.0142565221758
 45
-2.245064030267287
 46
2.245064030267287
 79
     0
 47
0.4587729665696367
 98
        1
 10
-11304.86783972115
 20
2172.132188633312
1001
ACAD
1010
0.0
1020
0.0
1030
0.0
  0
HATCH
  5
225DF
330
A
100
AcDbEntity
  8
貫
 62
     7
370
     5
100
AcDbHatch
 10
0.0
 20
0.0
 30
0.0
210
0.0
220
0.0
230
1.0
  2
ANSI31
 70
     0
 71
     1
 91
        3
 92
        7
 72
     0
 73
     1
 93
        6
 10
-11797.53878255768
 20
2185.292101788905
 10
-11797.53878255768
 20
2196.292103532656
 10
-11817.53878255768
 20
2196.292103573289
 10
-11817.53878255768
 20
2188.292101788905
 10
-11813.53878255768
 20
2188.292101788905
 10
-11813.53878255768
 20
2185.292101788905
 97
        5
330
2101D
330
1FC40
330
20FFF
330
21000
330
1FC3E
 92
        7
 72
     0
 73
     1
 93
        8
 10
-11813.53878255768
 20
2174.292101788905
 10
-11817.53878255768
 20
2174.292101788905
 10
-11817.53878255768
 20
2158.292101788905
 10
-11813.53878255768
 20
2158.292101788905
 10
-11813.53878255768
 20
2155.292101788905
 10
-11797.53878255768
 20
2155.292101788905
 10
-11797.53878255768
 20
2177.292101788905
 10
-11813.53878255768
 20
2177.292101788905
 97
        6
330
21000
330
20FFF
330
1FC40
330
21006
330
21007
330
1FC3E
 92
        7
 72
     1
 73
     1
 93
        7
 10
-11813.53878255768
 20
2144.292101788904
 42
0.0
 10
-11817.53878255768
 20
2144.292101788904
 42
0.0
 10
-11817.53878255768
 20
2136.292103552973
 42
0.4142135617779922
 10
-11807.538782578
 20
2126.292103552973
 42
0.0
 10
-11797.53878255768
 20
2126.292103532657
 42
0.0
 10
-11797.53878255768
 20
2147.292101788904
 42
0.0
 10
-11813.53878255768
 20
2147.292101788904
 42
0.0
 97
        6
330
21007
330
21006
330
1FC40
330
21019
330
21018
330
1FC3E
 75
     0
 76
     1
 52
0.0
 41
1.0
 77
     0
 78
     1
 53
45.0
 43
170.8500342978113
 44
101.0142565221758
 45
-2.245064030267287
 46
2.245064030267287
 79
     0
 47
0.1978598540273413
 98
        3
 10
-11803.59868358567
 20
2190.745434777311
 10
-11808.15209064744
 20
2169.376577012959
 10
-11808.15209064744
 20
2137.125406743229
1001
ACAD
1010
0.0
1020
0.0
1030
0.0
  0
LINE
  5
23064
330
A
100
AcDbEntity
  8
貫
 62
     7
370
    50
100
AcDbLine
 10
-13309.99381872773
 20
2673.421581229216
 30
0.0
 11
-13310.99381872773
 21
2673.421581229215
 31
0.0
  0
LINE
  5
23066
330
A
100
AcDbEntity
  8
貫
 62
     7
370
    50
100
AcDbLine
 10
-13309.99381872773
 20
2653.421581229216
 30
0.0
 11
-13310.99381872773
 21
2653.421581229216
 31
0.0
  0
INSERT
  5
230BC
330
A
100
AcDbEntity
  8
寸法
 62
     7
100
AcDbBlockReference
  2
A$C73231E16
 10
-13335.99381872773
 20
1859.292106425003
 30
0.0
  0
INSERT
  5
230C2
330
A
100
AcDbEntity
  8
寸法
 62
     7
100
AcDbBlockReference
  2
A$C73231E16
 10
-13269.99381872773
 20
1859.292106425003
 30
0.0
  0
INSERT
  5
230EE
330
A
100
AcDbEntity
  8
寸法
 62
     7
100
AcDbBlockReference
  2
A$C73231E16
 10
-11802.53878255768
 20
1859.292106425003
 30
0.0
 41
-1.0
  0
LINE
  5
230EF
330
A
100
AcDbEntity
  8
木ネジ・ダボ
 62
     7
100
AcDbLine
 10
-11808.53878255768
 20
1861.29210242542
 30
0.0
 11
-11808.53878255768
 21
1871.29210242542
 31
0.0
  0
LINE
  5
230F0
330
A
100
AcDbEntity
  8
木ネジ・ダボ
 62
     7
100
AcDbLine
 10
-11806.53878255768
 20
1861.29210242542
 30
0.0
 11
-11806.53878255768
 21
1871.29210242542
 31
0.0
  0
LINE
  5
230F1
330
A
100
AcDbEntity
  8
木ネジ・ダボ
 62
     7
100
AcDbLine
 10
-11806.53878255768
 20
1871.29210242542
 30
0.0
 11
-11808.53878255768
 21
1871.29210242542
 31
0.0
  0
INSERT
  5
230FA
330
A
100
AcDbEntity
  8
寸法
 62
     7
100
AcDbBlockReference
  2
A$C73231E16
 10
-11292.53878255768
 20
1859.292106414844
 30
0.0
 41
-1.0
  0
LINE
  5
230FB
330
A
100
AcDbEntity
  8
木ネジ・ダボ
 62
     7
100
AcDbLine
 10
-11298.53878255768
 20
1861.292102415262
 30
0.0
 11
-11298.53878255768
 21
1871.292102415262
 31
0.0
  0
LINE
  5
230FC
330
A
100
AcDbEntity
  8
木ネジ・ダボ
 62
     7
100
AcDbLine
 10
-11296.53878255768
 20
1861.292102415262
 30
0.0
 11
-11296.53878255768
 21
1871.292102415262
 31
0.0
  0
LINE
  5
230FD
330
A
100
AcDbEntity
  8
木ネジ・ダボ
 62
     7
100
AcDbLine
 10
-11296.53878255768
 20
1871.292102415262
 30
0.0
 11
-11298.53878255768
 21
1871.292102415262
 31
0.0
  0
ARC
  5
2316C
330
A
100
AcDbEntity
  8
天板
 62
     7
370
    50
100
AcDbCircle
 10
-12429.99381872773
 20
3198.421581229216
 30
0.0
 40
20.0
100
AcDbArc
 50
0.000000000000007
 51
90.0
  0
ARC
  5
2316D
330
A
100
AcDbEntity
  8
天板
 62
     7
370
    50
100
AcDbCircle
 10
-12429.99381872773
 20
3198.421581229216
 30
0.0
 40
5.0
100
AcDbArc
 50
0.000000000000007
 51
90.0
  0
LINE
  5
2316E
330
A
100
AcDbEntity
  8
天板
 62
     7
370
    25
100
AcDbLine
 10
-12426.4582848218
 20
3201.957115135149
 30
0.0
 11
-12415.851683104
 21
3212.563716852947
 31
0.0
  0
LINE
  5
2316F
330
A
100
AcDbEntity
  8
天板
 62
     7
370
    50
100
AcDbLine
 10
-12409.99381872773
 20
3198.421581229216
 30
0.0
 11
-12409.99381872773
 21
2638.421581229215
 31
0.0
  0
LINE
  5
23170
330
A
100
AcDbEntity
  8
天板
 62
     7
370
    50
100
AcDbLine
 10
-12424.99381872773
 20
3198.421581229216
 30
0.0
 11
-12424.99381872773
 21
2638.421581229215
 31
0.0
  0
LINE
  5
23171
330
A
100
AcDbEntity
  8
脚
 62
     7
370
    50
100
AcDbLine
 10
-12408.99381872773
 20
2683.421581229215
 30
0.0
 11
-12408.99381872773
 21
2643.421581229216
 31
0.0
  0
ARC
  5
23172
330
A
100
AcDbEntity
  8
脚
 62
     7
370
    50
100
AcDbCircle
 10
-12393.99381872773
 20
2663.421581229215
 30
0.0
 40
25.0
100
AcDbArc
 50
270.0000000060448
 51
90.00000049984112
  0
LINE
  5
23173
330
A
100
AcDbEntity
  8
脚
 62
     7
370
    50
100
AcDbLine
 10
-12393.99381872773
 20
2688.421581229216
 30
0.0
 11
-12403.99381872773
 21
2688.421581229216
 31
0.0
  0
ARC
  5
23174
330
A
100
AcDbEntity
  8
脚
 62
     7
370
    50
100
AcDbCircle
 10
12403.99381872773
 20
2683.421581229215
 30
0.0
 40
5.0
210
0.0
220
0.0
230
-1.0
100
AcDbArc
 50
0.000000000000007
 51
90.0
  0
ARC
  5
23175
330
A
100
AcDbEntity
  8
天板
 62
     7
370
    50
100
AcDbCircle
 10
-12429.99381872773
 20
2638.421581229215
 30
0.0
 40
20.0
100
AcDbArc
 50
270.0
 51
0.000000000000007
  0
ARC
  5
23176
330
A
100
AcDbEntity
  8
天板
 62
     7
370
    50
100
AcDbCircle
 10
-12429.99381872773
 20
2638.421581229215
 30
0.0
 40
5.0
100
AcDbArc
 50
270.0
 51
0.000000000000007
  0
LINE
  5
23177
330
A
100
AcDbEntity
  8
天板
 62
     7
370
    25
100
AcDbLine
 10
-12426.4582848218
 20
2634.886047323283
 30
0.0
 11
-12415.851683104
 21
2624.279445605484
 31
0.0
  0
LINE
  5
23178
330
A
100
AcDbEntity
  8
脚
 62
     7
370
    50
100
AcDbLine
 10
-12393.99381872773
 20
2638.421581229215
 30
0.0
 11
-12403.99381872773
 21
2638.421581229215
 31
0.0
  0
ARC
  5
23179
330
A
100
AcDbEntity
  8
脚
 62
     7
370
    50
100
AcDbCircle
 10
12403.99381872773
 20
2643.421581229216
 30
0.0
 40
5.0
210
0.0
220
0.0
230
-1.0
100
AcDbArc
 50
270.0
 51
0.000000000000007
  0
LINE
  5
2317A
330
A
100
AcDbEntity
  8
天板
 62
     7
370
    50
100
AcDbLine
 10
-12859.99381872773
 20
3218.421581229215
 30
0.0
 11
-12429.99381872773
 21
3218.421581229215
 31
0.0
  0
LINE
  5
2317B
330
A
100
AcDbEntity
  8
天板
 62
     7
370
    50
100
AcDbLine
 10
-12859.99381872773
 20
3203.421581229215
 30
0.0
 11
-12429.99381872773
 21
3203.421581229215
 31
0.0
  0
LINE
  5
2317C
330
A
100
AcDbEntity
  8
天板
 62
     7
370
    50
100
AcDbLine
 10
-12429.99381872773
 20
2618.421581229215
 30
0.0
 11
-12859.99381872773
 21
2618.421581229215
 31
0.0
  0
LINE
  5
2317D
330
A
100
AcDbEntity
  8
天板
 62
     7
370
    50
100
AcDbLine
 10
-12429.99381872773
 20
2633.421581229216
 30
0.0
 11
-12859.99381872773
 21
2633.421581229216
 31
0.0
  0
LINE
  5
2317E
330
A
100
AcDbEntity
  8
貫
 62
     7
370
    50
100
AcDbLine
 10
-12409.99381872773
 20
2673.421581229216
 30
0.0
 11
-12408.99381872773
 21
2673.421581229215
 31
0.0
  0
LINE
  5
2317F
330
A
100
AcDbEntity
  8
貫
 62
     7
370
    50
100
AcDbLine
 10
-12409.99381872773
 20
2653.421581229216
 30
0.0
 11
-12408.99381872773
 21
2653.421581229216
 31
0.0
  0
LINE
  5
23186
330
A
100
AcDbEntity
  8
脚
 62
     7
370
    50
100
AcDbLine
 10
-12368.99381872783
 20
1866.292102425241
 30
0.0
 11
-12368.99381872771
 21
2183.292102425238
 31
0.0
  0
LINE
  5
23187
330
A
100
AcDbEntity
  8
脚
 62
     7
370
    50
100
AcDbLine
 10
-12408.99381872771
 20
2203.292102425252
 30
0.0
 11
-12408.99381872783
 21
1866.292102425256
 31
0.0
  0
LINE
  5
23188
330
A
100
AcDbEntity
  8
脚
 62
     7
370
    25
100
AcDbLine
 10
-12369.99381872783
 20
1866.292102425241
 30
0.0
 11
-12408.99381872783
 21
1866.292102425256
 31
0.0
  0
ARC
  5
23189
330
A
100
AcDbEntity
  8
脚
 62
     7
370
    50
100
AcDbCircle
 10
12408.99381872783
 20
1861.292102425256
 30
0.0
 40
5.0
210
0.0
220
0.0
230
-1.0
100
AcDbArc
 50
90.0
 51
180.0000000000208
  0
ARC
  5
2318A
330
A
100
AcDbEntity
  8
脚
 62
     7
370
    50
100
AcDbCircle
 10
-12368.99381872783
 20
1861.292102425241
 30
0.0
 40
5.0
100
AcDbArc
 50
90.0
 51
179.999999999979
  0
LINE
  5
2318C
330
A
100
AcDbEntity
  8
脚
 62
     7
370
    50
100
AcDbLine
 10
-12409.99381872771
 20
2208.292102425253
 30
0.0
 11
-12409.99381872771
 21
2208.292102425253
 31
0.0
  0
ARC
  5
2318E
330
A
100
AcDbEntity
  8
脚
 62
     7
370
    50
100
AcDbCircle
 10
-12393.99381872771
 20
2183.292102425247
 30
0.0
 40
25.0
100
AcDbArc
 50
359.9999999999792
 51
90.0
  0
LINE
  5
2318F
330
A
100
AcDbEntity
  8
脚
 62
     7
370
    50
100
AcDbLine
 10
-12393.9938187277
 20
2208.292102425247
 30
0.0
 11
-12403.9938187277
 21
2208.292102425251
 31
0.0
  0
ARC
  5
23190
330
A
100
AcDbEntity
  8
脚
 62
     7
370
    50
100
AcDbCircle
 10
12403.99381872771
 20
2203.292102425251
 30
0.0
 40
5.0
210
0.0
220
0.0
230
-1.0
100
AcDbArc
 50
0.0000000000208511
 51
90.0
  0
LINE
  5
23191
330
A
100
AcDbEntity
  8
脚
 62
     7
370
    50
100
AcDbLine
 10
-12403.99381872783
 20
1861.292102425254
 30
0.0
 11
-12373.99381872783
 21
1861.292102425243
 31
0.0
  0
LINE
  5
23192
330
A
100
AcDbEntity
  8
脚
 62
     7
370
    25
100
AcDbLine
 10
-12474.99381872783
 20
1861.29210242528
 30
0.0
 11
-12434.99381872783
 21
1861.292102425265
 31
0.0
  0
LINE
  5
23193
330
A
100
AcDbEntity
  8
脚
 62
     7
370
    25
100
AcDbLine
 10
-12479.99381872783
 20
1866.292102425281
 30
0.0
 11
-12479.99381872774
 21
2126.292793026026
 31
0.0
  0
LINE
  5
23194
330
A
100
AcDbEntity
  8
脚
 62
     7
370
    25
100
AcDbLine
 10
-12429.99381872783
 20
1866.292102425263
 30
0.0
 11
-12429.99381872774
 21
2126.292793026008
 31
0.0
  0
LINE
  5
23195
330
A
100
AcDbEntity
  8
脚
 62
     7
370
    25
100
AcDbLine
 10
-12429.99381872783
 20
1866.292102425263
 30
0.0
 11
-12479.99381872783
 21
1866.292102425281
 31
0.0
  0
ARC
  5
23196
330
A
100
AcDbEntity
  8
脚
 62
     7
370
    25
100
AcDbCircle
 10
12479.99381872783
 20
1861.292102425282
 30
0.0
 40
5.0
210
0.0
220
0.0
230
-1.0
100
AcDbArc
 50
90.0
 51
180.0000000000208
  0
ARC
  5
23197
330
A
100
AcDbEntity
  8
脚
 62
     7
370
    25
100
AcDbCircle
 10
-12429.99381872783
 20
1861.292102425263
 30
0.0
 40
5.0
100
AcDbArc
 50
90.0
 51
179.999999999979
  0
CIRCLE
  5
23198
102
{ACAD_REACTORS
330
2319A
102
}
330
A
100
AcDbEntity
  8
木ネジ、ダボ
 62
     7
370
    25
100
AcDbCircle
 10
-12398.99381872772
 20
2181.292101788737
 30
0.0
 40
4.0
  0
CIRCLE
  5
23199
102
{ACAD_REACTORS
330
2319A
102
}
330
A
100
AcDbEntity
  8
木ネジ、ダボ
 62
     7
370
    25
100
AcDbCircle
 10
-12398.99381872773
 20
2151.292101788737
 30
0.0
 40
4.0
  0
HATCH
  5
2319A
330
A
100
AcDbEntity
  8
木ネジ、ダボ
 62
     7
370
    25
100
AcDbHatch
 10
0.0
 20
0.0
 30
0.0
210
0.0
220
0.0
230
1.0
  2
ANSI31
 70
     0
 71
     1
 91
        2
 92
        7
 72
     1
 73
     1
 93
        2
 10
-12394.99381872772
 20
2181.292101788737
 42
1.0
 10
-12402.99381872772
 20
2181.292101788737
 42
1.0
 97
        1
330
23198
 92
        7
 72
     1
 73
     1
 93
        2
 10
-12394.99381872773
 20
2151.292101788737
 42
1.0
 10
-12402.99381872773
 20
2151.292101788737
 42
1.0
 97
        1
330
23199
 75
     0
 76
     1
 52
0.0
 41
1.0
 77
     0
 78
     1
 53
44.99999999998134
 43
-4.000000000658473
 44
106.0142565179913
 45
-2.245064030266556
 46
2.245064030268018
 79
     0
 47
0.442748012474673
 98
        2
 10
-12401.02009831648
 20
2181.189484050127
 10
-12399.24808010513
 20
2151.525368112196
1001
ACAD
1010
0.0
1020
0.0
1030
0.0
  0
INSERT
  5
2319B
330
A
100
AcDbEntity
  8
ボルト
 62
     7
370
    25
100
AcDbBlockReference
  2
A$C153C7E87
 10
-12448.49380234122
 20
2174.792100444082
 30
0.0
 41
-1.0
 50
359.9999999999791
  0
CIRCLE
  5
2319C
330
A
100
AcDbEntity
  8
貫
 62
     7
370
    50
100
AcDbCircle
 10
-12454.99381872772
 20
2181.292101788757
 30
0.0
 40
7.0
  0
INSERT
  5
2319D
330
A
100
AcDbEntity
  8
ボルト
 62
     7
370
    25
100
AcDbBlockReference
  2
A$C153C7E87
 10
-12448.49380234123
 20
2144.792100444082
 30
0.0
 41
-1.0
 50
359.9999999999791
  0
CIRCLE
  5
2319E
330
A
100
AcDbEntity
  8
貫
 62
     7
370
    50
100
AcDbCircle
 10
-12454.99381872773
 20
2151.292101788757
 30
0.0
 40
7.0
  0
LINE
  5
2319F
330
A
100
AcDbEntity
  8
天板
 62
     7
370
    50
100
AcDbLine
 10
-12422.4938187277
 20
2221.492102425257
 30
0.0
 11
-12422.4938187277
 21
2221.292102425257
 31
0.0
  0
INSERT
  5
231B8
330
A
100
AcDbEntity
  8
寸法
 62
     7
100
AcDbBlockReference
  2
A$C73231E16
 10
-12383.99381872783
 20
1859.292106424829
 30
0.0
 41
-1.0
 50
359.999999999979
  0
INSERT
  5
231BC
330
A
100
AcDbEntity
  8
寸法
 62
     7
100
AcDbBlockReference
  2
A$C73231E16
 10
-12449.99381872783
 20
1859.292106424854
 30
0.0
 41
-1.0
 50
359.999999999979
  0
ARC
  5
231D0
330
A
100
AcDbEntity
  8
天板
 62
     7
370
    50
100
AcDbCircle
 10
-10062.77392259217
 20
3238.421581219057
 30
0.0
 40
20.0
100
AcDbArc
 50
90.0
 51
180.0
  0
ARC
  5
231D1
330
A
100
AcDbEntity
  8
天板
 62
     7
370
    50
100
AcDbCircle
 10
-10062.77392259217
 20
3238.421581219057
 30
0.0
 40
5.0
100
AcDbArc
 50
90.0
 51
180.0
  0
LINE
  5
231D2
330
A
100
AcDbEntity
  8
天板
 62
     7
370
    25
100
AcDbLine
 10
-10066.3094564981
 20
3241.957115124991
 30
0.0
 11
-10076.9160582159
 21
3252.563716842788
 31
0.0
  0
LINE
  5
231D3
330
A
100
AcDbEntity
  8
天板
 62
     7
370
    50
100
AcDbLine
 10
-10082.77392259217
 20
3238.421581219057
 30
0.0
 11
-10082.77392259217
 21
2678.421581219057
 31
0.0
  0
LINE
  5
231D4
330
A
100
AcDbEntity
  8
天板
 62
     7
370
    50
100
AcDbLine
 10
-10067.77392259217
 20
3238.421581219057
 30
0.0
 11
-10067.77392259217
 21
2678.421581219057
 31
0.0
  0
LINE
  5
231D5
330
A
100
AcDbEntity
  8
脚
 62
     7
370
    50
100
AcDbLine
 10
-10083.77392259217
 20
2723.421581219057
 30
0.0
 11
-10083.77392259217
 21
2683.421581219058
 31
0.0
  0
ARC
  5
231D6
330
A
100
AcDbEntity
  8
脚
 62
     7
370
    50
100
AcDbCircle
 10
-10098.77392259217
 20
2703.421581219057
 30
0.0
 40
25.0
100
AcDbArc
 50
89.9999995002631
 51
269.9999999940594
  0
LINE
  5
231D7
330
A
100
AcDbEntity
  8
脚
 62
     7
370
    50
100
AcDbLine
 10
-10098.77392259217
 20
2728.421581219058
 30
0.0
 11
-10088.77392259217
 21
2728.421581219058
 31
0.0
  0
ARC
  5
231D8
330
A
100
AcDbEntity
  8
脚
 62
     7
370
    50
100
AcDbCircle
 10
10088.77392259217
 20
2723.421581219057
 30
0.0
 40
5.0
210
0.0
220
0.0
230
-1.0
100
AcDbArc
 50
90.0
 51
180.0
  0
ARC
  5
231D9
330
A
100
AcDbEntity
  8
天板
 62
     7
370
    50
100
AcDbCircle
 10
-10062.77392259217
 20
2678.421581219057
 30
0.0
 40
20.0
100
AcDbArc
 50
180.0
 51
270.0
  0
ARC
  5
231DA
330
A
100
AcDbEntity
  8
天板
 62
     7
370
    50
100
AcDbCircle
 10
-10062.77392259217
 20
2678.421581219057
 30
0.0
 40
5.0
100
AcDbArc
 50
180.0
 51
270.0
  0
LINE
  5
231DB
330
A
100
AcDbEntity
  8
天板
 62
     7
370
    25
100
AcDbLine
 10
-10066.3094564981
 20
2674.886047313125
 30
0.0
 11
-10076.9160582159
 21
2664.279445595326
 31
0.0
  0
LINE
  5
231DC
330
A
100
AcDbEntity
  8
脚
 62
     7
370
    50
100
AcDbLine
 10
-10098.77392259217
 20
2678.421581219057
 30
0.0
 11
-10088.77392259217
 21
2678.421581219057
 31
0.0
  0
ARC
  5
231DD
330
A
100
AcDbEntity
  8
脚
 62
     7
370
    50
100
AcDbCircle
 10
10088.77392259217
 20
2683.421581219058
 30
0.0
 40
5.0
210
0.0
220
0.0
230
-1.0
100
AcDbArc
 50
180.0
 51
270.0
  0
ARC
  5
231DE
330
A
100
AcDbEntity
  8
天板
 62
     7
370
    50
100
AcDbCircle
 10
8037.818886422121
 20
2248.792102440654
 30
0.0
 40
12.5
210
0.0
220
0.0
230
-1.0
100
AcDbArc
 50
180.0
 51
270.0000001164142
  0
ARC
  5
231DF
330
A
100
AcDbEntity
  8
天板
 62
     7
370
    50
100
AcDbCircle
 10
8037.818886422121
 20
2248.792102415258
 30
0.0
 40
12.5
210
0.0
220
0.0
230
-1.0
100
AcDbArc
 50
90.0
 51
180.0
  0
HATCH
  5
231E0
330
A
100
AcDbEntity
  8
貫
 62
     7
370
     5
100
AcDbHatch
 10
0.0
 20
0.0
 30
0.0
210
0.0
220
0.0
230
1.0
  2
ANSI31
 70
     0
 71
     1
 91
        1
 92
        7
 72
     1
 73
     1
 93
        4
 10
-8060.318886431343
 20
2236.292102486366
 42
0.0
 10
-8080.31888643134
 20
2236.292102526999
 42
0.0
 10
-8080.31888643134
 20
2176.292793107431
 42
1.0
 10
-8060.318886431343
 20
2176.292793107431
 42
0.0
 97
        4
330
23220
330
231E4
330
231E5
330
231E1
 75
     0
 76
     1
 52
0.0
 41
1.0
 77
     0
 78
     1
 53
45.0
 43
3398.069930433376
 44
141.0142565120177
 45
-2.245064030267287
 46
2.245064030267287
 79
     0
 47
0.4587729665696367
 98
        1
 10
-8077.64794358559
 20
2212.132188623153
1001
ACAD
1010
0.0
1020
0.0
1030
0.0
  0
LINE
  5
231E1
102
{ACAD_REACTORS
330
231E0
102
}
330
A
100
AcDbEntity
  8
貫
  6
STYLE_05
 62
     7
 48
3.0
370
    25
100
AcDbLine
 10
-8060.318886431343
 20
2236.292102506682
 30
0.0
 11
-8060.318886431343
 21
2176.292791834404
 31
0.0
  0
LINE
  5
231E3
330
A
100
AcDbEntity
  8
脚
 62
     7
370
    50
100
AcDbLine
 10
-8045.318886431342
 20
2236.292102455891
 30
0.0
 11
-8045.318887183045
 21
1866.292102405104
 31
0.0
  0
LINE
  5
231E4
102
{ACAD_REACTORS
330
231E0
102
}
330
A
100
AcDbEntity
  8
貫
  6
STYLE_05
 62
     7
 48
3.0
370
    25
100
AcDbLine
 10
-8080.31888643134
 20
2176.292791777719
 30
0.0
 11
-8080.31888643134
 21
2236.292102506682
 31
0.0
  0
ARC
  5
231E5
102
{ACAD_REACTORS
330
231E0
102
}
330
A
100
AcDbEntity
  8
貫
  6
STYLE_05
 62
     7
 48
3.0
370
    25
100
AcDbCircle
 10
-8070.318886431342
 20
2176.292793107431
 30
0.0
 40
9.999999999999886
100
AcDbArc
 50
180.0
 51
0.0
  0
LINE
  5
231E6
330
A
100
AcDbEntity
  8
レイヤー1
 62
     7
370
    13
100
AcDbLine
 10
-8080.31888643134
 20
2236.292102506682
 30
0.0
 11
-8060.318886431343
 21
2236.292102506682
 31
0.0
  0
LINE
  5
231E9
330
A
100
AcDbEntity
  8
脚
 62
     7
370
    50
100
AcDbLine
 10
-8095.318886510636
 20
1866.292102405104
 30
0.0
 11
-8095.318885979537
 21
2166.292793005847
 31
0.0
  0
LINE
  5
231EA
330
A
100
AcDbEntity
  8
脚
 62
     7
370
    50
100
AcDbLine
 10
-8093.23176490612
 20
2166.292102553233
 30
0.0
 11
-8093.23176474359
 21
2236.292102553232
 31
0.0
  0
ARC
  5
231EC
330
A
100
AcDbEntity
  8
天板
 62
     7
370
    50
100
AcDbCircle
 10
9195.27392259217
 20
2248.792102415258
 30
0.0
 40
12.5
210
0.0
220
0.0
230
-1.0
100
AcDbArc
 50
90.0
 51
180.0
  0
LINE
  5
231ED
330
A
100
AcDbEntity
  8
脚
 62
     7
370
    25
100
AcDbLine
 10
-9182.773922592168
 20
2248.292102415259
 30
0.0
 11
-9182.773922592168
 21
2248.292102415259
 31
0.0
  0
ARC
  5
231EE
330
A
100
AcDbEntity
  8
天板
 62
     7
370
    50
100
AcDbCircle
 10
9195.27392259217
 20
2248.792102415258
 30
0.0
 40
12.5
210
0.0
220
0.0
230
-1.0
100
AcDbArc
 50
180.0
 51
270.0
  0
LINE
  5
231EF
330
A
100
AcDbEntity
  8
脚
 62
     7
370
    50
100
AcDbLine
 10
-8605.318886422121
 20
1866.292102415262
 30
0.0
 11
-8605.318886422121
 21
2223.292102415259
 31
0.0
  0
ARC
  5
231F1
330
A
100
AcDbEntity
  8
天板
 62
     7
370
    50
100
AcDbCircle
 10
-8612.818886422122
 20
2248.792103608844
 30
0.0
 40
12.5
100
AcDbArc
 50
180.0
 51
269.9999998835858
  0
ARC
  5
231F2
330
A
100
AcDbEntity
  8
天板
 62
     7
370
    50
100
AcDbCircle
 10
-8612.818886422122
 20
2248.792102415258
 30
0.0
 40
12.5
100
AcDbArc
 50
90.0
 51
180.0
  0
ARC
  5
231F3
330
A
100
AcDbEntity
  8
脚
 62
     7
370
    50
100
AcDbCircle
 10
8580.318886422121
 20
2223.292102415259
 30
0.0
 40
25.0
210
0.0
220
0.0
230
-1.0
100
AcDbArc
 50
90.0
 51
180.0
  0
LINE
  5
231F6
330
A
100
AcDbEntity
  8
天板
 62
     7
370
    50
100
AcDbLine
 10
-8612.818886422122
 20
2261.292102415259
 30
0.0
 11
-8565.318886422121
 21
2261.292102415259
 31
0.0
  0
LINE
  5
231F7
330
A
100
AcDbEntity
  8
脚
 62
     7
370
    50
100
AcDbLine
 10
-8555.318886422121
 20
1866.292102415262
 30
0.0
 11
-8555.318886422123
 21
2223.292102415259
 31
0.0
  0
LINE
  5
231F9
330
A
100
AcDbEntity
  8
脚
 62
     7
370
    50
100
AcDbLine
 10
-8580.318886422121
 20
2248.792102415258
 30
0.0
 11
-8580.318886422121
 21
2248.792102415258
 31
0.0
  0
ARC
  5
231FA
330
A
100
AcDbEntity
  8
脚
 62
     7
370
    50
100
AcDbCircle
 10
-8580.318886422121
 20
2223.292102415259
 30
0.0
 40
25.0
100
AcDbArc
 50
90.0
 51
180.0
  0
LINE
  5
231FB
330
A
100
AcDbEntity
  8
レイヤー1
  6
STYLE_05
 62
     7
 48
3.0
370
    13
100
AcDbLine
 10
-8590.318886422121
 20
2236.292103522498
 30
0.0
 11
-8570.318886422121
 21
2236.292103522498
 31
0.0
  0
HATCH
  5
231FC
330
A
100
AcDbEntity
  8
貫
 62
     7
370
     5
100
AcDbHatch
 10
0.0
 20
0.0
 30
0.0
210
0.0
220
0.0
230
1.0
  2
ANSI31
 70
     0
 71
     1
 91
        3
 92
        7
 72
     0
 73
     1
 93
        6
 10
-8570.318886422121
 20
2225.292101778747
 10
-8570.318886422121
 20
2236.292103522498
 10
-8590.318886422121
 20
2236.292103563132
 10
-8590.318886422121
 20
2228.292101778746
 10
-8586.318886422121
 20
2228.292101778746
 10
-8586.318886422121
 20
2225.292101778747
 97
        5
330
2321F
330
231FE
330
2322E
330
2322F
330
231FD
 92
        7
 72
     0
 73
     1
 93
        8
 10
-8586.318886422121
 20
2214.292101778747
 10
-8590.318886422121
 20
2214.292101778747
 10
-8590.318886422121
 20
2198.292101778746
 10
-8586.318886422121
 20
2198.292101778746
 10
-8586.318886422121
 20
2195.292101778747
 10
-8570.318886422121
 20
2195.292101778747
 10
-8570.318886422121
 20
2217.292101778747
 10
-8586.318886422121
 20
2217.292101778746
 97
        6
330
2322F
330
2322E
330
231FE
330
23234
330
23235
330
231FD
 92
        7
 72
     1
 73
     1
 93
        7
 10
-8586.318886422123
 20
2184.292101778746
 42
0.0
 10
-8590.318886422121
 20
2184.292101778747
 42
0.0
 10
-8590.318886422121
 20
2176.292103542815
 42
0.4142135617780446
 10
-8580.318886442437
 20
2166.292103542815
 42
0.0
 10
-8570.318886422121
 20
2166.292103522499
 42
0.0
 10
-8570.318886422121
 20
2187.292101778746
 42
0.0
 10
-8586.318886422121
 20
2187.292101778746
 42
0.0
 97
        6
330
23235
330
23234
330
231FE
330
23225
330
23221
330
231FD
 75
     0
 76
     1
 52
0.0
 41
1.0
 77
     0
 78
     1
 53
45.0
 43
3398.069930433376
 44
141.0142565120177
 45
-2.245064030267287
 46
2.245064030267287
 79
     0
 47
0.1978598540273413
 98
        3
 10
-8576.37878745011
 20
2230.745434767153
 10
-8580.932194511879
 20
2209.376577002801
 10
-8580.932194511879
 20
2177.125406733071
1001
ACAD
1010
0.0
1020
0.0
1030
0.0
  0
LINE
  5
231FD
102
{ACAD_REACTORS
330
231FC
102
}
330
A
100
AcDbEntity
  8
貫
  6
STYLE_05
 62
     7
 48
3.0
370
    25
100
AcDbLine
 10
-8570.318886422121
 20
2236.292103522498
 30
0.0
 11
-8570.318886422121
 21
2166.292103522499
 31
0.0
  0
LINE
  5
231FE
102
{ACAD_REACTORS
330
231FC
102
}
330
A
100
AcDbEntity
  8
貫
  6
STYLE_05
 62
     7
 48
3.0
370
    25
100
AcDbLine
 10
-8590.318886422121
 20
2176.292103542815
 30
0.0
 11
-8590.318886422121
 21
2236.292103522498
 31
0.0
  0
LINE
  5
231FF
330
A
100
AcDbEntity
  8
脚
 62
     7
370
    50
100
AcDbLine
 10
-10123.77392259217
 20
1866.292102415262
 30
0.0
 11
-10123.77392259217
 21
2223.292102415259
 31
0.0
  0
LINE
  5
23200
330
A
100
AcDbEntity
  8
脚
 62
     7
370
    50
100
AcDbLine
 10
-10083.77392259217
 20
2243.292102415258
 30
0.0
 11
-10083.77392259217
 21
1866.292102415262
 31
0.0
  0
ARC
  5
23204
330
A
100
AcDbEntity
  8
天板
 62
     7
370
    50
100
AcDbCircle
 10
-10070.27392259217
 20
2248.792102415258
 30
0.0
 40
12.5
100
AcDbArc
 50
90.0
 51
180.0
  0
LINE
  5
23205
330
A
100
AcDbEntity
  8
脚
 62
     7
370
    50
100
AcDbLine
 10
-10082.77392259217
 20
2248.292102415259
 30
0.0
 11
-10082.77392259217
 21
2248.292102415259
 31
0.0
  0
ARC
  5
23206
330
A
100
AcDbEntity
  8
天板
 62
     7
370
    50
100
AcDbCircle
 10
-10070.27392259217
 20
2248.792102415258
 30
0.0
 40
12.5
100
AcDbArc
 50
180.0
 51
270.0
  0
ARC
  5
23207
330
A
100
AcDbEntity
  8
脚
 62
     7
370
    50
100
AcDbCircle
 10
-10098.77392259217
 20
2223.292102415259
 30
0.0
 40
25.0
100
AcDbArc
 50
90.0
 51
180.0
  0
LINE
  5
23208
330
A
100
AcDbEntity
  8
脚
 62
     7
370
    50
100
AcDbLine
 10
-10098.77392259217
 20
2248.292102415259
 30
0.0
 11
-10088.77392259217
 21
2248.292102415259
 31
0.0
  0
ARC
  5
23209
330
A
100
AcDbEntity
  8
脚
 62
     7
370
    50
100
AcDbCircle
 10
10088.77392259217
 20
2243.292102415258
 30
0.0
 40
5.0
210
0.0
220
0.0
230
-1.0
100
AcDbArc
 50
90.0
 51
180.0
  0
LINE
  5
2320C
330
A
100
AcDbEntity
  8
脚
 62
     7
370
    25
100
AcDbLine
 10
-10012.77392259217
 20
1866.292102415262
 30
0.0
 11
-10012.77392259217
 21
2166.292793016006
 31
0.0
  0
LINE
  5
2320D
330
A
100
AcDbEntity
  8
脚
 62
     7
370
    25
100
AcDbLine
 10
-10062.77392259217
 20
1866.292102415262
 30
0.0
 11
-10062.77392259217
 21
2166.292793016006
 31
0.0
  0
LINE
  5
23211
330
A
100
AcDbEntity
  8
天板
 62
     7
370
    50
100
AcDbLine
 10
-9632.773922592171
 20
3258.421581219057
 30
0.0
 11
-10062.77392259217
 21
3258.421581219057
 31
0.0
  0
LINE
  5
23212
330
A
100
AcDbEntity
  8
天板
 62
     7
370
    50
100
AcDbLine
 10
-9632.773922592171
 20
3243.421581219057
 30
0.0
 11
-10062.77392259217
 21
3243.421581219057
 31
0.0
  0
LINE
  5
23213
330
A
100
AcDbEntity
  8
天板
 62
     7
370
    50
100
AcDbLine
 10
-10062.77392259217
 20
2658.421581219057
 30
0.0
 11
-9632.773922592171
 21
2658.421581219057
 31
0.0
  0
LINE
  5
23214
330
A
100
AcDbEntity
  8
天板
 62
     7
370
    50
100
AcDbLine
 10
-10062.77392259217
 20
2673.421581219058
 30
0.0
 11
-9632.773922592171
 21
2673.421581219058
 31
0.0
  0
LINE
  5
23215
330
A
100
AcDbEntity
  8
貫
 62
     7
370
    25
100
AcDbLine
 10
-10083.77392259217
 20
2176.292099869208
 30
0.0
 11
-9181.773922592173
 21
2176.292099869208
 31
0.0
  0
LINE
  5
23216
330
A
100
AcDbEntity
  8
貫
 62
     7
370
    25
100
AcDbLine
 10
-9632.773922592171
 20
2176.292099869208
 30
0.0
 11
-9181.773922592169
 21
2176.292099869208
 31
0.0
  0
LINE
  5
23217
330
A
100
AcDbEntity
  8
貫
 62
     7
370
    50
100
AcDbLine
 10
-10083.77392259217
 20
2166.292101142234
 30
0.0
 11
-9181.773922592173
 21
2166.292101142234
 31
0.0
  0
LINE
  5
23218
330
A
100
AcDbEntity
  8
天板
 62
     7
370
    50
100
AcDbLine
 10
-10070.27392259217
 20
2261.492102415258
 30
0.0
 11
-9197.773922592169
 21
2261.492102415258
 31
0.0
  0
LINE
  5
23219
330
A
100
AcDbEntity
  8
天板
 62
     7
370
    50
100
AcDbLine
 10
-9197.773922592169
 20
2261.292102415259
 30
0.0
 11
-9195.27392259217
 21
2261.292102415259
 31
0.0
  0
LINE
  5
2321A
330
A
100
AcDbEntity
  8
貫
 62
     7
370
    50
100
AcDbLine
 10
-10083.77392259217
 20
2236.292102415259
 30
0.0
 11
-9632.773922592171
 21
2236.292102415259
 31
0.0
  0
LINE
  5
2321B
330
A
100
AcDbEntity
  8
貫
  6
STYLE_05
 62
     7
370
    13
100
AcDbLine
 10
-8570.318886422121
 20
2176.292793016337
 30
0.0
 11
-8555.318886422121
 21
2176.292793016007
 31
0.0
  0
LINE
  5
2321C
330
A
100
AcDbEntity
  8
貫
  6
Continuous
 62
     7
370
    13
100
AcDbLine
 10
-8555.318886422121
 20
2176.292793016007
 30
0.0
 11
-8093.23176490612
 21
2176.292793005848
 31
0.0
  0
LINE
  5
2321D
330
A
100
AcDbEntity
  8
天板
 62
     7
370
    50
100
AcDbLine
 10
-8565.318886422121
 20
2261.292102415259
 30
0.0
 11
-8037.818886422121
 21
2261.292102415259
 31
0.0
  0
LINE
  5
2321E
330
A
100
AcDbEntity
  8
天板
 62
     7
370
    50
100
AcDbLine
 10
-8612.818886447518
 20
2236.292103608843
 30
0.0
 11
-8601.96952084034
 21
2236.292103586801
 31
0.0
  0
LINE
  5
2321F
102
{ACAD_REACTORS
330
231FC
102
}
330
A
100
AcDbEntity
  8
天板
  6
STYLE_05
 62
     7
 48
3.0
370
    25
100
AcDbLine
 10
-8601.96952084034
 20
2236.292103586801
 30
0.0
 11
-8558.668251953109
 21
2236.292103498829
 31
0.0
  0
LINE
  5
23220
102
{ACAD_REACTORS
330
231E0
102
}
330
A
100
AcDbEntity
  8
天板
 62
     7
370
    50
100
AcDbLine
 10
-8558.668251953109
 20
2236.292103498829
 30
0.0
 11
-8037.818886447515
 21
2236.292102440654
 31
0.0
  0
LINE
  5
23221
102
{ACAD_REACTORS
330
231FC
102
}
330
A
100
AcDbEntity
  8
貫
  6
STYLE_05
 62
     7
 48
3.0
370
    25
100
AcDbLine
 10
-8580.318886442437
 20
2166.292103542815
 30
0.0
 11
-8570.318886422631
 21
2166.292103522499
 31
0.0
  0
LINE
  5
23222
330
A
100
AcDbEntity
  8
貫
  6
STYLE_05
 62
     7
 48
3.0
370
    25
100
AcDbLine
 10
-8570.318886422631
 20
2166.292103522499
 30
0.0
 11
-8555.318886422121
 21
2166.292103492025
 31
0.0
  0
LINE
  5
23223
330
A
100
AcDbEntity
  8
貫
  6
Continuous
 62
     7
 48
3.0
370
    50
100
AcDbLine
 10
-8555.318886422121
 20
2166.292103492025
 30
0.0
 11
-8093.23176490612
 21
2166.292102553233
 31
0.0
  0
CIRCLE
  5
23224
102
{ACAD_REACTORS
330
23227
102
}
330
A
100
AcDbEntity
  8
木ネジ、ダボ
 62
     7
370
    25
100
AcDbCircle
 10
-10093.77392259217
 20
2221.292101778746
 30
0.0
 40
4.0
  0
ARC
  5
23225
102
{ACAD_REACTORS
330
231FC
102
}
330
A
100
AcDbEntity
  8
貫
  6
STYLE_05
 62
     7
 48
3.0
370
    25
100
AcDbCircle
 10
-8580.318886422121
 20
2176.292103542815
 30
0.0
 40
10.0
100
AcDbArc
 50
180.0
 51
269.9999998835858
  0
CIRCLE
  5
23226
102
{ACAD_REACTORS
330
23227
102
}
330
A
100
AcDbEntity
  8
木ネジ、ダボ
 62
     7
370
    25
100
AcDbCircle
 10
-10093.77392259217
 20
2191.292101778746
 30
0.0
 40
4.0
  0
HATCH
  5
23227
330
A
100
AcDbEntity
  8
木ネジ、ダボ
 62
     7
370
    25
100
AcDbHatch
 10
0.0
 20
0.0
 30
0.0
210
0.0
220
0.0
230
1.0
  2
ANSI31
 70
     0
 71
     1
 91
        2
 92
        7
 72
     1
 73
     1
 93
        2
 10
-10089.77392259217
 20
2221.292101778746
 42
1.0
 10
-10097.77392259217
 20
2221.292101778746
 42
1.0
 97
        1
330
23224
 92
        7
 72
     1
 73
     1
 93
        2
 10
-10089.77392259217
 20
2191.292101778746
 42
1.0
 10
-10097.77392259217
 20
2191.292101778746
 42
1.0
 97
        1
330
23226
 75
     0
 76
     1
 52
0.0
 41
1.0
 77
     0
 78
     1
 53
134.9999999999978
 43
-22488.76774131998
 44
146.0142565125101
 45
2.245064030267374
 46
2.245064030267201
 79
     0
 47
0.442748012474673
 98
        2
 10
-10091.7476430034
 20
2221.189484040136
 10
-10093.51966121476
 20
2191.525368102205
1001
ACAD
1010
0.0
1020
0.0
1030
0.0
  0
LINE
  5
23228
330
A
100
AcDbEntity
  8
天板
 62
     7
370
    50
100
AcDbLine
 10
-10070.27392259217
 20
2236.292102415259
 30
0.0
 11
-9195.27392259217
 21
2236.292102415259
 31
0.0
  0
INSERT
  5
23229
330
A
100
AcDbEntity
  8
ボルト
 62
     7
370
    25
100
AcDbBlockReference
  2
A$C153C7E87
 10
-10044.27393897866
 20
2214.792100434074
 30
0.0
  0
CIRCLE
  5
2322A
330
A
100
AcDbEntity
  8
貫
 62
     7
370
    50
100
AcDbCircle
 10
-10037.77392259217
 20
2221.292101778746
 30
0.0
 40
7.0
  0
INSERT
  5
2322B
330
A
100
AcDbEntity
  8
ボルト
 62
     7
370
    25
100
AcDbBlockReference
  2
A$C153C7E87
 10
-10044.27393897866
 20
2184.792100434073
 30
0.0
  0
CIRCLE
  5
2322C
330
A
100
AcDbEntity
  8
貫
 62
     7
370
    50
100
AcDbCircle
 10
-10037.77392259217
 20
2191.292101778746
 30
0.0
 40
7.0
  0
INSERT
  5
2322D
330
A
100
AcDbEntity
  8
天板
 62
     7
370
    25
100
AcDbBlockReference
  2
A$C41BB26E9
 10
-8590.918888970287
 20
2214.79210151892
 30
0.0
  0
LWPOLYLINE
  5
2322E
102
{ACAD_REACTORS
330
231FC
102
}
330
A
100
AcDbEntity
  8
貫
  6
STYLE_05
 62
     7
 48
3.0
370
    25
100
AcDbPolyline
 90
        4
 70
     1
 43
0.0
 10
-8586.318886422121
 20
2228.292101778746
 10
-8586.318886422121
 20
2214.292101778747
 10
-8590.318886422121
 20
2214.292101778747
 10
-8590.318886422121
 20
2228.292101778746
  0
LWPOLYLINE
  5
2322F
102
{ACAD_REACTORS
330
231FC
102
}
330
A
100
AcDbEntity
  8
貫
  6
STYLE_05
 62
     7
 48
3.0
370
    25
100
AcDbPolyline
 90
        4
 70
     1
 43
0.0
 10
-8570.318886422121
 20
2225.292101778747
 10
-8570.318886422121
 20
2217.292101778747
 10
-8586.318886422121
 20
2217.292101778747
 10
-8586.318886422121
 20
2225.292101778747
  0
LWPOLYLINE
  5
23230
330
A
100
AcDbEntity
  8
貫
  6
STYLE_05
 62
     7
 48
3.0
370
    25
100
AcDbPolyline
 90
        4
 70
     1
 43
0.0
 10
-8535.318886422121
 20
2225.292101778747
 10
-8535.318886422121
 20
2217.292101778747
 10
-8570.318886422121
 20
2217.292101778747
 10
-8570.318886422121
 20
2225.292101778747
  0
CIRCLE
  5
23231
330
A
100
AcDbEntity
  8
ナット
 62
     7
370
    25
100
AcDbCircle
 10
-8545.318886422123
 20
2221.292101778746
 30
0.0
 40
5.0
  0
CIRCLE
  5
23232
330
A
100
AcDbEntity
  8
貫
  6
STYLE_05
 62
     7
 48
3.0
370
    25
100
AcDbCircle
 10
-8545.318886422123
 20
2221.292101778746
 30
0.0
 40
5.25
  0
INSERT
  5
23233
330
A
100
AcDbEntity
  8
天板
 62
     7
370
    25
100
AcDbBlockReference
  2
A$C41BB26E9
 10
-8590.918888970287
 20
2184.79210151892
 30
0.0
  0
LWPOLYLINE
  5
23234
102
{ACAD_REACTORS
330
231FC
102
}
330
A
100
AcDbEntity
  8
貫
  6
STYLE_05
 62
     7
 48
3.0
370
    25
100
AcDbPolyline
 90
        4
 70
     1
 43
0.0
 10
-8586.318886422121
 20
2198.292101778746
 10
-8586.318886422121
 20
2184.292101778746
 10
-8590.318886422121
 20
2184.292101778746
 10
-8590.318886422121
 20
2198.292101778746
  0
LWPOLYLINE
  5
23235
102
{ACAD_REACTORS
330
231FC
102
}
330
A
100
AcDbEntity
  8
貫
  6
STYLE_05
 62
     7
 48
3.0
370
    25
100
AcDbPolyline
 90
        4
 70
     1
 43
0.0
 10
-8570.318886422121
 20
2195.292101778747
 10
-8570.318886422121
 20
2187.292101778746
 10
-8586.318886422121
 20
2187.292101778746
 10
-8586.318886422121
 20
2195.292101778747
  0
LWPOLYLINE
  5
23236
330
A
100
AcDbEntity
  8
貫
  6
STYLE_05
 62
     7
 48
3.0
370
    25
100
AcDbPolyline
 90
        4
 70
     1
 43
0.0
 10
-8535.318886422121
 20
2195.292101778747
 10
-8535.318886422121
 20
2187.292101778746
 10
-8570.318886422121
 20
2187.292101778746
 10
-8570.318886422121
 20
2195.292101778747
  0
CIRCLE
  5
23237
330
A
100
AcDbEntity
  8
ナット
 62
     7
370
    25
100
AcDbCircle
 10
-8545.318886422123
 20
2191.292101778746
 30
0.0
 40
5.0
  0
CIRCLE
  5
23238
330
A
100
AcDbEntity
  8
貫
  6
STYLE_05
 62
     7
 48
3.0
370
    25
100
AcDbCircle
 10
-8545.318886422123
 20
2191.292101778746
 30
0.0
 40
5.25
  0
LINE
  5
23239
330
A
100
AcDbEntity
  8
天板
 62
     7
370
    50
100
AcDbLine
 10
-9197.773922592169
 20
2261.492102415258
 30
0.0
 11
-9197.773922592169
 21
2261.292102415259
 31
0.0
  0
LINE
  5
2323A
330
A
100
AcDbEntity
  8
天板
 62
     7
370
    50
100
AcDbLine
 10
-10070.27392259217
 20
2261.492102415258
 30
0.0
 11
-10070.27392259217
 21
2261.292102415259
 31
0.0
  0
LINE
  5
2323B
330
A
100
AcDbEntity
  8
天板
 62
     7
370
    50
100
AcDbLine
 10
-10070.27392259217
 20
2261.292102415259
 30
0.0
 11
-9197.773922592169
 21
2261.292102415259
 31
0.0
  0
ARC
  5
2323C
330
A
100
AcDbEntity
  8
脚
 62
     7
370
    50
100
AcDbCircle
 10
8045.318886422119
 20
1861.292102405104
 30
0.0
 40
5.0
210
0.0
220
0.0
230
-1.0
100
AcDbArc
 50
0.0
 51
90.0
  0
LINE
  5
2323D
330
A
100
AcDbEntity
  8
脚
 62
     7
370
    25
100
AcDbLine
 10
-8045.318886422119
 20
1866.292102405103
 30
0.0
 11
-8095.318886422122
 21
1866.292102405103
 31
0.0
  0
LINE
  5
2323E
330
A
100
AcDbEntity
  8
脚
 62
     7
370
    50
100
AcDbLine
 10
-8090.318886422123
 20
1861.292102405104
 30
0.0
 11
-8050.31888642212
 21
1861.292102405104
 31
0.0
  0
ARC
  5
2323F
330
A
100
AcDbEntity
  8
脚
 62
     7
370
    50
100
AcDbCircle
 10
-8095.318886422122
 20
1861.292102405104
 30
0.0
 40
5.0
100
AcDbArc
 50
0.0
 51
90.0
  0
ARC
  5
23240
330
A
100
AcDbEntity
  8
脚
 62
     7
370
    50
100
AcDbCircle
 10
-8605.318886422121
 20
1861.292102415262
 30
0.0
 40
5.0
100
AcDbArc
 50
0.0
 51
90.0
  0
LINE
  5
23241
330
A
100
AcDbEntity
  8
脚
 62
     7
370
    25
100
AcDbLine
 10
-8555.318886422121
 20
1866.292102415262
 30
0.0
 11
-8605.318886422121
 21
1866.292102415262
 31
0.0
  0
LINE
  5
23242
330
A
100
AcDbEntity
  8
脚
 62
     7
370
    50
100
AcDbLine
 10
-8600.318886422121
 20
1861.292102415262
 30
0.0
 11
-8560.318886422122
 21
1861.292102415262
 31
0.0
  0
ARC
  5
23243
330
A
100
AcDbEntity
  8
脚
 62
     7
370
    50
100
AcDbCircle
 10
8555.318886422121
 20
1861.292102415262
 30
0.0
 40
5.0
210
0.0
220
0.0
230
-1.0
100
AcDbArc
 50
0.0
 51
90.0
  0
LINE
  5
23244
330
A
100
AcDbEntity
  8
脚
 62
     7
370
    25
100
AcDbLine
 10
-10122.77392259217
 20
1866.292102415261
 30
0.0
 11
-10083.77392259217
 21
1866.292102415262
 31
0.0
  0
ARC
  5
23245
330
A
100
AcDbEntity
  8
脚
 62
     7
370
    50
100
AcDbCircle
 10
10083.77392259217
 20
1861.292102415262
 30
0.0
 40
5.0
210
0.0
220
0.0
230
-1.0
100
AcDbArc
 50
0.0
 51
90.0
  0
ARC
  5
23246
330
A
100
AcDbEntity
  8
脚
 62
     7
370
    50
100
AcDbCircle
 10
-10123.77392259217
 20
1861.292102415262
 30
0.0
 40
5.0
100
AcDbArc
 50
0.0
 51
90.0
  0
LINE
  5
23247
330
A
100
AcDbEntity
  8
脚
 62
     7
370
    50
100
AcDbLine
 10
-10088.77392259217
 20
1861.292102415262
 30
0.0
 11
-10118.77392259217
 21
1861.292102415262
 31
0.0
  0
LINE
  5
23248
330
A
100
AcDbEntity
  8
脚
 62
     7
370
    25
100
AcDbLine
 10
-10017.77392259217
 20
1861.292102415262
 30
0.0
 11
-10057.77392259217
 21
1861.292102415262
 31
0.0
  0
LINE
  5
23249
330
A
100
AcDbEntity
  8
脚
 62
     7
370
    25
100
AcDbLine
 10
-10062.77392259217
 20
1866.292102415262
 30
0.0
 11
-10012.77392259217
 21
1866.292102415262
 31
0.0
  0
ARC
  5
2324A
330
A
100
AcDbEntity
  8
脚
 62
     7
370
    25
100
AcDbCircle
 10
10012.77392259217
 20
1861.292102415262
 30
0.0
 40
5.0
210
0.0
220
0.0
230
-1.0
100
AcDbArc
 50
0.0
 51
90.0
  0
ARC
  5
2324B
330
A
100
AcDbEntity
  8
脚
 62
     7
370
    25
100
AcDbCircle
 10
-10062.77392259217
 20
1861.292102415262
 30
0.0
 40
5.0
100
AcDbArc
 50
0.0
 51
90.0
  0
LINE
  5
2326C
330
A
100
AcDbEntity
  8
貫
 62
     7
370
    50
100
AcDbLine
 10
-10082.77392259217
 20
2713.421581219058
 30
0.0
 11
-10083.77392259216
 21
2713.421581219057
 31
0.0
  0
LINE
  5
2326D
330
A
100
AcDbEntity
  8
貫
 62
     7
370
    50
100
AcDbLine
 10
-10082.77392259217
 20
2693.421581219058
 30
0.0
 11
-10083.77392259216
 21
2693.421581219058
 31
0.0
  0
INSERT
  5
23270
330
A
100
AcDbEntity
  8
寸法
 62
     7
100
AcDbBlockReference
  2
A$C73231E16
 10
-10042.77392259217
 20
1859.292106414844
 30
0.0
  0
INSERT
  5
23271
330
A
100
AcDbEntity
  8
寸法
 62
     7
100
AcDbBlockReference
  2
A$C73231E16
 10
-10108.77392259217
 20
1859.292106414844
 30
0.0
  0
INSERT
  5
23278
330
A
100
AcDbEntity
  8
寸法
 62
     7
100
AcDbBlockReference
  2
A$C73231E16
 10
-8575.318886422122
 20
1859.292106414844
 30
0.0
 41
-1.0
  0
LINE
  5
23279
330
A
100
AcDbEntity
  8
木ネジ・ダボ
 62
     7
100
AcDbLine
 10
-8581.318886422122
 20
1861.292102415262
 30
0.0
 11
-8581.318886422122
 21
1871.292102415262
 31
0.0
  0
LINE
  5
2327A
330
A
100
AcDbEntity
  8
木ネジ・ダボ
 62
     7
100
AcDbLine
 10
-8579.31888642212
 20
1861.292102415262
 30
0.0
 11
-8579.31888642212
 21
1871.292102415262
 31
0.0
  0
LINE
  5
2327B
330
A
100
AcDbEntity
  8
木ネジ・ダボ
 62
     7
100
AcDbLine
 10
-8579.31888642212
 20
1871.292102415262
 30
0.0
 11
-8581.318886422122
 21
1871.292102415262
 31
0.0
  0
INSERT
  5
23284
330
A
100
AcDbEntity
  8
寸法
 62
     7
100
AcDbBlockReference
  2
A$C73231E16
 10
-8065.318886422119
 20
1859.292106404687
 30
0.0
 41
-1.0
  0
LINE
  5
23285
330
A
100
AcDbEntity
  8
木ネジ・ダボ
 62
     7
100
AcDbLine
 10
-8071.318886422119
 20
1861.292102405104
 30
0.0
 11
-8071.318886422119
 21
1871.292102405103
 31
0.0
  0
LINE
  5
23286
330
A
100
AcDbEntity
  8
木ネジ・ダボ
 62
     7
100
AcDbLine
 10
-8069.31888642212
 20
1861.292102405104
 30
0.0
 11
-8069.31888642212
 21
1871.292102405103
 31
0.0
  0
LINE
  5
23287
330
A
100
AcDbEntity
  8
木ネジ・ダボ
 62
     7
100
AcDbLine
 10
-8069.31888642212
 20
1871.292102405103
 30
0.0
 11
-8071.318886422119
 21
1871.292102405103
 31
0.0
  0
ARC
  5
2328C
330
A
100
AcDbEntity
  8
天板
 62
     7
370
    50
100
AcDbCircle
 10
-9202.77392259217
 20
3238.421581219057
 30
0.0
 40
20.0
100
AcDbArc
 50
0.0
 51
90.0
  0
ARC
  5
2328D
330
A
100
AcDbEntity
  8
天板
 62
     7
370
    50
100
AcDbCircle
 10
-9202.77392259217
 20
3238.421581219057
 30
0.0
 40
5.0
100
AcDbArc
 50
0.0
 51
90.0
  0
LINE
  5
2328E
330
A
100
AcDbEntity
  8
天板
 62
     7
370
    25
100
AcDbLine
 10
-9199.238388686238
 20
3241.957115124991
 30
0.0
 11
-9188.631786968437
 21
3252.563716842788
 31
0.0
  0
LINE
  5
2328F
330
A
100
AcDbEntity
  8
天板
 62
     7
370
    50
100
AcDbLine
 10
-9182.773922592168
 20
3238.421581219057
 30
0.0
 11
-9182.773922592168
 21
2678.421581219057
 31
0.0
  0
LINE
  5
23290
330
A
100
AcDbEntity
  8
天板
 62
     7
370
    50
100
AcDbLine
 10
-9197.773922592169
 20
3238.421581219057
 30
0.0
 11
-9197.773922592169
 21
2678.421581219057
 31
0.0
  0
LINE
  5
23291
330
A
100
AcDbEntity
  8
脚
 62
     7
370
    50
100
AcDbLine
 10
-9181.773922592169
 20
2723.421581219057
 30
0.0
 11
-9181.773922592169
 21
2683.421581219058
 31
0.0
  0
ARC
  5
23292
330
A
100
AcDbEntity
  8
脚
 62
     7
370
    50
100
AcDbCircle
 10
-9166.773922592168
 20
2703.421581219057
 30
0.0
 40
25.0
100
AcDbArc
 50
270.0000000060448
 51
90.00000049984112
  0
LINE
  5
23293
330
A
100
AcDbEntity
  8
脚
 62
     7
370
    50
100
AcDbLine
 10
-9166.773922592168
 20
2728.421581219058
 30
0.0
 11
-9176.773922592168
 21
2728.421581219058
 31
0.0
  0
ARC
  5
23294
330
A
100
AcDbEntity
  8
脚
 62
     7
370
    50
100
AcDbCircle
 10
9176.773922592168
 20
2723.421581219057
 30
0.0
 40
5.0
210
0.0
220
0.0
230
-1.0
100
AcDbArc
 50
0.0
 51
90.0
  0
ARC
  5
23295
330
A
100
AcDbEntity
  8
天板
 62
     7
370
    50
100
AcDbCircle
 10
-9202.77392259217
 20
2678.421581219057
 30
0.0
 40
20.0
100
AcDbArc
 50
270.0
 51
0.0
  0
ARC
  5
23296
330
A
100
AcDbEntity
  8
天板
 62
     7
370
    50
100
AcDbCircle
 10
-9202.77392259217
 20
2678.421581219057
 30
0.0
 40
5.0
100
AcDbArc
 50
270.0
 51
0.0
  0
LINE
  5
23297
330
A
100
AcDbEntity
  8
天板
 62
     7
370
    25
100
AcDbLine
 10
-9199.238388686238
 20
2674.886047313125
 30
0.0
 11
-9188.631786968437
 21
2664.279445595326
 31
0.0
  0
LINE
  5
23298
330
A
100
AcDbEntity
  8
脚
 62
     7
370
    50
100
AcDbLine
 10
-9166.773922592168
 20
2678.421581219057
 30
0.0
 11
-9176.773922592168
 21
2678.421581219057
 31
0.0
  0
ARC
  5
23299
330
A
100
AcDbEntity
  8
脚
 62
     7
370
    50
100
AcDbCircle
 10
9176.773922592168
 20
2683.421581219058
 30
0.0
 40
5.0
210
0.0
220
0.0
230
-1.0
100
AcDbArc
 50
270.0
 51
0.0
  0
LINE
  5
2329A
330
A
100
AcDbEntity
  8
天板
 62
     7
370
    50
100
AcDbLine
 10
-9632.773922592171
 20
3258.421581219057
 30
0.0
 11
-9202.77392259217
 21
3258.421581219057
 31
0.0
  0
LINE
  5
2329B
330
A
100
AcDbEntity
  8
天板
 62
     7
370
    50
100
AcDbLine
 10
-9632.773922592171
 20
3243.421581219057
 30
0.0
 11
-9202.77392259217
 21
3243.421581219057
 31
0.0
  0
LINE
  5
2329C
330
A
100
AcDbEntity
  8
天板
 62
     7
370
    50
100
AcDbLine
 10
-9202.77392259217
 20
2658.421581219057
 30
0.0
 11
-9632.773922592171
 21
2658.421581219057
 31
0.0
  0
LINE
  5
2329D
330
A
100
AcDbEntity
  8
天板
 62
     7
370
    50
100
AcDbLine
 10
-9202.77392259217
 20
2673.421581219058
 30
0.0
 11
-9632.773922592171
 21
2673.421581219058
 31
0.0
  0
LINE
  5
2329E
330
A
100
AcDbEntity
  8
貫
 62
     7
370
    50
100
AcDbLine
 10
-9182.773922592168
 20
2713.421581219058
 30
0.0
 11
-9181.773922592173
 21
2713.421581219057
 31
0.0
  0
LINE
  5
2329F
330
A
100
AcDbEntity
  8
貫
 62
     7
370
    50
100
AcDbLine
 10
-9182.773922592168
 20
2693.421581219058
 30
0.0
 11
-9181.773922592173
 21
2693.421581219058
 31
0.0
  0
LINE
  5
232A0
330
A
100
AcDbEntity
  8
脚
 62
     7
370
    50
100
AcDbLine
 10
-9141.77392259228
 20
1866.292102415083
 30
0.0
 11
-9141.77392259215
 21
2223.29210241508
 31
0.0
  0
LINE
  5
232A1
330
A
100
AcDbEntity
  8
脚
 62
     7
370
    50
100
AcDbLine
 10
-9181.773922592148
 20
2243.292102415094
 30
0.0
 11
-9181.773922592283
 21
1866.292102415098
 31
0.0
  0
LINE
  5
232A5
330
A
100
AcDbEntity
  8
脚
 62
     7
370
    50
100
AcDbLine
 10
-9182.773922592144
 20
2248.292102415095
 30
0.0
 11
-9182.773922592144
 21
2248.292102415095
 31
0.0
  0
ARC
  5
232A6
330
A
100
AcDbEntity
  8
脚
 62
     7
370
    50
100
AcDbCircle
 10
-9166.773922592152
 20
2223.29210241509
 30
0.0
 40
25.0
100
AcDbArc
 50
359.9999999999793
 51
90.0
  0
LINE
  5
232A7
330
A
100
AcDbEntity
  8
脚
 62
     7
370
    50
100
AcDbLine
 10
-9166.77392259214
 20
2248.292102415089
 30
0.0
 11
-9176.773922592143
 21
2248.292102415092
 31
0.0
  0
ARC
  5
232A8
330
A
100
AcDbEntity
  8
脚
 62
     7
370
    50
100
AcDbCircle
 10
9176.773922592143
 20
2243.292102415093
 30
0.0
 40
5.0
210
0.0
220
0.0
230
-1.0
100
AcDbArc
 50
0.0000000000207627
 51
90.0
  0
LINE
  5
232AB
330
A
100
AcDbEntity
  8
脚
 62
     7
370
    25
100
AcDbLine
 10
-9252.773922592282
 20
1866.292102415123
 30
0.0
 11
-9252.773922592174
 21
2166.292793015868
 31
0.0
  0
LINE
  5
232AC
330
A
100
AcDbEntity
  8
脚
 62
     7
370
    25
100
AcDbLine
 10
-9202.773922592285
 20
1866.292102415105
 30
0.0
 11
-9202.773922592177
 21
2166.29279301585
 31
0.0
  0
CIRCLE
  5
232B0
102
{ACAD_REACTORS
330
232B2
102
}
330
A
100
AcDbEntity
  8
木ネジ、ダボ
 62
     7
370
    25
100
AcDbCircle
 10
-9171.773922592157
 20
2221.292101778578
 30
0.0
 40
4.0
  0
CIRCLE
  5
232B1
102
{ACAD_REACTORS
330
232B2
102
}
330
A
100
AcDbEntity
  8
木ネジ、ダボ
 62
     7
370
    25
100
AcDbCircle
 10
-9171.773922592164
 20
2191.29210177858
 30
0.0
 40
4.0
  0
HATCH
  5
232B2
330
A
100
AcDbEntity
  8
木ネジ、ダボ
 62
     7
370
    25
100
AcDbHatch
 10
0.0
 20
0.0
 30
0.0
210
0.0
220
0.0
230
1.0
  2
ANSI31
 70
     0
 71
     1
 91
        2
 92
        7
 72
     1
 73
     1
 93
        2
 10
-9167.773922592154
 20
2221.292101778578
 42
1.0
 10
-9175.773922592155
 20
2221.292101778578
 42
1.0
 97
        1
330
232B0
 92
        7
 72
     1
 73
     1
 93
        2
 10
-9167.773922592166
 20
2191.29210177858
 42
1.0
 10
-9175.773922592165
 20
2191.29210177858
 42
1.0
 97
        1
330
232B1
 75
     0
 76
     1
 52
0.0
 41
1.0
 77
     0
 78
     1
 53
44.99999999998134
 43
3223.219896134906
 44
146.0142565078331
 45
-2.245064030266556
 46
2.245064030268018
 79
     0
 47
0.442748012474673
 98
        2
 10
-9173.80020218092
 20
2221.189484039969
 10
-9172.028183969571
 20
2191.525368102037
1001
ACAD
1010
0.0
1020
0.0
1030
0.0
  0
INSERT
  5
232B3
330
A
100
AcDbEntity
  8
ボルト
 62
     7
370
    25
100
AcDbBlockReference
  2
A$C153C7E87
 10
-9221.273906205658
 20
2214.792100433924
 30
0.0
 41
-1.0
 50
359.9999999999793
  0
CIRCLE
  5
232B4
330
A
100
AcDbEntity
  8
貫
 62
     7
370
    50
100
AcDbCircle
 10
-9227.773922592154
 20
2221.292101778599
 30
0.0
 40
7.0
  0
INSERT
  5
232B5
330
A
100
AcDbEntity
  8
ボルト
 62
     7
370
    25
100
AcDbBlockReference
  2
A$C153C7E87
 10
-9221.27390620567
 20
2184.792100433924
 30
0.0
 41
-1.0
 50
359.9999999999793
  0
CIRCLE
  5
232B6
330
A
100
AcDbEntity
  8
貫
 62
     7
370
    50
100
AcDbCircle
 10
-9227.773922592165
 20
2191.292101778599
 30
0.0
 40
7.0
  0
LINE
  5
232B7
330
A
100
AcDbEntity
  8
天板
 62
     7
370
    50
100
AcDbLine
 10
-9195.273922592139
 20
2261.492102415099
 30
0.0
 11
-9195.273922592139
 21
2261.292102415099
 31
0.0
  0
LINE
  5
232B8
330
A
100
AcDbEntity
  8
脚
 62
     7
370
    25
100
AcDbLine
 10
-9142.773922592278
 20
1866.292102415083
 30
0.0
 11
-9181.773922592279
 21
1866.292102415098
 31
0.0
  0
ARC
  5
232B9
330
A
100
AcDbEntity
  8
脚
 62
     7
370
    50
100
AcDbCircle
 10
9181.773922592283
 20
1861.292102415097
 30
0.0
 40
5.0
210
0.0
220
0.0
230
-1.0
100
AcDbArc
 50
90.0
 51
180.0000000000206
  0
ARC
  5
232BA
330
A
100
AcDbEntity
  8
脚
 62
     7
370
    50
100
AcDbCircle
 10
-9141.77392259228
 20
1861.292102415083
 30
0.0
 40
5.0
100
AcDbArc
 50
90.0
 51
179.9999999999791
  0
LINE
  5
232BB
330
A
100
AcDbEntity
  8
脚
 62
     7
370
    50
100
AcDbLine
 10
-9176.77392259228
 20
1861.292102415096
 30
0.0
 11
-9146.773922592279
 21
1861.292102415084
 31
0.0
  0
LINE
  5
232BC
330
A
100
AcDbEntity
  8
脚
 62
     7
370
    25
100
AcDbLine
 10
-9247.773922592282
 20
1861.292102415122
 30
0.0
 11
-9207.773922592279
 21
1861.292102415107
 31
0.0
  0
LINE
  5
232BD
330
A
100
AcDbEntity
  8
脚
 62
     7
370
    25
100
AcDbLine
 10
-9202.77392259228
 20
1866.292102415105
 30
0.0
 11
-9252.773922592281
 21
1866.292102415123
 31
0.0
  0
ARC
  5
232BE
330
A
100
AcDbEntity
  8
脚
 62
     7
370
    25
100
AcDbCircle
 10
9252.773922592281
 20
1861.292102415123
 30
0.0
 40
5.0
210
0.0
220
0.0
230
-1.0
100
AcDbArc
 50
90.0
 51
180.0000000000206
  0
ARC
  5
232BF
330
A
100
AcDbEntity
  8
脚
 62
     7
370
    25
100
AcDbCircle
 10
-9202.773922592282
 20
1861.292102415105
 30
0.0
 40
5.0
100
AcDbArc
 50
90.0
 51
179.9999999999791
  0
INSERT
  5
232D2
330
A
100
AcDbEntity
  8
寸法
 62
     7
100
AcDbBlockReference
  2
A$C73231E16
 10
-9222.77392259228
 20
1859.292106414695
 30
0.0
 41
-1.0
 50
359.9999999999793
  0
INSERT
  5
232D3
330
A
100
AcDbEntity
  8
寸法
 62
     7
100
AcDbBlockReference
  2
A$C73231E16
 10
-9156.773922592282
 20
1859.292106414672
 30
0.0
 41
-1.0
 50
359.9999999999793
  0
ARC
  5
232D6
330
A
100
AcDbEntity
  8
天板
 62
     7
370
    50
100
AcDbCircle
 10
-6935.703330440782
 20
3308.421581219057
 30
0.0
 40
20.0
100
AcDbArc
 50
90.0
 51
180.0
  0
ARC
  5
232D7
330
A
100
AcDbEntity
  8
天板
 62
     7
370
    50
100
AcDbCircle
 10
-6935.703330440782
 20
3308.421581219057
 30
0.0
 40
5.0
100
AcDbArc
 50
90.0
 51
180.0
  0
LINE
  5
232D8
330
A
100
AcDbEntity
  8
天板
 62
     7
370
    25
100
AcDbLine
 10
-6939.238864346714
 20
3311.95711512499
 30
0.0
 11
-6949.845466064513
 21
3322.563716842789
 31
0.0
  0
LINE
  5
232D9
330
A
100
AcDbEntity
  8
天板
 62
     7
370
    50
100
AcDbLine
 10
-6955.703330440781
 20
3308.421581219057
 30
0.0
 11
-6955.703330440781
 21
2748.421581219057
 31
0.0
  0
LINE
  5
232DA
330
A
100
AcDbEntity
  8
天板
 62
     7
370
    50
100
AcDbLine
 10
-6940.703330440782
 20
3308.421581219057
 30
0.0
 11
-6940.703330440782
 21
2748.421581219057
 31
0.0
  0
LINE
  5
232DB
330
A
100
AcDbEntity
  8
脚
 62
     7
370
    50
100
AcDbLine
 10
-6956.703330440781
 20
2793.421581219057
 30
0.0
 11
-6956.703330440781
 21
2753.421581219058
 31
0.0
  0
ARC
  5
232DC
330
A
100
AcDbEntity
  8
脚
 62
     7
370
    50
100
AcDbCircle
 10
-6971.703330440782
 20
2773.421581219059
 30
0.0
 40
25.0
100
AcDbArc
 50
89.9999995002631
 51
269.9999999940594
  0
LINE
  5
232DD
330
A
100
AcDbEntity
  8
脚
 62
     7
370
    50
100
AcDbLine
 10
-6971.703330440782
 20
2798.421581219058
 30
0.0
 11
-6961.703330440781
 21
2798.421581219058
 31
0.0
  0
ARC
  5
232DE
330
A
100
AcDbEntity
  8
脚
 62
     7
370
    50
100
AcDbCircle
 10
6961.703330440781
 20
2793.421581219057
 30
0.0
 40
5.0
210
0.0
220
0.0
230
-1.0
100
AcDbArc
 50
90.0
 51
180.0
  0
ARC
  5
232DF
330
A
100
AcDbEntity
  8
天板
 62
     7
370
    50
100
AcDbCircle
 10
-6935.703330440782
 20
2748.421581219057
 30
0.0
 40
20.0
100
AcDbArc
 50
180.0
 51
270.0
  0
ARC
  5
232E0
330
A
100
AcDbEntity
  8
天板
 62
     7
370
    50
100
AcDbCircle
 10
-6935.703330440782
 20
2748.421581219057
 30
0.0
 40
5.0
100
AcDbArc
 50
180.0
 51
270.0
  0
LINE
  5
232E1
330
A
100
AcDbEntity
  8
天板
 62
     7
370
    25
100
AcDbLine
 10
-6939.238864346714
 20
2744.886047313125
 30
0.0
 11
-6949.845466064513
 21
2734.279445595327
 31
0.0
  0
LINE
  5
232E2
330
A
100
AcDbEntity
  8
脚
 62
     7
370
    50
100
AcDbLine
 10
-6971.703330440782
 20
2748.421581219057
 30
0.0
 11
-6961.703330440781
 21
2748.421581219057
 31
0.0
  0
ARC
  5
232E3
330
A
100
AcDbEntity
  8
脚
 62
     7
370
    50
100
AcDbCircle
 10
6961.703330440781
 20
2753.421581219058
 30
0.0
 40
5.0
210
0.0
220
0.0
230
-1.0
100
AcDbArc
 50
180.0
 51
270.0
  0
ARC
  5
232E4
330
A
100
AcDbEntity
  8
天板
 62
     7
370
    50
100
AcDbCircle
 10
4910.748294270734
 20
2318.792102440654
 30
0.0
 40
12.5
210
0.0
220
0.0
230
-1.0
100
AcDbArc
 50
180.0
 51
270.0000001164142
  0
ARC
  5
232E5
330
A
100
AcDbEntity
  8
天板
 62
     7
370
    50
100
AcDbCircle
 10
4910.748294270734
 20
2318.792102415258
 30
0.0
 40
12.5
210
0.0
220
0.0
230
-1.0
100
AcDbArc
 50
90.0
 51
180.0
  0
HATCH
  5
232E6
330
A
100
AcDbEntity
  8
貫
 62
     7
370
     5
100
AcDbHatch
 10
0.0
 20
0.0
 30
0.0
210
0.0
220
0.0
230
1.0
  2
ANSI31
 70
     0
 71
     1
 91
        1
 92
        7
 72
     1
 73
     1
 93
        4
 10
-4933.248294279955
 20
2306.292102486366
 42
0.0
 10
-4953.248294279955
 20
2306.292102526998
 42
0.0
 10
-4953.248294279955
 20
2246.292793107431
 42
1.0
 10
-4933.248294279954
 20
2246.292793107431
 42
0.0
 97
        4
330
23326
330
232EA
330
232EB
330
232E7
 75
     0
 76
     1
 52
0.0
 41
1.0
 77
     0
 78
     1
 53
45.0
 43
6525.140522584763
 44
211.0142565120177
 45
-2.245064030267287
 46
2.245064030267287
 79
     0
 47
0.4587729665696367
 98
        1
 10
-4950.577351434205
 20
2282.132188623154
1001
ACAD
1010
0.0
1020
0.0
1030
0.0
  0
LINE
  5
232E7
102
{ACAD_REACTORS
330
232E6
102
}
330
A
100
AcDbEntity
  8
貫
  6
STYLE_05
 62
     7
 48
3.0
370
    25
100
AcDbLine
 10
-4933.248294279954
 20
2306.292102506682
 30
0.0
 11
-4933.248294279954
 21
2246.292791834404
 31
0.0
  0
LINE
  5
232E9
330
A
100
AcDbEntity
  8
脚
 62
     7
370
    50
100
AcDbLine
 10
-4918.248294279955
 20
2306.292102455891
 30
0.0
 11
-4918.248295173871
 21
1866.292102405104
 31
0.0
  0
LINE
  5
232EA
102
{ACAD_REACTORS
330
232E6
102
}
330
A
100
AcDbEntity
  8
貫
  6
STYLE_05
 62
     7
 48
3.0
370
    25
100
AcDbLine
 10
-4953.248294279955
 20
2246.292791777719
 30
0.0
 11
-4953.248294279955
 21
2306.292102506682
 31
0.0
  0
ARC
  5
232EB
102
{ACAD_REACTORS
330
232E6
102
}
330
A
100
AcDbEntity
  8
貫
  6
STYLE_05
 62
     7
 48
3.0
370
    25
100
AcDbCircle
 10
-4943.248294279954
 20
2246.292793107431
 30
0.0
 40
9.999999999999886
100
AcDbArc
 50
180.0
 51
0.0
  0
LINE
  5
232EC
330
A
100
AcDbEntity
  8
レイヤー1
 62
     7
370
    13
100
AcDbLine
 10
-4953.248294279955
 20
2306.292102506682
 30
0.0
 11
-4933.248294279954
 21
2306.292102506682
 31
0.0
  0
LINE
  5
232EF
330
A
100
AcDbEntity
  8
脚
 62
     7
370
    50
100
AcDbLine
 10
-4968.248294483172
 20
1866.292102405104
 30
0.0
 11
-4968.24829382815
 21
2236.292793005848
 31
0.0
  0
LINE
  5
232F0
330
A
100
AcDbEntity
  8
脚
 62
     7
370
    50
100
AcDbLine
 10
-4966.161172754733
 20
2236.292102553234
 30
0.0
 11
-4966.161172592203
 21
2306.292102553232
 31
0.0
  0
ARC
  5
232F2
330
A
100
AcDbEntity
  8
天板
 62
     7
370
    50
100
AcDbCircle
 10
6068.203330440781
 20
2318.792102415258
 30
0.0
 40
12.5
210
0.0
220
0.0
230
-1.0
100
AcDbArc
 50
90.0
 51
180.0
  0
LINE
  5
232F3
330
A
100
AcDbEntity
  8
脚
 62
     7
370
    25
100
AcDbLine
 10
-6055.703330440781
 20
2318.292102415258
 30
0.0
 11
-6055.703330440781
 21
2318.292102415258
 31
0.0
  0
ARC
  5
232F4
330
A
100
AcDbEntity
  8
天板
 62
     7
370
    50
100
AcDbCircle
 10
6068.203330440781
 20
2318.792102415258
 30
0.0
 40
12.5
210
0.0
220
0.0
230
-1.0
100
AcDbArc
 50
180.0
 51
270.0
  0
LINE
  5
232F5
330
A
100
AcDbEntity
  8
脚
 62
     7
370
    50
100
AcDbLine
 10
-5478.248294270734
 20
1866.292102415262
 30
0.0
 11
-5478.248294270734
 21
2293.292102415259
 31
0.0
  0
ARC
  5
232F7
330
A
100
AcDbEntity
  8
天板
 62
     7
370
    50
100
AcDbCircle
 10
-5485.748294270734
 20
2318.792103608843
 30
0.0
 40
12.5
100
AcDbArc
 50
180.0
 51
269.9999998835858
  0
ARC
  5
232F8
330
A
100
AcDbEntity
  8
天板
 62
     7
370
    50
100
AcDbCircle
 10
-5485.748294270734
 20
2318.792102415258
 30
0.0
 40
12.5
100
AcDbArc
 50
90.0
 51
180.0
  0
ARC
  5
232F9
330
A
100
AcDbEntity
  8
脚
 62
     7
370
    50
100
AcDbCircle
 10
5453.248294270734
 20
2293.292102415259
 30
0.0
 40
25.0
210
0.0
220
0.0
230
-1.0
100
AcDbArc
 50
90.0
 51
180.0
  0
LINE
  5
232FC
330
A
100
AcDbEntity
  8
天板
 62
     7
370
    50
100
AcDbLine
 10
-5485.748294270734
 20
2331.292102415258
 30
0.0
 11
-5438.248294270734
 21
2331.292102415258
 31
0.0
  0
LINE
  5
232FD
330
A
100
AcDbEntity
  8
脚
 62
     7
370
    50
100
AcDbLine
 10
-5428.248294270733
 20
1866.292102415262
 30
0.0
 11
-5428.248294270736
 21
2293.292102415259
 31
0.0
  0
LINE
  5
232FF
330
A
100
AcDbEntity
  8
脚
 62
     7
370
    50
100
AcDbLine
 10
-5453.248294270734
 20
2318.792102415258
 30
0.0
 11
-5453.248294270734
 21
2318.792102415258
 31
0.0
  0
ARC
  5
23300
330
A
100
AcDbEntity
  8
脚
 62
     7
370
    50
100
AcDbCircle
 10
-5453.248294270734
 20
2293.292102415259
 30
0.0
 40
25.0
100
AcDbArc
 50
90.0
 51
180.0
  0
LINE
  5
23301
330
A
100
AcDbEntity
  8
レイヤー1
  6
STYLE_05
 62
     7
 48
3.0
370
    13
100
AcDbLine
 10
-5463.248294270734
 20
2306.292103522498
 30
0.0
 11
-5443.248294270734
 21
2306.292103522498
 31
0.0
  0
HATCH
  5
23302
330
A
100
AcDbEntity
  8
貫
 62
     7
370
     5
100
AcDbHatch
 10
0.0
 20
0.0
 30
0.0
210
0.0
220
0.0
230
1.0
  2
ANSI31
 70
     0
 71
     1
 91
        3
 92
        7
 72
     0
 73
     1
 93
        6
 10
-5443.248294270733
 20
2295.292101778747
 10
-5443.248294270734
 20
2306.292103522499
 10
-5463.248294270734
 20
2306.292103563131
 10
-5463.248294270734
 20
2298.292101778747
 10
-5459.248294270732
 20
2298.292101778747
 10
-5459.248294270734
 20
2295.292101778747
 97
        5
330
23325
330
23304
330
23334
330
23335
330
23303
 92
        7
 72
     0
 73
     1
 93
        8
 10
-5459.248294270734
 20
2284.292101778747
 10
-5463.248294270734
 20
2284.292101778747
 10
-5463.248294270734
 20
2268.292101778746
 10
-5459.248294270734
 20
2268.292101778746
 10
-5459.248294270734
 20
2265.292101778746
 10
-5443.248294270733
 20
2265.292101778746
 10
-5443.248294270733
 20
2287.292101778747
 10
-5459.248294270734
 20
2287.292101778747
 97
        6
330
23335
330
23334
330
23304
330
2333A
330
2333B
330
23303
 92
        7
 72
     1
 73
     1
 93
        7
 10
-5459.248294270734
 20
2254.292101778746
 42
0.0
 10
-5463.248294270734
 20
2254.292101778746
 42
0.0
 10
-5463.248294270734
 20
2246.292103542815
 42
0.4142135617780713
 10
-5453.248294291049
 20
2236.292103542815
 42
0.0
 10
-5443.248294270732
 20
2236.2921035225
 42
0.0
 10
-5443.248294270733
 20
2257.292101778746
 42
0.0
 10
-5459.248294270734
 20
2257.292101778746
 42
0.0
 97
        6
330
2333B
330
2333A
330
23304
330
2332B
330
23327
330
23303
 75
     0
 76
     1
 52
0.0
 41
1.0
 77
     0
 78
     1
 53
45.0
 43
6525.140522584763
 44
211.0142565120177
 45
-2.245064030267287
 46
2.245064030267287
 79
     0
 47
0.1978598540273413
 98
        3
 10
-5449.308195298723
 20
2300.745434767153
 10
-5453.861602360492
 20
2279.376577002802
 10
-5453.861602360492
 20
2247.125406733071
1001
ACAD
1010
0.0
1020
0.0
1030
0.0
  0
LINE
  5
23303
102
{ACAD_REACTORS
330
23302
102
}
330
A
100
AcDbEntity
  8
貫
  6
STYLE_05
 62
     7
 48
3.0
370
    25
100
AcDbLine
 10
-5443.248294270734
 20
2306.292103522498
 30
0.0
 11
-5443.248294270732
 21
2236.292103522499
 31
0.0
  0
LINE
  5
23304
102
{ACAD_REACTORS
330
23302
102
}
330
A
100
AcDbEntity
  8
貫
  6
STYLE_05
 62
     7
 48
3.0
370
    25
100
AcDbLine
 10
-5463.248294270734
 20
2246.292103542815
 30
0.0
 11
-5463.248294270734
 21
2306.292103522498
 31
0.0
  0
LINE
  5
23305
330
A
100
AcDbEntity
  8
脚
 62
     7
370
    50
100
AcDbLine
 10
-6996.703330440784
 20
1866.292102415262
 30
0.0
 11
-6996.703330440784
 21
2293.292102415259
 31
0.0
  0
LINE
  5
23306
330
A
100
AcDbEntity
  8
脚
 62
     7
370
    50
100
AcDbLine
 10
-6956.703330440781
 20
2313.292102415259
 30
0.0
 11
-6956.703330440781
 21
1866.292102415262
 31
0.0
  0
ARC
  5
2330A
330
A
100
AcDbEntity
  8
天板
 62
     7
370
    50
100
AcDbCircle
 10
-6943.20333044078
 20
2318.792102415258
 30
0.0
 40
12.5
100
AcDbArc
 50
90.0
 51
180.0
  0
LINE
  5
2330B
330
A
100
AcDbEntity
  8
脚
 62
     7
370
    50
100
AcDbLine
 10
-6955.703330440781
 20
2318.292102415258
 30
0.0
 11
-6955.703330440781
 21
2318.292102415258
 31
0.0
  0
ARC
  5
2330C
330
A
100
AcDbEntity
  8
天板
 62
     7
370
    50
100
AcDbCircle
 10
-6943.20333044078
 20
2318.792102415258
 30
0.0
 40
12.5
100
AcDbArc
 50
180.0
 51
270.0
  0
ARC
  5
2330D
330
A
100
AcDbEntity
  8
脚
 62
     7
370
    50
100
AcDbCircle
 10
-6971.703330440782
 20
2293.292102415259
 30
0.0
 40
25.0
100
AcDbArc
 50
90.0
 51
180.0
  0
LINE
  5
2330E
330
A
100
AcDbEntity
  8
脚
 62
     7
370
    50
100
AcDbLine
 10
-6971.703330440782
 20
2318.292102415258
 30
0.0
 11
-6961.703330440781
 21
2318.292102415258
 31
0.0
  0
ARC
  5
2330F
330
A
100
AcDbEntity
  8
脚
 62
     7
370
    50
100
AcDbCircle
 10
6961.703330440781
 20
2313.292102415259
 30
0.0
 40
5.0
210
0.0
220
0.0
230
-1.0
100
AcDbArc
 50
90.0
 51
180.0
  0
LINE
  5
23312
330
A
100
AcDbEntity
  8
脚
 62
     7
370
    25
100
AcDbLine
 10
-6885.703330440782
 20
1866.292102415262
 30
0.0
 11
-6885.703330440782
 21
2236.292793016006
 31
0.0
  0
LINE
  5
23313
330
A
100
AcDbEntity
  8
脚
 62
     7
370
    25
100
AcDbLine
 10
-6935.703330440782
 20
1866.292102415262
 30
0.0
 11
-6935.703330440782
 21
2236.292793016006
 31
0.0
  0
LINE
  5
23317
330
A
100
AcDbEntity
  8
天板
 62
     7
370
    50
100
AcDbLine
 10
-6505.70333044078
 20
3328.421581219057
 30
0.0
 11
-6935.703330440782
 21
3328.421581219057
 31
0.0
  0
LINE
  5
23318
330
A
100
AcDbEntity
  8
天板
 62
     7
370
    50
100
AcDbLine
 10
-6505.70333044078
 20
3313.421581219059
 30
0.0
 11
-6935.703330440782
 21
3313.421581219059
 31
0.0
  0
LINE
  5
23319
330
A
100
AcDbEntity
  8
天板
 62
     7
370
    50
100
AcDbLine
 10
-6935.703330440782
 20
2728.421581219058
 30
0.0
 11
-6505.70333044078
 21
2728.421581219058
 31
0.0
  0
LINE
  5
2331A
330
A
100
AcDbEntity
  8
天板
 62
     7
370
    50
100
AcDbLine
 10
-6935.703330440782
 20
2743.421581219057
 30
0.0
 11
-6505.70333044078
 21
2743.421581219057
 31
0.0
  0
LINE
  5
2331B
330
A
100
AcDbEntity
  8
貫
 62
     7
370
    25
100
AcDbLine
 10
-6956.703330440781
 20
2246.292099869208
 30
0.0
 11
-6054.703330440784
 21
2246.292099869208
 31
0.0
  0
LINE
  5
2331C
330
A
100
AcDbEntity
  8
貫
 62
     7
370
    25
100
AcDbLine
 10
-6505.70333044078
 20
2246.292099869208
 30
0.0
 11
-6054.703330440783
 21
2246.292099869208
 31
0.0
  0
LINE
  5
2331D
330
A
100
AcDbEntity
  8
貫
 62
     7
370
    50
100
AcDbLine
 10
-6956.703330440781
 20
2236.292101142234
 30
0.0
 11
-6054.703330440785
 21
2236.292101142234
 31
0.0
  0
LINE
  5
2331E
330
A
100
AcDbEntity
  8
天板
 62
     7
370
    50
100
AcDbLine
 10
-6943.20333044078
 20
2331.492102415258
 30
0.0
 11
-6070.703330440782
 21
2331.492102415258
 31
0.0
  0
LINE
  5
2331F
330
A
100
AcDbEntity
  8
天板
 62
     7
370
    50
100
AcDbLine
 10
-6070.703330440782
 20
2331.292102415258
 30
0.0
 11
-6068.203330440781
 21
2331.292102415258
 31
0.0
  0
LINE
  5
23320
330
A
100
AcDbEntity
  8
貫
 62
     7
370
    50
100
AcDbLine
 10
-6956.703330440781
 20
2306.292102415258
 30
0.0
 11
-6505.70333044078
 21
2306.292102415258
 31
0.0
  0
LINE
  5
23321
330
A
100
AcDbEntity
  8
貫
  6
STYLE_05
 62
     7
370
    13
100
AcDbLine
 10
-5443.248294270732
 20
2246.292793016336
 30
0.0
 11
-5428.248294270733
 21
2246.292793016007
 31
0.0
  0
LINE
  5
23322
330
A
100
AcDbEntity
  8
貫
  6
Continuous
 62
     7
370
    13
100
AcDbLine
 10
-5428.248294270733
 20
2246.292793016007
 30
0.0
 11
-4966.161172754733
 21
2246.292793005848
 31
0.0
  0
LINE
  5
23323
330
A
100
AcDbEntity
  8
天板
 62
     7
370
    50
100
AcDbLine
 10
-5438.248294270734
 20
2331.292102415258
 30
0.0
 11
-4910.748294270734
 21
2331.292102415258
 31
0.0
  0
LINE
  5
23324
330
A
100
AcDbEntity
  8
天板
 62
     7
370
    50
100
AcDbLine
 10
-5485.748294296129
 20
2306.292103608843
 30
0.0
 11
-5474.898928688954
 21
2306.292103586801
 31
0.0
  0
LINE
  5
23325
102
{ACAD_REACTORS
330
23302
102
}
330
A
100
AcDbEntity
  8
天板
  6
STYLE_05
 62
     7
 48
3.0
370
    25
100
AcDbLine
 10
-5474.898928688954
 20
2306.292103586801
 30
0.0
 11
-5431.597659801721
 21
2306.292103498829
 31
0.0
  0
LINE
  5
23326
102
{ACAD_REACTORS
330
232E6
102
}
330
A
100
AcDbEntity
  8
天板
 62
     7
370
    50
100
AcDbLine
 10
-5431.597659801721
 20
2306.292103498829
 30
0.0
 11
-4910.748294296129
 21
2306.292102440654
 31
0.0
  0
LINE
  5
23327
102
{ACAD_REACTORS
330
23302
102
}
330
A
100
AcDbEntity
  8
貫
  6
STYLE_05
 62
     7
 48
3.0
370
    25
100
AcDbLine
 10
-5453.24829429105
 20
2236.292103542815
 30
0.0
 11
-5443.248294271246
 21
2236.292103522499
 31
0.0
  0
LINE
  5
23328
330
A
100
AcDbEntity
  8
貫
  6
STYLE_05
 62
     7
 48
3.0
370
    25
100
AcDbLine
 10
-5443.248294271246
 20
2236.292103522499
 30
0.0
 11
-5428.248294270733
 21
2236.292103492024
 31
0.0
  0
LINE
  5
23329
330
A
100
AcDbEntity
  8
貫
  6
Continuous
 62
     7
 48
3.0
370
    50
100
AcDbLine
 10
-5428.248294270733
 20
2236.292103492024
 30
0.0
 11
-4966.161172754733
 21
2236.292102553234
 31
0.0
  0
CIRCLE
  5
2332A
102
{ACAD_REACTORS
330
2332D
102
}
330
A
100
AcDbEntity
  8
木ネジ、ダボ
 62
     7
370
    25
100
AcDbCircle
 10
-6966.703330440781
 20
2291.292101778746
 30
0.0
 40
4.0
  0
ARC
  5
2332B
102
{ACAD_REACTORS
330
23302
102
}
330
A
100
AcDbEntity
  8
貫
  6
STYLE_05
 62
     7
 48
3.0
370
    25
100
AcDbCircle
 10
-5453.248294270734
 20
2246.292103542815
 30
0.0
 40
10.0
100
AcDbArc
 50
180.0
 51
269.9999998835858
  0
CIRCLE
  5
2332C
102
{ACAD_REACTORS
330
2332D
102
}
330
A
100
AcDbEntity
  8
木ネジ、ダボ
 62
     7
370
    25
100
AcDbCircle
 10
-6966.703330440781
 20
2261.292101778746
 30
0.0
 40
4.0
  0
HATCH
  5
2332D
330
A
100
AcDbEntity
  8
木ネジ、ダボ
 62
     7
370
    25
100
AcDbHatch
 10
0.0
 20
0.0
 30
0.0
210
0.0
220
0.0
230
1.0
  2
ANSI31
 70
     0
 71
     1
 91
        2
 92
        7
 72
     1
 73
     1
 93
        2
 10
-6962.703330440781
 20
2291.292101778746
 42
1.0
 10
-6970.703330440781
 20
2291.292101778746
 42
1.0
 97
        1
330
2332A
 92
        7
 72
     1
 73
     1
 93
        2
 10
-6962.703330440781
 20
2261.292101778746
 42
1.0
 10
-6970.703330440781
 20
2261.292101778746
 42
1.0
 97
        1
330
2332C
 75
     0
 76
     1
 52
0.0
 41
1.0
 77
     0
 78
     1
 53
134.9999999999978
 43
-19361.69714916859
 44
216.0142565125102
 45
2.245064030267374
 46
2.245064030267201
 79
     0
 47
0.442748012474673
 98
        2
 10
-6964.677050852016
 20
2291.189484040136
 10
-6966.449069063377
 20
2261.525368102205
1001
ACAD
1010
0.0
1020
0.0
1030
0.0
  0
LINE
  5
2332E
330
A
100
AcDbEntity
  8
天板
 62
     7
370
    50
100
AcDbLine
 10
-6943.20333044078
 20
2306.292102415258
 30
0.0
 11
-6068.203330440781
 21
2306.292102415258
 31
0.0
  0
INSERT
  5
2332F
330
A
100
AcDbEntity
  8
ボルト
 62
     7
370
    25
100
AcDbBlockReference
  2
A$C153C7E87
 10
-6917.203346827277
 20
2284.792100434073
 30
0.0
  0
CIRCLE
  5
23330
330
A
100
AcDbEntity
  8
貫
 62
     7
370
    50
100
AcDbCircle
 10
-6910.703330440782
 20
2291.292101778746
 30
0.0
 40
7.0
  0
INSERT
  5
23331
330
A
100
AcDbEntity
  8
ボルト
 62
     7
370
    25
100
AcDbBlockReference
  2
A$C153C7E87
 10
-6917.203346827277
 20
2254.792100434073
 30
0.0
  0
CIRCLE
  5
23332
330
A
100
AcDbEntity
  8
貫
 62
     7
370
    50
100
AcDbCircle
 10
-6910.703330440782
 20
2261.292101778746
 30
0.0
 40
7.0
  0
INSERT
  5
23333
330
A
100
AcDbEntity
  8
天板
 62
     7
370
    25
100
AcDbBlockReference
  2
A$C41BB26E9
 10
-5463.8482968189
 20
2284.79210151892
 30
0.0
  0
LWPOLYLINE
  5
23334
102
{ACAD_REACTORS
330
23302
102
}
330
A
100
AcDbEntity
  8
貫
  6
STYLE_05
 62
     7
 48
3.0
370
    25
100
AcDbPolyline
 90
        4
 70
     1
 43
0.0
 10
-5459.248294270734
 20
2298.292101778747
 10
-5459.248294270734
 20
2284.292101778747
 10
-5463.248294270734
 20
2284.292101778747
 10
-5463.248294270734
 20
2298.292101778747
  0
LWPOLYLINE
  5
23335
102
{ACAD_REACTORS
330
23302
102
}
330
A
100
AcDbEntity
  8
貫
  6
STYLE_05
 62
     7
 48
3.0
370
    25
100
AcDbPolyline
 90
        4
 70
     1
 43
0.0
 10
-5443.248294270734
 20
2295.292101778747
 10
-5443.248294270734
 20
2287.292101778747
 10
-5459.248294270734
 20
2287.292101778747
 10
-5459.248294270734
 20
2295.292101778747
  0
LWPOLYLINE
  5
23336
330
A
100
AcDbEntity
  8
貫
  6
STYLE_05
 62
     7
 48
3.0
370
    25
100
AcDbPolyline
 90
        4
 70
     1
 43
0.0
 10
-5408.248294270734
 20
2295.292101778747
 10
-5408.248294270734
 20
2287.292101778747
 10
-5443.248294270734
 20
2287.292101778747
 10
-5443.248294270734
 20
2295.292101778747
  0
CIRCLE
  5
23337
330
A
100
AcDbEntity
  8
ナット
 62
     7
370
    25
100
AcDbCircle
 10
-5418.248294270735
 20
2291.292101778746
 30
0.0
 40
5.0
  0
CIRCLE
  5
23338
330
A
100
AcDbEntity
  8
貫
  6
STYLE_05
 62
     7
 48
3.0
370
    25
100
AcDbCircle
 10
-5418.248294270735
 20
2291.292101778746
 30
0.0
 40
5.25
  0
INSERT
  5
23339
330
A
100
AcDbEntity
  8
天板
 62
     7
370
    25
100
AcDbBlockReference
  2
A$C41BB26E9
 10
-5463.8482968189
 20
2254.79210151892
 30
0.0
  0
LWPOLYLINE
  5
2333A
102
{ACAD_REACTORS
330
23302
102
}
330
A
100
AcDbEntity
  8
貫
  6
STYLE_05
 62
     7
 48
3.0
370
    25
100
AcDbPolyline
 90
        4
 70
     1
 43
0.0
 10
-5459.248294270734
 20
2268.292101778746
 10
-5459.248294270734
 20
2254.292101778746
 10
-5463.248294270734
 20
2254.292101778746
 10
-5463.248294270734
 20
2268.292101778746
  0
LWPOLYLINE
  5
2333B
102
{ACAD_REACTORS
330
23302
102
}
330
A
100
AcDbEntity
  8
貫
  6
STYLE_05
 62
     7
 48
3.0
370
    25
100
AcDbPolyline
 90
        4
 70
     1
 43
0.0
 10
-5443.248294270734
 20
2265.292101778746
 10
-5443.248294270734
 20
2257.292101778746
 10
-5459.248294270734
 20
2257.292101778746
 10
-5459.248294270734
 20
2265.292101778746
  0
LWPOLYLINE
  5
2333C
330
A
100
AcDbEntity
  8
貫
  6
STYLE_05
 62
     7
 48
3.0
370
    25
100
AcDbPolyline
 90
        4
 70
     1
 43
0.0
 10
-5408.248294270734
 20
2265.292101778746
 10
-5408.248294270734
 20
2257.292101778746
 10
-5443.248294270734
 20
2257.292101778746
 10
-5443.248294270734
 20
2265.292101778746
  0
CIRCLE
  5
2333D
330
A
100
AcDbEntity
  8
ナット
 62
     7
370
    25
100
AcDbCircle
 10
-5418.248294270735
 20
2261.292101778746
 30
0.0
 40
5.0
  0
CIRCLE
  5
2333E
330
A
100
AcDbEntity
  8
貫
  6
STYLE_05
 62
     7
 48
3.0
370
    25
100
AcDbCircle
 10
-5418.248294270735
 20
2261.292101778746
 30
0.0
 40
5.25
  0
LINE
  5
2333F
330
A
100
AcDbEntity
  8
天板
 62
     7
370
    50
100
AcDbLine
 10
-6070.703330440782
 20
2331.492102415258
 30
0.0
 11
-6070.703330440782
 21
2331.292102415258
 31
0.0
  0
LINE
  5
23340
330
A
100
AcDbEntity
  8
天板
 62
     7
370
    50
100
AcDbLine
 10
-6943.20333044078
 20
2331.492102415258
 30
0.0
 11
-6943.20333044078
 21
2331.292102415258
 31
0.0
  0
LINE
  5
23341
330
A
100
AcDbEntity
  8
天板
 62
     7
370
    50
100
AcDbLine
 10
-6943.20333044078
 20
2331.292102415258
 30
0.0
 11
-6070.703330440782
 21
2331.292102415258
 31
0.0
  0
ARC
  5
23352
330
A
100
AcDbEntity
  8
脚
 62
     7
370
    50
100
AcDbCircle
 10
4918.248294270732
 20
1861.292102405104
 30
0.0
 40
5.0
210
0.0
220
0.0
230
-1.0
100
AcDbArc
 50
0.0
 51
90.0
  0
LINE
  5
23353
330
A
100
AcDbEntity
  8
脚
 62
     7
370
    25
100
AcDbLine
 10
-4918.248294270732
 20
1866.292102405103
 30
0.0
 11
-4968.248294270734
 21
1866.292102405103
 31
0.0
  0
LINE
  5
23354
330
A
100
AcDbEntity
  8
脚
 62
     7
370
    50
100
AcDbLine
 10
-4963.248294270734
 20
1861.292102405104
 30
0.0
 11
-4923.248294270732
 21
1861.292102405104
 31
0.0
  0
ARC
  5
23355
330
A
100
AcDbEntity
  8
脚
 62
     7
370
    50
100
AcDbCircle
 10
-4968.248294270734
 20
1861.292102405104
 30
0.0
 40
5.0
100
AcDbArc
 50
0.0
 51
90.0
  0
ARC
  5
23356
330
A
100
AcDbEntity
  8
脚
 62
     7
370
    50
100
AcDbCircle
 10
-5478.248294270734
 20
1861.292102415262
 30
0.0
 40
5.0
100
AcDbArc
 50
0.0
 51
90.0
  0
LINE
  5
23357
330
A
100
AcDbEntity
  8
脚
 62
     7
370
    25
100
AcDbLine
 10
-5428.248294270733
 20
1866.292102415262
 30
0.0
 11
-5478.248294270734
 21
1866.292102415262
 31
0.0
  0
LINE
  5
23358
330
A
100
AcDbEntity
  8
脚
 62
     7
370
    50
100
AcDbLine
 10
-5473.248294270734
 20
1861.292102415262
 30
0.0
 11
-5433.248294270732
 21
1861.292102415262
 31
0.0
  0
ARC
  5
23359
330
A
100
AcDbEntity
  8
脚
 62
     7
370
    50
100
AcDbCircle
 10
5428.248294270733
 20
1861.292102415262
 30
0.0
 40
5.0
210
0.0
220
0.0
230
-1.0
100
AcDbArc
 50
0.0
 51
90.0
  0
LINE
  5
2335A
330
A
100
AcDbEntity
  8
脚
 62
     7
370
    25
100
AcDbLine
 10
-6995.703330440782
 20
1866.292102415261
 30
0.0
 11
-6956.703330440781
 21
1866.292102415262
 31
0.0
  0
ARC
  5
2335B
330
A
100
AcDbEntity
  8
脚
 62
     7
370
    50
100
AcDbCircle
 10
6956.703330440781
 20
1861.292102415262
 30
0.0
 40
5.0
210
0.0
220
0.0
230
-1.0
100
AcDbArc
 50
0.0
 51
90.0
  0
ARC
  5
2335C
330
A
100
AcDbEntity
  8
脚
 62
     7
370
    50
100
AcDbCircle
 10
-6996.703330440784
 20
1861.292102415262
 30
0.0
 40
5.0
100
AcDbArc
 50
0.0
 51
90.0
  0
LINE
  5
2335D
330
A
100
AcDbEntity
  8
脚
 62
     7
370
    50
100
AcDbLine
 10
-6961.703330440781
 20
1861.292102415262
 30
0.0
 11
-6991.703330440784
 21
1861.292102415262
 31
0.0
  0
LINE
  5
2335E
330
A
100
AcDbEntity
  8
脚
 62
     7
370
    25
100
AcDbLine
 10
-6890.703330440782
 20
1861.292102415262
 30
0.0
 11
-6930.703330440781
 21
1861.292102415262
 31
0.0
  0
LINE
  5
2335F
330
A
100
AcDbEntity
  8
脚
 62
     7
370
    25
100
AcDbLine
 10
-6935.703330440782
 20
1866.292102415262
 30
0.0
 11
-6885.703330440782
 21
1866.292102415262
 31
0.0
  0
ARC
  5
23360
330
A
100
AcDbEntity
  8
脚
 62
     7
370
    25
100
AcDbCircle
 10
6885.703330440782
 20
1861.292102415262
 30
0.0
 40
5.0
210
0.0
220
0.0
230
-1.0
100
AcDbArc
 50
0.0
 51
90.0
  0
ARC
  5
23361
330
A
100
AcDbEntity
  8
脚
 62
     7
370
    25
100
AcDbCircle
 10
-6935.703330440782
 20
1861.292102415262
 30
0.0
 40
5.0
100
AcDbArc
 50
0.0
 51
90.0
  0
LINE
  5
23372
330
A
100
AcDbEntity
  8
貫
 62
     7
370
    50
100
AcDbLine
 10
-6955.703330440781
 20
2783.421581219057
 30
0.0
 11
-6956.70333044078
 21
2783.421581219057
 31
0.0
  0
LINE
  5
23373
330
A
100
AcDbEntity
  8
貫
 62
     7
370
    50
100
AcDbLine
 10
-6955.703330440781
 20
2763.421581219058
 30
0.0
 11
-6956.70333044078
 21
2763.421581219058
 31
0.0
  0
INSERT
  5
23378
330
A
100
AcDbEntity
  8
寸法
 62
     7
100
AcDbBlockReference
  2
A$C73231E16
 10
-6981.703330440781
 20
1859.292106414844
 30
0.0
  0
INSERT
  5
23379
330
A
100
AcDbEntity
  8
寸法
 62
     7
100
AcDbBlockReference
  2
A$C73231E16
 10
-6915.703330440782
 20
1859.292106414844
 30
0.0
  0
INSERT
  5
23382
330
A
100
AcDbEntity
  8
寸法
 62
     7
100
AcDbBlockReference
  2
A$C73231E16
 10
-5448.248294270734
 20
1859.292106414844
 30
0.0
 41
-1.0
  0
LINE
  5
23383
330
A
100
AcDbEntity
  8
木ネジ・ダボ
 62
     7
100
AcDbLine
 10
-5454.248294270733
 20
1861.292102415262
 30
0.0
 11
-5454.248294270733
 21
1871.292102415262
 31
0.0
  0
LINE
  5
23384
330
A
100
AcDbEntity
  8
木ネジ・ダボ
 62
     7
100
AcDbLine
 10
-5452.248294270734
 20
1861.292102415262
 30
0.0
 11
-5452.248294270734
 21
1871.292102415262
 31
0.0
  0
LINE
  5
23385
330
A
100
AcDbEntity
  8
木ネジ・ダボ
 62
     7
100
AcDbLine
 10
-5452.248294270734
 20
1871.292102415262
 30
0.0
 11
-5454.248294270733
 21
1871.292102415262
 31
0.0
  0
INSERT
  5
2338E
330
A
100
AcDbEntity
  8
寸法
 62
     7
100
AcDbBlockReference
  2
A$C73231E16
 10
-4938.248294270731
 20
1859.292106404687
 30
0.0
 41
-1.0
  0
LINE
  5
2338F
330
A
100
AcDbEntity
  8
木ネジ・ダボ
 62
     7
100
AcDbLine
 10
-4944.248294270732
 20
1861.292102405104
 30
0.0
 11
-4944.248294270732
 21
1871.292102405103
 31
0.0
  0
LINE
  5
23390
330
A
100
AcDbEntity
  8
木ネジ・ダボ
 62
     7
100
AcDbLine
 10
-4942.248294270732
 20
1861.292102405104
 30
0.0
 11
-4942.248294270732
 21
1871.292102405103
 31
0.0
  0
LINE
  5
23391
330
A
100
AcDbEntity
  8
木ネジ・ダボ
 62
     7
100
AcDbLine
 10
-4942.248294270732
 20
1871.292102405103
 30
0.0
 11
-4944.248294270732
 21
1871.292102405103
 31
0.0
  0
ARC
  5
23392
330
A
100
AcDbEntity
  8
天板
 62
     7
370
    50
100
AcDbCircle
 10
-6075.703330440781
 20
3308.421581219057
 30
0.0
 40
20.0
100
AcDbArc
 50
0.0
 51
90.0
  0
ARC
  5
23393
330
A
100
AcDbEntity
  8
天板
 62
     7
370
    50
100
AcDbCircle
 10
-6075.703330440781
 20
3308.421581219057
 30
0.0
 40
5.0
100
AcDbArc
 50
0.0
 51
90.0
  0
LINE
  5
23394
330
A
100
AcDbEntity
  8
天板
 62
     7
370
    25
100
AcDbLine
 10
-6072.167796534849
 20
3311.95711512499
 30
0.0
 11
-6061.56119481705
 21
3322.563716842789
 31
0.0
  0
LINE
  5
23395
330
A
100
AcDbEntity
  8
天板
 62
     7
370
    50
100
AcDbLine
 10
-6055.703330440781
 20
3308.421581219057
 30
0.0
 11
-6055.703330440781
 21
2748.421581219057
 31
0.0
  0
LINE
  5
23396
330
A
100
AcDbEntity
  8
天板
 62
     7
370
    50
100
AcDbLine
 10
-6070.703330440782
 20
3308.421581219057
 30
0.0
 11
-6070.703330440782
 21
2748.421581219057
 31
0.0
  0
LINE
  5
23397
330
A
100
AcDbEntity
  8
脚
 62
     7
370
    50
100
AcDbLine
 10
-6054.703330440783
 20
2793.421581219057
 30
0.0
 11
-6054.703330440783
 21
2753.421581219058
 31
0.0
  0
ARC
  5
23398
330
A
100
AcDbEntity
  8
脚
 62
     7
370
    50
100
AcDbCircle
 10
-6039.703330440779
 20
2773.421581219059
 30
0.0
 40
25.0
100
AcDbArc
 50
270.0000000060448
 51
90.00000049984112
  0
LINE
  5
23399
330
A
100
AcDbEntity
  8
脚
 62
     7
370
    50
100
AcDbLine
 10
-6039.703330440779
 20
2798.421581219058
 30
0.0
 11
-6049.703330440781
 21
2798.421581219058
 31
0.0
  0
ARC
  5
2339A
330
A
100
AcDbEntity
  8
脚
 62
     7
370
    50
100
AcDbCircle
 10
6049.703330440781
 20
2793.421581219057
 30
0.0
 40
5.0
210
0.0
220
0.0
230
-1.0
100
AcDbArc
 50
0.0
 51
90.0
  0
ARC
  5
2339B
330
A
100
AcDbEntity
  8
天板
 62
     7
370
    50
100
AcDbCircle
 10
-6075.703330440781
 20
2748.421581219057
 30
0.0
 40
20.0
100
AcDbArc
 50
270.0
 51
0.0
  0
ARC
  5
2339C
330
A
100
AcDbEntity
  8
天板
 62
     7
370
    50
100
AcDbCircle
 10
-6075.703330440781
 20
2748.421581219057
 30
0.0
 40
5.0
100
AcDbArc
 50
270.0
 51
0.0
  0
LINE
  5
2339D
330
A
100
AcDbEntity
  8
天板
 62
     7
370
    25
100
AcDbLine
 10
-6072.167796534849
 20
2744.886047313125
 30
0.0
 11
-6061.56119481705
 21
2734.279445595327
 31
0.0
  0
LINE
  5
2339E
330
A
100
AcDbEntity
  8
脚
 62
     7
370
    50
100
AcDbLine
 10
-6039.703330440779
 20
2748.421581219057
 30
0.0
 11
-6049.703330440781
 21
2748.421581219057
 31
0.0
  0
ARC
  5
2339F
330
A
100
AcDbEntity
  8
脚
 62
     7
370
    50
100
AcDbCircle
 10
6049.703330440781
 20
2753.421581219058
 30
0.0
 40
5.0
210
0.0
220
0.0
230
-1.0
100
AcDbArc
 50
270.0
 51
0.0
  0
LINE
  5
233A0
330
A
100
AcDbEntity
  8
天板
 62
     7
370
    50
100
AcDbLine
 10
-6505.70333044078
 20
3328.421581219057
 30
0.0
 11
-6075.703330440781
 21
3328.421581219057
 31
0.0
  0
LINE
  5
233A1
330
A
100
AcDbEntity
  8
天板
 62
     7
370
    50
100
AcDbLine
 10
-6505.70333044078
 20
3313.421581219059
 30
0.0
 11
-6075.703330440781
 21
3313.421581219059
 31
0.0
  0
LINE
  5
233A2
330
A
100
AcDbEntity
  8
天板
 62
     7
370
    50
100
AcDbLine
 10
-6075.703330440781
 20
2728.421581219058
 30
0.0
 11
-6505.70333044078
 21
2728.421581219058
 31
0.0
  0
LINE
  5
233A3
330
A
100
AcDbEntity
  8
天板
 62
     7
370
    50
100
AcDbLine
 10
-6075.703330440781
 20
2743.421581219057
 30
0.0
 11
-6505.70333044078
 21
2743.421581219057
 31
0.0
  0
LINE
  5
233A4
330
A
100
AcDbEntity
  8
貫
 62
     7
370
    50
100
AcDbLine
 10
-6055.703330440781
 20
2783.421581219057
 30
0.0
 11
-6054.703330440784
 21
2783.421581219057
 31
0.0
  0
LINE
  5
233A5
330
A
100
AcDbEntity
  8
貫
 62
     7
370
    50
100
AcDbLine
 10
-6055.703330440781
 20
2763.421581219058
 30
0.0
 11
-6054.703330440784
 21
2763.421581219058
 31
0.0
  0
LINE
  5
233A6
330
A
100
AcDbEntity
  8
脚
 62
     7
370
    50
100
AcDbLine
 10
-6014.70333044092
 20
1866.292102415083
 30
0.0
 11
-6014.703330440763
 21
2293.29210241508
 31
0.0
  0
LINE
  5
233A7
330
A
100
AcDbEntity
  8
脚
 62
     7
370
    50
100
AcDbLine
 10
-6054.703330440758
 20
2313.292102415094
 30
0.0
 11
-6054.703330440923
 21
1866.292102415098
 31
0.0
  0
LINE
  5
233AB
330
A
100
AcDbEntity
  8
脚
 62
     7
370
    50
100
AcDbLine
 10
-6055.703330440756
 20
2318.292102415095
 30
0.0
 11
-6055.703330440756
 21
2318.292102415095
 31
0.0
  0
ARC
  5
233AC
330
A
100
AcDbEntity
  8
脚
 62
     7
370
    50
100
AcDbCircle
 10
-6039.703330440763
 20
2293.292102415088
 30
0.0
 40
25.0
100
AcDbArc
 50
359.9999999999789
 51
90.0
  0
LINE
  5
233AD
330
A
100
AcDbEntity
  8
脚
 62
     7
370
    50
100
AcDbLine
 10
-6039.703330440755
 20
2318.292102415089
 30
0.0
 11
-6049.703330440756
 21
2318.292102415092
 31
0.0
  0
ARC
  5
233AE
330
A
100
AcDbEntity
  8
脚
 62
     7
370
    50
100
AcDbCircle
 10
6049.703330440758
 20
2313.292102415092
 30
0.0
 40
5.0
210
0.0
220
0.0
230
-1.0
100
AcDbArc
 50
0.0000000000211698
 51
90.0
  0
LINE
  5
233B1
330
A
100
AcDbEntity
  8
脚
 62
     7
370
    25
100
AcDbLine
 10
-6125.70333044092
 20
1866.292102415123
 30
0.0
 11
-6125.703330440788
 21
2236.292793015868
 31
0.0
  0
LINE
  5
233B2
330
A
100
AcDbEntity
  8
脚
 62
     7
370
    25
100
AcDbLine
 10
-6075.703330440923
 20
1866.292102415105
 30
0.0
 11
-6075.703330440788
 21
2236.29279301585
 31
0.0
  0
CIRCLE
  5
233B6
102
{ACAD_REACTORS
330
233B8
102
}
330
A
100
AcDbEntity
  8
木ネジ、ダボ
 62
     7
370
    25
100
AcDbCircle
 10
-6044.703330440767
 20
2291.292101778578
 30
0.0
 40
4.0
  0
CIRCLE
  5
233B7
102
{ACAD_REACTORS
330
233B8
102
}
330
A
100
AcDbEntity
  8
木ネジ、ダボ
 62
     7
370
    25
100
AcDbCircle
 10
-6044.703330440778
 20
2261.292101778578
 30
0.0
 40
4.0
  0
HATCH
  5
233B8
330
A
100
AcDbEntity
  8
木ネジ、ダボ
 62
     7
370
    25
100
AcDbHatch
 10
0.0
 20
0.0
 30
0.0
210
0.0
220
0.0
230
1.0
  2
ANSI31
 70
     0
 71
     1
 91
        2
 92
        7
 72
     1
 73
     1
 93
        2
 10
-6040.703330440766
 20
2291.292101778578
 42
1.0
 10
-6048.703330440766
 20
2291.292101778578
 42
1.0
 97
        1
330
233B6
 92
        7
 72
     1
 73
     1
 93
        2
 10
-6040.703330440777
 20
2261.292101778578
 42
1.0
 10
-6048.703330440778
 20
2261.292101778578
 42
1.0
 97
        1
330
233B7
 75
     0
 76
     1
 52
0.0
 41
1.0
 77
     0
 78
     1
 53
44.99999999998134
 43
6350.290488286294
 44
216.0142565078333
 45
-2.245064030266556
 46
2.245064030268018
 79
     0
 47
0.442748012474673
 98
        2
 10
-6046.729610029531
 20
2291.18948403997
 10
-6044.957591818183
 20
2261.525368102037
1001
ACAD
1010
0.0
1020
0.0
1030
0.0
  0
INSERT
  5
233B9
330
A
100
AcDbEntity
  8
ボルト
 62
     7
370
    25
100
AcDbBlockReference
  2
A$C153C7E87
 10
-6094.203314054272
 20
2284.792100433924
 30
0.0
 41
-1.0
 50
359.9999999999789
  0
CIRCLE
  5
233BA
330
A
100
AcDbEntity
  8
貫
 62
     7
370
    50
100
AcDbCircle
 10
-6100.703330440767
 20
2291.292101778599
 30
0.0
 40
7.0
  0
INSERT
  5
233BB
330
A
100
AcDbEntity
  8
ボルト
 62
     7
370
    25
100
AcDbBlockReference
  2
A$C153C7E87
 10
-6094.203314054283
 20
2254.792100433924
 30
0.0
 41
-1.0
 50
359.9999999999789
  0
CIRCLE
  5
233BC
330
A
100
AcDbEntity
  8
貫
 62
     7
370
    50
100
AcDbCircle
 10
-6100.703330440778
 20
2261.292101778599
 30
0.0
 40
7.0
  0
LINE
  5
233BD
330
A
100
AcDbEntity
  8
天板
 62
     7
370
    50
100
AcDbLine
 10
-6068.203330440752
 20
2331.492102415099
 30
0.0
 11
-6068.203330440752
 21
2331.292102415099
 31
0.0
  0
LINE
  5
233C6
330
A
100
AcDbEntity
  8
脚
 62
     7
370
    25
100
AcDbLine
 10
-6015.703330440915
 20
1866.292102415083
 30
0.0
 11
-6054.703330440919
 21
1866.292102415098
 31
0.0
  0
ARC
  5
233C7
330
A
100
AcDbEntity
  8
脚
 62
     7
370
    50
100
AcDbCircle
 10
6054.703330440919
 20
1861.292102415097
 30
0.0
 40
5.0
210
0.0
220
0.0
230
-1.0
100
AcDbArc
 50
90.0
 51
180.0000000000212
  0
ARC
  5
233C8
330
A
100
AcDbEntity
  8
脚
 62
     7
370
    50
100
AcDbCircle
 10
-6014.703330440918
 20
1861.292102415083
 30
0.0
 40
5.0
100
AcDbArc
 50
90.0
 51
179.9999999999788
  0
LINE
  5
233C9
330
A
100
AcDbEntity
  8
脚
 62
     7
370
    50
100
AcDbLine
 10
-6049.70333044092
 20
1861.292102415096
 30
0.0
 11
-6019.703330440918
 21
1861.292102415084
 31
0.0
  0
LINE
  5
233CA
330
A
100
AcDbEntity
  8
脚
 62
     7
370
    25
100
AcDbLine
 10
-6120.703330440921
 20
1861.292102415122
 30
0.0
 11
-6080.703330440918
 21
1861.292102415107
 31
0.0
  0
LINE
  5
233CB
330
A
100
AcDbEntity
  8
脚
 62
     7
370
    25
100
AcDbLine
 10
-6075.703330440918
 20
1866.292102415105
 30
0.0
 11
-6125.703330440916
 21
1866.292102415123
 31
0.0
  0
ARC
  5
233CC
330
A
100
AcDbEntity
  8
脚
 62
     7
370
    25
100
AcDbCircle
 10
6125.70333044092
 20
1861.292102415123
 30
0.0
 40
5.0
210
0.0
220
0.0
230
-1.0
100
AcDbArc
 50
90.0
 51
180.0000000000212
  0
ARC
  5
233CD
330
A
100
AcDbEntity
  8
脚
 62
     7
370
    25
100
AcDbCircle
 10
-6075.703330440919
 20
1861.292102415105
 30
0.0
 40
5.0
100
AcDbArc
 50
90.0
 51
179.9999999999788
  0
INSERT
  5
233DA
330
A
100
AcDbEntity
  8
寸法
 62
     7
100
AcDbBlockReference
  2
A$C73231E16
 10
-6029.70333044092
 20
1859.292106414672
 30
0.0
 41
-1.0
 50
359.9999999999789
  0
INSERT
  5
233DB
330
A
100
AcDbEntity
  8
寸法
 62
     7
100
AcDbBlockReference
  2
A$C73231E16
 10
-6095.703330440921
 20
1859.292106414695
 30
0.0
 41
-1.0
 50
359.9999999999789
  0
VIEWPORT
  5
23162
330
2315B
100
AcDbEntity
 67
     1
  8
0
370
     5
100
AcDbViewport
 10
128.5
 20
97.5
 30
0.0
 40
428.26
 41
222.18
 68
     1
 69
     1
 12
128.5
 22
97.5
 13
0.0
 23
0.0
 14
10.0
 24
10.0
 15
10.0
 25
10.0
 16
0.0
 26
0.0
 36
1.0
 17
0.0
 27
0.0
 37
0.0
 42
50.0
 43
0.0
 44
0.0
 45
222.18
 50
0.0
 51
0.0
 72
  2000
 90
   819232
  1

281
     0
 71
     1
 74
     0
110
0.0
120
0.0
130
0.0
111
1.0
121
0.0
131
0.0
112
0.0
122
1.0
132
0.0
 79
     0
146
0.0
170
     0
 61
     5
348
977
292
     1
282
     1
141
0.0
142
0.0
 63
   250
421
  3355443
  0
ENDSEC
  0
SECTION
  2
OBJECTS
  0
DICTIONARY
  5
19
330
0
100
AcDbDictionary
281
     1
  3
ACAD_BGPLOT_KEY
350
1108E
  3
ACAD_COLOR
350
982
  3
ACAD_GROUP
350
1A
  3
ACAD_LAYOUT
350
1E
  3
ACAD_MATERIAL
350
96D
  3
ACAD_MLINESTYLE
350
1B
  3
ACAD_PLOTSETTINGS
350
22
  3
ACAD_PLOTSTYLENAME
350
1F
  3
ACAD_TABLESTYLE
350
983
  3
ACAD_VISUALSTYLE
350
971
  3
ACAD_WIPEOUT_VARS
350
23
  3
AcDbVariableDictionary
350
98E
  3
ASE_INDEX_DICTIONARY
350
1F730
  0
DICTIONARY
  5
3A0F
330
7
100
AcDbDictionary
280
     1
281
     1
  0
DICTIONARY
  5
C1E
330
2
100
AcDbDictionary
280
     1
281
     1
  3
ACAD_LAYERFILTERS
360
2006D
  3
ACAD_LAYERSTATES
360
C1F
  3
ACLYDICTIONARY
360
2006C
  0
DICTIONARY
  5
9CE
330
A
100
AcDbDictionary
280
     1
281
     1
  3
ACAD_SORTENTS
360
9CF
  0
DICTIONARY
  5
20D11
330
20BD7
100
AcDbDictionary
280
     1
281
     1
  3
ACAD_SORTENTS
360
20F8B
  0
DICTIONARY
  5
20FBF
330
20FB6
100
AcDbDictionary
280
     1
281
     1
  3
ACAD_SORTENTS
360
20FC0
  0
DICTIONARY
  5
230A4
330
230A3
100
AcDbDictionary
280
     1
281
     1
  3
ACAD_SORTENTS
360
230A5
  0
DICTIONARY
  5
1108E
102
{ACAD_REACTORS
330
19
102
}
330
19
100
AcDbDictionary
280
     1
281
     1
  0
DICTIONARY
  5
982
102
{ACAD_REACTORS
330
19
102
}
330
19
100
AcDbDictionary
281
     1
  0
DICTIONARY
  5
1A
102
{ACAD_REACTORS
330
19
102
}
330
19
100
AcDbDictionary
281
     1
  0
DICTIONARY
  5
1E
102
{ACAD_REACTORS
330
19
102
}
330
19
100
AcDbDictionary
281
     1
  3
Model
350
20
  3
レイアウト1
350
2315C
  0
DICTIONARY
  5
96D
102
{ACAD_REACTORS
330
19
102
}
330
19
100
AcDbDictionary
281
     1
  3
ByBlock
350
96F
  3
ByLayer
350
96E
  3
Global
350
970
  0
DICTIONARY
  5
1B
102
{ACAD_REACTORS
330
19
102
}
330
19
100
AcDbDictionary
281
     1
  3
Standard
350
1C
  0
DICTIONARY
  5
22
102
{ACAD_REACTORS
330
19
102
}
330
19
100
AcDbDictionary
281
     1
  0
ACDBDICTIONARYWDFLT
  5
1F
102
{ACAD_REACTORS
330
19
102
}
330
19
100
AcDbDictionary
281
     1
  3
Normal
350
1D
100
AcDbDictionaryWithDefault
340
1D
  0
DICTIONARY
  5
983
102
{ACAD_REACTORS
330
19
102
}
330
19
100
AcDbDictionary
281
     1
  3
Standard
350
984
  0
DICTIONARY
  5
971
102
{ACAD_REACTORS
330
19
102
}
330
19
100
AcDbDictionary
281
     1
  3
2dWireframe
350
977
  3
3D Hidden
350
979
  3
3dWireframe
350
978
  3
Basic
350
976
  3
Brighten
350
97D
  3
ColorChange
350
981
  3
Conceptual
350
97A
  3
Dim
350
97C
  3
Facepattern
350
980
  3
Flat
350
972
  3
FlatWithEdges
350
973
  3
Gouraud
350
974
  3
GouraudWithEdges
350
975
  3
Linepattern
350
97F
  3
Realistic
350
97B
  3
Thicken
350
97E
  0
WIPEOUTVARIABLES
  5
23
330
19
100
AcDbWipeoutVariables
 70
     0
  0
DICTIONARY
  5
98E
102
{ACAD_REACTORS
330
19
102
}
330
19
100
AcDbDictionary
281
     1
  3
CTABLESTYLE
350
98F
  3
FIELDEVAL
350
1108F
  0
DICTIONARY
  5
1F730
102
{ACAD_REACTORS
330
19
102
}
330
19
100
AcDbDictionary
281
     1
  3
ASEBlockHierarchyIndexRecord
350
1F731
1001
DCO15
1040
1970653046.444
  0
DICTIONARY
  5
2006D
102
{ACAD_REACTORS
330
C1E
102
}
330
C1E
100
AcDbDictionary
281
     1
  0
DICTIONARY
  5
C1F
102
{ACAD_REACTORS
330
C1E
102
}
330
C1E
100
AcDbDictionary
281
     1
  0
DICTIONARY
  5
2006C
102
{ACAD_REACTORS
330
C1E
102
}
330
C1E
100
AcDbDictionary
281
     1
1001
ACAD
1000
<All
  0
SORTENTSTABLE
  5
9CF
102
{ACAD_REACTORS
330
9CE
102
}
330
9CE
100
AcDbSortentsTable
330
A
331
1FC37
  5
1FC46
331
2101D
  5
201E8
331
20082
  5
20216
331
1FC40
  5
1FC50
331
1FBDE
  5
1FC02
331
21008
  5
21219
331
1FC3B
  5
1FC4C
331
1FBD1
  5
1FBDA
331
2101E
  5
201E9
331
1FBDF
  5
1FC0F
331
21009
  5
2121A
331
1FC3C
  5
1FC4D
331
1FBD2
  5
1FBDD
331
1FC4A
  5
1FC5C
331
20FC3
  5
21019
331
20FFD
  5
2111D
331
1FBE0
  5
1FC10
331
2100A
  5
2121B
331
1FC4B
  5
1FC5D
331
22359
  5
1FC1A
331
1FBD3
  5
1FBDE
331
1FC0F
  5
1FC1B
331
1FBE1
  5
1FC15
331
1FC3E
  5
1FC4F
331
1FBD4
  5
1FBDF
331
1FC4C
  5
1FC5E
331
20FFF
  5
21123
331
1FC80
  5
200B7
331
1FC5A
  5
1FC73
331
1FC10
  5
1FC1C
331
1FBE2
  5
1FC16
331
1FC4D
  5
1FC5F
331
1FBD5
  5
1FBE0
331
21000
  5
21124
331
1FC81
  5
200B9
331
1FC11
  5
1FC1F
331
1FC5B
  5
1FC74
331
1FC4E
  5
1FC60
331
20FC7
  5
2101A
331
21001
  5
21125
331
1FC82
  5
201BE
331
1FC5C
  5
1FC75
331
1FC30
  5
1FC3D
331
20571
  5
1FC85
331
2007B
  5
200B8
331
1FC4F
  5
1FC61
331
1FBB2
  5
1FBB6
331
20FC8
  5
2101B
331
1FC31
  5
1FC3E
331
1FC83
  5
201DE
331
1FC50
  5
1FC62
331
20572
  5
1FC87
331
1FC01
  5
1FC17
331
1FBB3
  5
1FBB7
331
20FC9
  5
2101C
331
21003
  5
21126
331
21018
  5
201EA
331
1FC84
  5
201E1
331
1FC32
  5
1FC3F
331
1FC77
  5
2007E
331
1FC51
  5
1FC63
331
1FC02
  5
1FC18
331
1FBB4
  5
1FBB8
331
21218
  5
201DD
331
1FC18
  5
1FC23
331
21004
  5
21215
331
1FC33
  5
1FC40
331
1FC15
  5
1FC20
331
21019
  5
201ED
331
1FC78
  5
20082
331
1FC52
  5
1FC65
331
1FBDA
  5
1FBE2
331
21346
  5
21367
331
1FC19
  5
1FC24
331
21219
  5
212E6
331
21005
  5
21216
331
2101A
  5
201EB
331
1FC60
  5
1FC77
331
1FC34
  5
1FC41
331
1FC16
  5
1FC21
331
1FC53
  5
1FC66
331
21347
  5
21368
331
1FC27
  5
1FC34
331
1FC1A
  5
1FC26
331
1FC38
  5
1FC47
331
21006
  5
21217
331
2101B
  5
201EC
331
1FC61
  5
1FC78
331
1FC35
  5
1FC43
331
1FC17
  5
1FC22
331
1FC87
  5
201E6
331
1FC54
  5
1FC6C
331
1FC28
  5
1FC36
331
1FC39
  5
1FC4A
331
1FC1B
  5
1FC27
331
21007
  5
21218
331
2101C
  5
201E5
331
1FC88
  5
201E7
331
1FC62
  5
1FC79
331
1FC36
  5
1FC45
331
1FC55
  5
1FC6D
331
225DF
  5
1FC4E
331
1FC29
  5
1FC37
331
1FC1C
  5
1FC29
331
1FC3A
  5
1FC4B
  0
SORTENTSTABLE
  5
20F8B
102
{ACAD_REACTORS
330
20D11
102
}
330
20D11
100
AcDbSortentsTable
330
20BD7
  0
SORTENTSTABLE
  5
20FC0
102
{ACAD_REACTORS
330
20FBF
102
}
330
20FBF
100
AcDbSortentsTable
330
20FB6
  0
SORTENTSTABLE
  5
230A5
102
{ACAD_REACTORS
330
230A4
102
}
330
230A4
100
AcDbSortentsTable
330
230A3
  0
LAYOUT
  5
20
102
{ACAD_REACTORS
330
1E
102
}
330
1E
100
AcDbPlotSettings
  1

  2
none_device
  4
ISO_A4_(210.00_x_297.00_MM)
  6

 40
7.5
 41
20.0
 42
7.5
 43
20.0
 44
210.0
 45
297.0
 46
0.0
 47
0.0
 48
0.0
 49
0.0
140
0.0
141
0.0
142
1.0
143
1.0
 70
 11264
 72
     1
 73
     1
 74
     0
  7

 75
     0
147
1.0
 76
     0
 77
     2
 78
   300
148
916.8712341080579
149
627.2450171497188
100
AcDbLayout
  1
Model
 70
     0
 71
     0
 10
0.0
 20
0.0
 11
0.0
 21
0.0
 12
0.0
 22
0.0
 32
0.0
 14
0.0
 24
0.0
 34
0.0
 15
0.0
 25
0.0
 35
0.0
146
0.0
 13
0.0
 23
0.0
 33
0.0
 16
0.0
 26
0.0
 36
0.0
 17
0.0
 27
0.0
 37
0.0
 76
     0
330
A
331
15
1001
ACAD_PSEXT
1000
なし
1000
なし
1000
適切ではありません
1000
新しいプロッタ環境設定名を選択しない限り、レイアウトは印刷されません。
1070
     0
  0
LAYOUT
  5
2315C
102
{ACAD_XDICTIONARY
360
23169
102
}
102
{ACAD_REACTORS
330
1E
102
}
330
1E
100
AcDbPlotSettings
  1

  2
none_device
  4
ISO_A4_(210.00_x_297.00_MM)
  6

 40
7.5
 41
20.0
 42
7.5
 43
20.0
 44
210.0
 45
297.0
 46
0.0
 47
0.0
 48
0.0
 49
0.0
140
0.0
141
0.0
142
1.0
143
1.0
 70
   688
 72
     1
 73
     1
 74
     5
  7

 75
    16
147
1.0
 76
     0
 77
     2
 78
   300
148
0.0
149
0.0
100
AcDbLayout
  1
レイアウト1
 70
     1
 71
     1
 10
-20.0
 20
-7.5
 11
277.0
 21
202.5
 12
0.0
 22
0.0
 32
0.0
 14
25.69999999999999
 24
19.5
 34
0.0
 15
231.3
 25
175.5
 35
0.0
146
0.0
 13
0.0
 23
0.0
 33
0.0
 16
1.0
 26
0.0
 36
0.0
 17
0.0
 27
1.0
 37
0.0
 76
     0
330
2315B
331
23162
1001
ACAD_PSEXT
1000
なし
1000
なし
1000
適切ではありません
1000
新しいプロッタ環境設定名を選択しない限り、レイアウトは印刷されません。
1070
     0
  0
MATERIAL
  5
96F
102
{ACAD_REACTORS
330
96D
102
}
330
96D
100
AcDbMaterial
  1
ByBlock
  0
MATERIAL
  5
96E
102
{ACAD_REACTORS
330
96D
102
}
330
96D
100
AcDbMaterial
  1
ByLayer
  0
MATERIAL
  5
970
102
{ACAD_REACTORS
330
96D
102
}
330
96D
100
AcDbMaterial
  1
Global
  0
MLINESTYLE
  5
1C
102
{ACAD_REACTORS
330
1B
102
}
330
1B
100
AcDbMlineStyle
  2
STANDARD
 70
     0
  3

 62
     0
 51
90.0
 52
90.0
 71
     2
 49
0.5
 62
   256
  6
BYLAYER
 49
-0.5
 62
   256
  6
BYLAYER
  0
ACDBPLACEHOLDER
  5
1D
102
{ACAD_REACTORS
330
1F
102
}
330
1F
  0
TABLESTYLE
  5
984
102
{ACAD_REACTORS
330
983
102
}
330
983
100
AcDbTableStyle
  3
Standard
 70
     0
 71
     0
 40
1.5
 41
1.5
280
     0
281
     0
  7
Standard
140
4.5
170
     2
 62
     0
 63
     7
283
     0
 90
      512
 91
        0
  1

274
    -2
284
     1
 64
     0
275
    -2
285
     1
 65
     0
276
    -2
286
     1
 66
     0
277
    -2
287
     1
 67
     0
278
    -2
288
     1
 68
     0
279
    -2
289
     1
 69
     0
  7
Standard
140
6.0
170
     5
 62
     0
 63
     7
283
     0
 90
      512
 91
        0
  1

274
    -2
284
     1
 64
     0
275
    -2
285
     1
 65
     0
276
    -2
286
     1
 66
     0
277
    -2
287
     1
 67
     0
278
    -2
288
     1
 68
     0
279
    -2
289
     1
 69
     0
  7
Standard
140
4.5
170
     5
 62
     0
 63
     7
283
     0
 90
      512
 91
        0
  1

274
    -2
284
     1
 64
     0
275
    -2
285
     1
 65
     0
276
    -2
286
     1
 66
     0
277
    -2
287
     1
 67
     0
278
    -2
288
     1
 68
     0
279
    -2
289
     1
 69
     0
  0
VISUALSTYLE
  5
977
102
{ACAD_REACTORS
330
971
102
}
330
971
100
AcDbVisualStyle
  2
2dWireframe
 70
     4
 71
     0
 72
     2
 73
     0
 90
        0
 40
-0.6
 41
-30.0
 62
     5
 63
     7
421
 16777215
 74
     1
 91
        4
 64
     7
 65
   257
 75
     1
175
     1
 42
1.0
 92
        0
 66
   257
 43
1.0
 76
     1
 77
     6
 78
     2
 67
     7
 79
     5
170
     0
171
     0
290
     0
174
     0
 93
        1
 44
0.0
173
     0
291
     0
 45
0.0
  0
VISUALSTYLE
  5
979
102
{ACAD_REACTORS
330
971
102
}
330
971
100
AcDbVisualStyle
  2
3D Hidden
 70
     6
 71
     1
 72
     2
 73
     2
 90
        0
 40
-0.6
 41
-30.0
 62
     5
 63
     7
421
 16777215
 74
     2
 91
        2
 64
     7
 65
   257
 75
     2
175
     1
 42
40.0
 92
        0
 66
   257
 43
1.0
 76
     1
 77
     6
 78
     2
 67
     7
 79
     3
170
     0
171
     0
290
     0
174
     0
 93
        1
 44
0.0
173
     0
291
     0
 45
0.0
  0
VISUALSTYLE
  5
978
102
{ACAD_REACTORS
330
971
102
}
330
971
100
AcDbVisualStyle
  2
3dWireframe
 70
     5
 71
     0
 72
     2
 73
     0
 90
        0
 40
-0.6
 41
-30.0
 62
     5
 63
     7
421
 16777215
 74
     1
 91
        4
 64
     7
 65
   257
 75
     1
175
     1
 42
1.0
 92
        0
 66
   257
 43
1.0
 76
     1
 77
     6
 78
     2
 67
     7
 79
     5
170
     0
171
     0
290
     0
174
     0
 93
        1
 44
0.0
173
     0
291
     0
 45
0.0
  0
VISUALSTYLE
  5
976
102
{ACAD_REACTORS
330
971
102
}
330
971
100
AcDbVisualStyle
  2
Basic
 70
     7
 71
     1
 72
     0
 73
     1
 90
        0
 40
-0.6
 41
-30.0
 62
     5
 63
     7
421
 16777215
 74
     0
 91
        4
 64
     7
 65
   257
 75
     1
175
     1
 42
1.0
 92
        8
 66
     7
 43
1.0
 76
     1
 77
     6
 78
     2
 67
     7
 79
     5
170
     0
171
     0
290
     0
174
     0
 93
        1
 44
0.0
173
     0
291
     1
 45
0.0
  0
VISUALSTYLE
  5
97D
102
{ACAD_REACTORS
330
971
102
}
330
971
100
AcDbVisualStyle
  2
Brighten
 70
    12
 71
     2
 72
     2
 73
     0
 90
        0
 40
-0.6
 41
-30.0
 62
     5
 63
     7
421
 16777215
 74
     1
 91
        4
 64
     7
 65
   257
 75
     1
175
     1
 42
1.0
 92
        8
 66
     7
 43
1.0
 76
     1
 77
     6
 78
     2
 67
     7
 79
     5
170
     0
171
     0
290
     0
174
     0
 93
        1
 44
50.0
173
     0
291
     1
 45
0.0
  0
VISUALSTYLE
  5
981
102
{ACAD_REACTORS
330
971
102
}
330
971
100
AcDbVisualStyle
  2
ColorChange
 70
    16
 71
     2
 72
     2
 73
     3
 90
        0
 40
-0.6
 41
-30.0
 62
     5
 63
     8
421
  8421504
 74
     1
 91
        4
 64
     7
 65
   257
 75
     1
175
     1
 42
1.0
 92
        8
 66
     8
424
  8421504
 43
1.0
 76
     1
 77
     6
 78
     2
 67
     7
 79
     5
170
     0
171
     0
290
     0
174
     0
 93
        1
 44
0.0
173
     0
291
     1
 45
0.0
  0
VISUALSTYLE
  5
97A
102
{ACAD_REACTORS
330
971
102
}
330
971
100
AcDbVisualStyle
  2
Conceptual
 70
     9
 71
     3
 72
     2
 73
     0
 90
        0
 40
-0.6
 41
-30.0
 62
     5
 63
     7
421
 16777215
 74
     2
 91
        2
 64
     7
 65
   257
 75
     1
175
     1
 42
40.0
 92
        8
 66
     7
 43
1.0
 76
     1
 77
     6
 78
     2
 67
     7
 79
     3
170
     0
171
     0
290
     0
174
     0
 93
        1
 44
0.0
173
     0
291
     0
 45
0.0
  0
VISUALSTYLE
  5
97C
102
{ACAD_REACTORS
330
971
102
}
330
971
100
AcDbVisualStyle
  2
Dim
 70
    11
 71
     2
 72
     2
 73
     0
 90
        0
 40
-0.6
 41
-30.0
 62
     5
 63
     7
421
 16777215
 74
     1
 91
        4
 64
     7
 65
   257
 75
     1
175
     1
 42
1.0
 92
        8
 66
     7
 43
1.0
 76
     1
 77
     6
 78
     2
 67
     7
 79
     5
170
     0
171
     0
290
     0
174
     0
 93
        1
 44
-50.0
173
     0
291
     1
 45
0.0
  0
VISUALSTYLE
  5
980
102
{ACAD_REACTORS
330
971
102
}
330
971
100
AcDbVisualStyle
  2
Facepattern
 70
    15
 71
     2
 72
     2
 73
     0
 90
        0
 40
-0.6
 41
-30.0
 62
     5
 63
     7
421
 16777215
 74
     1
 91
        4
 64
     7
 65
   257
 75
     1
175
     1
 42
1.0
 92
        8
 66
     7
 43
1.0
 76
     1
 77
     6
 78
     2
 67
     7
 79
     5
170
     0
171
     0
290
     0
174
     0
 93
        1
 44
0.0
173
     0
291
     1
 45
0.0
  0
VISUALSTYLE
  5
972
102
{ACAD_REACTORS
330
971
102
}
330
971
100
AcDbVisualStyle
  2
Flat
 70
     0
 71
     2
 72
     1
 73
     1
 90
        2
 40
-0.6
 41
30.0
 62
     5
 63
     7
421
 16777215
 74
     0
 91
        4
 64
     7
 65
   257
 75
     1
175
     1
 42
1.0
 92
        8
 66
     7
 43
1.0
 76
     1
 77
     6
 78
     2
 67
     7
 79
     5
170
     0
171
     0
290
     0
174
     0
 93
       13
 44
0.0
173
     0
291
     1
 45
0.0
  0
VISUALSTYLE
  5
973
102
{ACAD_REACTORS
330
971
102
}
330
971
100
AcDbVisualStyle
  2
FlatWithEdges
 70
     1
 71
     2
 72
     1
 73
     1
 90
        2
 40
-0.6
 41
30.0
 62
     5
 63
     7
421
 16777215
 74
     1
 91
        4
 64
     7
 65
   257
 75
     1
175
     1
 42
1.0
 92
        0
 66
   257
 43
1.0
 76
     1
 77
     6
 78
     2
 67
     7
 79
     5
170
     0
171
     0
290
     0
174
     0
 93
       13
 44
0.0
173
     0
291
     1
 45
0.0
  0
VISUALSTYLE
  5
974
102
{ACAD_REACTORS
330
971
102
}
330
971
100
AcDbVisualStyle
  2
Gouraud
 70
     2
 71
     2
 72
     2
 73
     1
 90
        2
 40
-0.6
 41
30.0
 62
     5
 63
     7
421
 16777215
 74
     0
 91
        4
 64
     7
 65
   257
 75
     1
175
     1
 42
1.0
 92
        0
 66
     7
 43
1.0
 76
     1
 77
     6
 78
     2
 67
     7
 79
     5
170
     0
171
     0
290
     0
174
     0
 93
       13
 44
0.0
173
     0
291
     1
 45
0.0
  0
VISUALSTYLE
  5
975
102
{ACAD_REACTORS
330
971
102
}
330
971
100
AcDbVisualStyle
  2
GouraudWithEdges
 70
     3
 71
     2
 72
     2
 73
     1
 90
        2
 40
-0.6
 41
30.0
 62
     5
 63
     7
421
 16777215
 74
     1
 91
        4
 64
     7
 65
   257
 75
     1
175
     1
 42
1.0
 92
        0
 66
   257
 43
1.0
 76
     1
 77
     6
 78
     2
 67
     7
 79
     5
170
     0
171
     0
290
     0
174
     0
 93
       13
 44
0.0
173
     0
291
     1
 45
0.0
  0
VISUALSTYLE
  5
97F
102
{ACAD_REACTORS
330
971
102
}
330
971
100
AcDbVisualStyle
  2
Linepattern
 70
    14
 71
     2
 72
     2
 73
     0
 90
        0
 40
-0.6
 41
-30.0
 62
     5
 63
     7
421
 16777215
 74
     1
 91
        4
 64
     7
 65
   257
 75
     7
175
     7
 42
1.0
 92
        8
 66
     7
 43
1.0
 76
     1
 77
     6
 78
     2
 67
     7
 79
     5
170
     0
171
     0
290
     0
174
     0
 93
        1
 44
0.0
173
     0
291
     1
 45
0.0
  0
VISUALSTYLE
  5
97B
102
{ACAD_REACTORS
330
971
102
}
330
971
100
AcDbVisualStyle
  2
Realistic
 70
     8
 71
     2
 72
     2
 73
     0
 90
        0
 40
-0.6
 41
-30.0
 62
     5
 63
     7
421
 16777215
 74
     1
 91
        0
 64
     7
 65
   257
 75
     1
175
     1
 42
1.0
 92
        8
 66
     8
424
  7895160
 43
1.0
 76
     1
 77
     6
 78
     2
 67
     7
 79
     5
170
     0
171
     0
290
     0
174
     0
 93
       13
 44
0.0
173
     0
291
     0
 45
0.0
  0
VISUALSTYLE
  5
97E
102
{ACAD_REACTORS
330
971
102
}
330
971
100
AcDbVisualStyle
  2
Thicken
 70
    13
 71
     2
 72
     2
 73
     0
 90
        0
 40
-0.6
 41
-30.0
 62
     5
 63
     7
421
 16777215
 74
     1
 91
        4
 64
     7
 65
   257
 75
     1
175
     1
 42
1.0
 92
       12
 66
     7
 43
1.0
 76
     1
 77
     6
 78
     2
 67
     7
 79
     5
170
     0
171
     0
290
     0
174
     0
 93
        1
 44
0.0
173
     0
291
     1
 45
0.0
  0
DICTIONARYVAR
  5
98F
102
{ACAD_REACTORS
330
98E
102
}
330
98E
100
DictionaryVariables
280
     0
  1
STANDARD
  0
DICTIONARYVAR
  5
1108F
102
{ACAD_REACTORS
330
98E
102
}
330
98E
100
DictionaryVariables
280
     0
  1
4
  0
XRECORD
  5
1F731
102
{ACAD_REACTORS
330
1F730
102
}
330
1F730
100
AcDbXrecord
280
     1
330
233DA
330
233DB
330
20FFD
330
21005
330
20FC3
330
20FC8
330
23233
330
23229
330
2322B
330
2322D
330
23331
330
23333
330
23339
330
2319B
330
2319D
330
232B3
330
232B5
330
2332F
330
233B9
330
233BB
330
230BC
330
230C2
330
230EE
330
230FA
330
231B8
330
231BC
330
23270
330
23271
330
23278
330
23284
330
232D2
330
232D3
330
23378
330
23379
330
23382
330
2338E
330
233E9
330
233EA
  0
DICTIONARY
  5
23169
330
2315C
100
AcDbDictionary
280
     1
281
     1
  3
ADSK_XREC_LAYOUTTHUMBNAIL
360
2316A
  0
XRECORD
  5
2316A
102
{ACAD_REACTORS
330
23169
102
}
330
23169
100
AcDbXrecord
280
     1
310
28000000B40000007F00000001000800000000004C59000000000000000000000001000000000000FFFFFF0000000000FFFFFF000000000000000000000000000000000000000000000000000000000000000000330000006600000099000000CC000000FF00000000330000333300006633000099330000CC330000FF3300
310
0000660000336600006666000099660000CC660000FF66000000990000339900006699000099990000CC990000FF99000000CC000033CC000066CC000099CC0000CCCC0000FFCC000000FF000033FF000066FF000099FF0000CCFF0000FFFF000000003300330033006600330099003300CC003300FF003300003333003333
310
33006633330099333300CC333300FF33330000663300336633006666330099663300CC663300FF66330000993300339933006699330099993300CC993300FF99330000CC330033CC330066CC330099CC3300CCCC3300FFCC330000FF330033FF330066FF330099FF3300CCFF3300FFFF330000006600330066006600660099
310
006600CC006600FF00660000336600333366006633660099336600CC336600FF33660000666600336666006666660099666600CC666600FF66660000996600339966006699660099996600CC996600FF99660000CC660033CC660066CC660099CC6600CCCC6600FFCC660000FF660033FF660066FF660099FF6600CCFF6600
310
FFFF660000009900330099006600990099009900CC009900FF00990000339900333399006633990099339900CC339900FF33990000669900336699006666990099669900CC669900FF66990000999900339999006699990099999900CC999900FF99990000CC990033CC990066CC990099CC9900CCCC9900FFCC990000FF99
310
0033FF990066FF990099FF9900CCFF9900FFFF99000000CC003300CC006600CC009900CC00CC00CC00FF00CC000033CC003333CC006633CC009933CC00CC33CC00FF33CC000066CC003366CC006666CC009966CC00CC66CC00FF66CC000099CC003399CC006699CC009999CC00CC99CC00FF99CC0000CCCC0033CCCC0066CC
310
CC0099CCCC00CCCCCC00FFCCCC0000FFCC0033FFCC0066FFCC0099FFCC00CCFFCC00FFFFCC000000FF003300FF006600FF009900FF00CC00FF00FF00FF000033FF003333FF006633FF009933FF00CC33FF00FF33FF000066FF003366FF006666FF009966FF00CC66FF00FF66FF000099FF003399FF006699FF009999FF00CC
310
99FF00FF99FF0000CCFF0033CCFF0066CCFF0099CCFF00CCCCFF00FFCCFF0000FFFF0033FFFF0066FFFF0099FFFF00CCFFFF00FFFFFF00000000000D0D0D001A1A1A00282828003535350043434300505050005D5D5D006B6B6B00787878008686860093939300A1A1A100AEAEAE00BBBBBB00C9C9C900D6D6D600E4E4E400
310
F1F1F100FFFFFF0000000000000000000000000000000000000000000000000000000000000000000000000000000000E2E2E2E2E2E2E2E2E2E2E2E2E2E2E2E2E2E2E2E2E2E2E2E2E2E2E2E2E2E2E2E2E2E2E2E2E2E2E2E2E2E2E2E2E2E2E2E2E2E2E2E2E2E2E2E2E2E2E2E2E2E2E2E2E2E2E2E2E2E2E2E2E2E2E2E2E2E2E2
310
E2E2E2E2E2E2E2E2E2E2E2E2E2E2E2E2E2E2E2E2E2E2E2E2E2E2E2E2E2E2E2E2E2E2E2E2E2E2E2E2E2E2E2E2E2E2E2E2E2E2E2E2E2E2E2E2E2E2E2E2E2E2E2E2E2E2E2E2E2E2E2E2E2E2E2E2E2E2E2E2E2E2E2E2E2E2E2E2E2E2E2E2E2E2E2E2E2E2E2E2E2E2F5F5F5F5F5F5F5F5F5F5F5F5F5F5F5F5F5F5F5F5F5F5F5F5F5
310
F5F5F5F5F5F5F5F5F5F5F5F5F5F5F5F5F5F5F5F5F5F5F5F5F5F5F5F5F5F5F5F5F5F5F5F5F5F5F5F5F5F5F5F5F5F5F5F5F5F5F5F5F5F5F5F5F5F5F5F5F5F5F5F5F5F5F5F5F5F5F5F5F5F5F5F5F5F5F5F5F5F5F5F5F5F5F5F5F5F5F5F5F5F5F5F5F5F5F5F5F5F5F5F5F5F5F5F5F5F5F5F5F5F5F5F5F5F5F5F5F5F5F5F5F5F5F5
310
F5F5F5F5F5F5F5F5F5F5F5F5F5F5F5F5F5F5F5F5F5F5F5F5F5F5E2E2F5F5F5F5F5F5F5F5F5F5F5F5F5F5F5F5F5F5F5F5F5F5F5F5F5F5F5F5F5F5F5F5F5F5F5F5F5F5F5F5F5F5F5F5F5F5F5F5F5F5F5F5F5F5F5F5F5F5F5F5F5F5F5F5F5F5F5F5F5F5F5F5F5F5F5F5F5F5F5F5F5F5F5F5F5F5F5F5F5F5F5F5F5F5F5F5F5F5F5
310
F5F5F5F5F5F5F5F5F5F5F5F5F5F5F5F5F5F5F5F5F5F5F5F5F5F5F5F5F5F5F5F5F5F5F5F5F5F5F5F5F5F5F5F5F5F5F5F5F5F5F5F5F5F5F5F5F5F5F5F5F5F5F5F5F5F5F5F5F5F5F5F5F5F5F5F5F5F5F5E2E2F5F5F5F5F5F5F5F5F5F5F5F5F5F5F5F5F5F5F5F5F5F5F5F5F5F5F5F5F5F5F5F5F5F5F5F5F5F5F5F5F5F5F5F5F5F5
310
F5F5F5F5F5F5F5F5F5F5F5F5F5F5F5F5F5F5F5F5F5F5F5F5F5F5F5F5F5F5F5F5F5F5F5F5F5F5F5F5F5F5F5F5F5F5F5F5F5F5F5F5F5F5F5F5F5F5F5F5F5F5F5F5F5F5F5F5F5F5F5F5F5F5F5F5F5F5F5F5F5F5F5F5F5F5F5F5F5F5F5F5F5F5F5F5F5F5F5F5F5F5F5F5F5F5F5F5F5F5F5F5F5F5F5F5F5F5F5F5F5F5F5F5F5F5F5
310
F5F5F5F5F5E2E2F5F5F5F5F5F5F5F5F5F5F5F5F5F5F5F5F5F5F5F5F5F5F5F5F5F5F5F5F5F5F5F5F5F5F5F5F5F5F5F5F5F5F5F5F5F5F5F5F5F5F5F5F5F5F5F5F5F5F5F5F5F5F5F5F5F5F5F5F5F5F5F5F5F5F5F5F5F5F5F5F5F5F5F5F5F5F5F5F5F5F5F5F5F5F5F5F5F5F5F5F5F5F5F5F5F5F5F5F5F5F5F5F5F5F5F5F5F5F5F5
310
F5F5F5F5F5F5F5F5F5F5F5F5F5F5F5F5F5F5F5F5F5F5F5F5F5F5F5F5F5F5F5F5F5F5F5F5F5F5F5F5F5F5F5F5F5F5F5F5F5F5F5F5F5F5F5F5F5F5E2E2F5F5F5F5F5F5F5F5F5F5F5E2E2E2E2E2E2E2E2E2F5F5F5F5F5F5F5F5F5E2E2E2E2E2E2E2E2E2E2E2E2E2E2E2E2E2F5F5F5F5F5F5F5F5F5E2E2E2E2E2E2E2E2E2E2E2E2
310
E2E2E2E2F5F5F5F5F5F5F5F5F5F5E2E2E2E2E2E2E2E2E2E2E2E2E2E2E2E2F5F5F5F5F5F5F5F5F5F5E2E2E2E2E2E2E2E2E2E2E2E2E2E2E2E2F5F5F5F5F5F5F5F5F5E2E2E2E2E2E2E2E2E2E2E2E2E2E2E2E2E2F5F5F5F5F5F5F5F5F5E2E2E2E2E2E2E2E2E2F5F5F5F5F5F5F5F5F5F5F5E2E2F5F5F5F5F5F5F5F5F5F5F5E2F5F5
310
F5F5F5F5F5F5F5F5F5F5F5F5F5F5F5F5F5F5F5F5F5F5F5F5F5F5F5F5F5F5F5F5F5F5F5F5F5F5F5F5F5F5F5F5F5F5F5F5F5F5F5F5F5F5F5F5F5F5F5F5F5F5F5F5F5F5F5F5F5F5F5F5F5F5F5F5F5F5F5F5F5F5F5F5F5F5F5F5F5F5F5F5F5F5F5F5F5F5F5F5F5F5F5F5F5F5F5F5F5F5F5F5F5F5F5F5F5F5F5F5F5F5F5F5F5F5F5
310
F5F5F5F5F5F5F5F5F5F5F5F5F5F5F5F5F5F5F5F5F5F5F5F5F5E2F5F5F5F5F5F5F5F5F5F5F5E2E2F5F5F5F5F5F5F5F5F5F5F5E2F5F5F5F5F5F5F5F5F5F5F5F5F5F5F5F5F5F5F5F5F5F5F5F5F5F5F5F5F5F5F5F5F5F5F5F5F5F5F5F5F5F5F5F5F5F5F5F5F5F5F5F5F5F5F5F5F5F5F5F5F5F5F5F5F5F5F5F5F5F5F5F5F5F5F5F5
310
F5F5F5F5F5F5F5F5F5F5F5F5F5F5F5F5F5F5F5F5F5F5F5F5F5F5F5F5F5F5F5F5F5F5F5F5F5F5F5F5F5F5F5F5F5F5F5F5F5F5F5F5F5F5F5F5F5F5F5F5F5F5F5F5F5F5F5F5F5F5F5F5F5F5F5F5F5F5E2F5F5F5F5F5F5F5F5F5F5F5E2E2F5F5F5F5F5F5F5F5F5F5F5E2F5F5F5F5F5F5F5F5F5F5F5F5F5F5F5F5F5F5F5F5F5F5F5
310
F5F5F5F5F5F5F5F5F5F5F5F5F5F5F5F5F5F5F5F5F5F5F5F5F5F5F5F5F5F5F5F5F5F5F5F5F5F5F5F5F5F5F5F5F5F5F5F5F5F5F5F5F5F5F5F5F5F5F5F5F5F5F5F5F5F5F5F5F5F5F5F5F5F5F5F5F5F5F5F5F5F5F5F5F5F5F5F5F5F5F5F5F5F5F5F5F5F5F5F5F5F5F5F5F5F5F5F5F5F5F5F5F5F5F5F5F5F5F5F5F5F5F5F5F5F5F5
310
F5F5F5F5E2F5F5F5F5F5F5F5F5F5F5F5E2E2F5F5F5F5F5F5F5F5F5F5F5E2F5F5F5F5F5F5F5F5F5F5F5F5F5F5F5F5F5F5F5F5F5F5F5F5F5F5F5F5F5F5F5F5F5F5F5F5F5F5F5F5F5F5F5F5F5F5F5F5F5F5F5F5F5F5F5F5F5F5F5F5F5F5F5F5F5F5F5F5F5F5F5F5F5F5F5F5F5F5F5F5F5F5F5F5F5F5F5F5F5F5F5F5F5F5F5F5F5
310
F5F5F5F5F5F5F5F5F5F5F5F5F5F5F5F5F5F5F5F5F5F5F5F5F5F5F5F5F5F5F5F5F5F5F5F5F5F5F5F5F5F5F5F5F5F5F5F5F5F5F5F5F5F5F5F5F5E2F5F5F5F5F5F5F5F5F5F5F5E2E2F5F5F5F5F5F5F5F5F5F5F5E2F5F5F5F5F5F5F5F5F5F5F5F5F5F5F5F5F5F5F5F5F5F5F5F5F5F5F5F5F5F5F5F5F5F5F5F5F5F5F5F5F5F5F5F5
310
F5F5F5F5F5F5F5F5F5F5F5F5F5F5F5F5F5F5F5F5F5F5F5F5F5F5F5F5F5F5F5F5F5F5F5F5F5F5F5F5F5F5F5F5F5F5F5F5F5F5F5F5F5F5F5F5F5F5F5F5F5F5F5F5F5F5F5F5F5F5F5F5F5F5F5F5F5F5F5F5F5F5F5F5F5F5F5F5F5F5F5F5F5F5F5F5F5F5F5F5F5F5F5F5F5F5F5F5F5F5E2F5F5F5F5F5F5F5F5F5F5F5E2E2F5F5F5
310
F5F5F5F5F5F5F5F5E2F5F5F5F5F5F5F5F5F5F5F5F5F5F5F5F5F5F5F5F5F5F5F5F5F5F5F5F5F5F5F5F5F5F5F5F5F5F5F5F5F5F5F5F5F5F5F5F5F5F5F5F5F5F5F5F5F5F5F5F5F5F5F5F5F5F5F5F5F5F5F5F5F5F5F5F5F5F5F5F5F5F5F5F5F5F5F5F5F5F5F5F5F5F5F5F5F5F5F5F5F5F5F5F5F5F5F5F5F5F5F5F5F5F5F5F5F5F5
310
F5F5F5F5F5F5F5F5F5F5F5F5F5F5F5F5F5F5F5F5F5F5F5F5F5F5F5F5F5F5F5F5F5F5F5F5E2F5F5F5F5F5F5F5F5F5F5F5E2E2F5F5F5F5F5F5F5F5F5F5F5E2F5F5F5F5F5F5F5F5F5F5F5F5F5F5F5F5F5F5F5F5F5F5F5F5F5F5F5F5F5F5F5F5F5F5F5F5F5F5F5F5F5F5F5F5F5F5F5F5F5F5F5F5F5F5F5F5F5F5F5F5F5F5F5F5F5
310
F5F5F5F5F5F5F5F5F5F5F5F5F5F5F5F5F5F5F5F5F5F5F5F5F5F5F5F5F5F5F5F5F5F5F5F5F5F5F5F5F5F5F5F5F5F5F5F5F5F5F5F5F5F5F5F5F5F5F5F5F5F5F5F5F5F5F5F5F5F5F5F5F5F5F5F5F5F5F5F5F5F5F5F5F5F5F5F5F5E2F5F5F5F5F5F5F5F5F5F5F5E2E2F5F5F5F5F5F5F5F5F5F5F5F5F5F5F5F5F5F5F5F5F5F5F5F5
310
F5F5F5F5F5F5F5F5F5F5F5F5F5F5F5F5F5F5F5F5F5F5F5F5F5F5F5F5F5F5F5F5F5F5F5F5F5F5F5F5F5F5F5F5F5F5F5F5F5F5F5F5F5F5F5F5F5F5F5F5F5F5F5F5F5F5F5F5F5F5F5F5F5F5F5F5F5F5F5F5F5F5F5F5F5F5F5F5F5F5F5F5F5F5F5F5F5F5F5F5F5F5F5F5F5F5F5F5F5F5F5F5F5F5F5F5F5F5F5F5F5F5F5F5F5F5F5
310
F5F5F5F5F5F5F5F5F5F5F5F5F5F5F5F5F5F5F5F5F5F5F5F5F5F5F5E2E2F5F5F5F5F5F5F5F5F5F5F5F5F5F5F5F5F5F5F5F5F5F5F5F5F5F5F5F5F5F5F5F5F5F5F5F5F5F5F5F5F5F5F5F5F5F5F5F5F5F5F5F5F5F5F5F5F5F5F5F5F5F5F5F5F5F5F5F5F5F5F5F5F5F5F5F5F5F5F5F5F5F5F5F5F5F5F5F5F5F5F5F5F5F5F5F5F5F5
310
F5F5F5F5F5F5F5F5F5F5F5F5F5F5F5F5F5F5F5F5F5F5F5F5F5F5F5F5F5F5F5F5F5F5F5F5F5F5F5F5F5F5F5F5F5F5F5F5F5F5F5F5F5F5F5F5F5F5F5F5F5F5F5F5F5F5F5F5F5F5F5F5F5F5F5F5F5F5F5F5E2E2F5F5F5F5F5F5F5F5F5F5F5F5F5F5F5F5F5F5F5F5F5F5F5F5F5F5F5F5F5F5F5F5F5F5F5F5F5F5F5F5F5F5F5F5F5
310
F5F5F5F5F5F5F5F5F5F5F5F5F5F5F5F5F5F5F5F5F5F5F5F5F5F5F5F5F5F5F5F5F5F5F5F5F5F5F5F5F5F5F5F5F5F5F5F5F5F5F5F5F5F5F5F5F5F5F5F5F5F5F5F5F5F5F5F5F5F5F5F5F5F5F5F5F5F5F5F5F5F5F5F5F5F5F5F5F5F5F5F5F5F5F5F5F5F5F5F5F5F5F5F5F5F5F5F5F5F5F5F5F5F5F5F5F5F5F5F5F5F5F5F5F5F5F5
310
F5F5F5F5F5F5E2E2F5F5F5F5F5F5F5F5F5F5F5F5F5F5F5F5F5F5F5F5F5F5F5F5F5F5F5F5F5F5F5F5F5F5F5F5F5F5F5F5F5F5F5F5F5F5F5F5F5F5F5F5F5F5F5F5F5F5F5F5F5F5F5F5F5F5F5F5F5F5F5F5F5F5F5F5F5F5F5F5F5F5F5F5F5F5F5F5F5F5F5F5F5F5F5F5F5F5F5F5F5F5F5F5F5F5F5F5F5F5F5F5F5F5F5F5F5F5F5
310
F5F5F5F5F5F5F5F5F5F5F5F5F5F5F5F5F5F5F5F5F5F5F5F5F5F5F5F5F5F5F5F5F5F5F5F5F5F5F5F5F5F5F5F5F5F5F5F5F5F5F5F5F5F5F5F5F5F5F5E2E2F5F5F5F5F5F5F5F5F5F5F5F5F5F5F5F5F5F5F5F5F5F5F5F5F5F5F5F5F5F5F5F5F5F5F5F5F5F5F5F5F5F5F5F5F5F5F5F5F5F5F5F5F5F5F5F5F5F5F5F5F5F5F5F5F5F5
310
F5F5F5F5F5F5F5F5F5F5F5F5F5F5F5F5F5F5F5F5F5F5F5F5F5F5F5F5F5F5F5F5F5F5F5F5F5F5F5F5F5F5F5F5F5F5F5F5F5F5F5F5F5F5F5F5F5F5F5F5F5F5F5F5F5F5F5F5F5F5F5F5F5F5F5F5F5F5F5F5F5F5F5F5F5F5F5F5F5F5F5F5F5F5F5F5F5F5F5F5F5F5F5F5F5F5F5F5F5F5F5F5E2E2F5F5F5F5F5F5F5F5F5F5F5F5F5
310
F5F5F5F5F5F5F5F5F5F5F5F5F5F5F5F5F5F5F5F5F5F5F5F5F5F5F5F5F5F5F5F5F5F5F5F5F5F5F5F5F5F5F5F5F5F5F5F5F5F5F5F5F5F5F5F5F5F5F5F5F5F5F5F5F5F5F5F5F5F5F5F5F5F5F5F5F5F5F5F5F5F5F5F5F5F5F5F5F5F5F5F5F5F5F5F5F5F5F5F5F5F5F5F5F5F5F5F5F5F5F5F5F5F5F5F5F5F5F5F5F5F5F5F5F5F5F5
310
F5F5F5F5F5F5F5F5F5F5F5F5F5F5F5F5F5F5F5F5F5F5F5F5F5F5F5F5F5F5F5F5F5F5F5F5F5F5E2E2F5F5F5F5F5F5F5F5F5F5F5F5F5F5F5F5F5F5F5F5F5F5F5F5F5F5F5F5F5F5F5F5F5F5F5F5F5F5F5F5F5F5F5F5F5F5F5F5F5F5F5F5F5F5F5F5F5F5F5F5F5F5F5F5F5F5F5F5F5F5F5F5F5F5F5F5F5F5F5F5F5F5F5F5F5F5F5
310
F5F5F5F5F5F5F5F5F5F5F5F5F5F5F5F5F5F5F5F5F5F5F5F5F5F5F5F5F5F5F5F5F5F5F5F5F5F5F5F5F5F5F5F5F5F5F5F5F5F5F5F5F5F5F5F5F5F5F5F5F5F5F5F5F5F5F5F5F5F5F5F5F5F5F5F5F5F5F5F5F5F5F5F5F5F5F5F5F5F5F5E2E2F5F5F5F5F5F5F5F5F5F5F5F5F5F5F5F5F5F5F5F5F5F5F5F5F5F5F5F5F5F5F5F5F5F5
310
F5F5F5F5F5F5F5F5F5F5F5F5F5F5F5F5F5F5F5F5F5F5F5F5F5F5F5F5F5F5F5F5F5F5F5F5F5F5F5F5F5F5F5F5F5F5F5F5F5F5F5F5F5F5F5F5F5F5F5F5F5F5F5F5F5F5F5F5F5F5F5F5F5F5F5F5F5F5F5F5F5F5F5F5F5F5F5F5F5F5F5F5F5F5F5F5F5F5F5F5F5F5F5F5F5F5F5F5F5F5F5F5F5F5F5F5F5F5F5F5F5F5F5F5F5F5F5
310
F5F5F5F5F5F5F5F5F5F5F5F5F5F5F5F5F5E2E2F5F5F5F5F5F5F5F5F5F5F5E2F5F5F5F5F5F5F5F5F5F5F5F5F5F5F5F5F5F5F5F5F5F5F5F5F5F5F5F5F5F5F5F5F5F5F5F5F5F5F5F5F5F5F5F5F5F5F5F5F5F5F5F5F5F5F5F5F5F5F5F5F5F5F5F5F5F5F5F5F5F5F5F5F5F5F5F5F5F5F5F5F5F5F5F5F5F5F5F5F5F5F5F5F5F5F5F5
310
F5F5F5F5F5F5F5F5F5F5F5F5F5F5F5F5F5F5F5F5F5F5F5F5F5F5F5F5F5F5F5F5F5F5F5F5F5F5F5F5F5F5F5F5F5F5F5F5F5F5F5F5F5F5F5F5F5F5E2F5F5F5F5F5F5F5F5F5F5F5E2E2F5F5F5F5F5F5F5F5F5F5F5E2F5F5F5F5F5F5F5F5F5F5F5F5F5F5F5F5F5F5F5F5F5F5F5F5F5F5F5F5F5F5F5F5F5F5F5F5F5F5F5F5F5F5F5
310
F5F5F5F5F5F5F5F5F5F5F5F5F5F5F5F5F5F5F5F5F5F5F5F5F5F5F5F5F5F5F5F5F5F5F5F5F5F5F5F5F5F5F5F5F5F5F5F5F5F5F5F5F5F5F5F5F5F5F5F5F5F5F5F5F5F5F5F5F5F5F5F5F5F5F5F5F5F5F5F5F5F5F5F5F5F5F5F5F5F5F5F5F5F5F5F5F5F5F5F5F5F5F5F5F5F5F5F5F5F5F5E2F5F5F5F5F5F5F5F5F5F5F5E2E2F5F5
310
F5F5F5F5F5F5F5F5F5E2F5F5F5F5F5F5F5F5F5F5F5F5F5F5F5F5F5F5F5F5F5F5F5F5F5F5F5F5F5F5F5F5F5F5F5F5F5F5F5F5F5F5F5F5F5F5F5F5F5F5F5F5F5F5F5F5F5F5F5F5F5F5F5F5F5F5F5F5F5F5F5F5F5F5F5F5F5F5F5F5F5F5F5F5F5F5F5F5F5F5F5F5F5F5F5F5F5F5F5F5F5F5F5F5F5F5F5F5F5F5F5F5F5F5F5F5F5
310
F5F5F5F5F5F5F5F5F5F5F5F5F5F5F5F5F5F5F5F5F5F5F5F5F5F5F5F5F5F5F5F5F5F5F5F5F5E2F5F5F5F5F5F5F5F5F5F5F5E2E2F5F5F5F5F5F5F5F5F5F5F5E2F5F5F5F5F5F5F5F5F5F5F5F5F5F5F5F5F5F5F5F5F5F5F5F5F5F5F5F5F5F5F5F5F5F5F5F5F5F5F5F5F5F5F5F5F5F5F5F5F5F5F5F5F5F5F5F5F5F5F5F5F5F5F5F5
310
F5F5F5F5F5F5F5F5F5F5F5F5F5F5F5F5F5F5F5F5F5F5F5F5F5F5F5F5F5F5F5F5F5F5F5F5F5F5F5F5F5F5F5F5F5F5F5F5F5F5F5F5F5F5F5F5F5F5F5F5F5F5F5F5F5F5F5F5F5F5F5F5F5F5F5F5F5F5F5F5F5F5F5F5F5F5F5F5F5F5E2F5F5F5F5F5F5F5F5F5F5F5E2E2F5F5F5F5F5F5F5F5F5F5F5E2F5F5F5F5F5F5F5F5F5F5F5
310
F5F5F5F5F5F5F5F5F5F5F5F5F5F5F5F5F5F5F5F5F5F5F5F5F5F5F5F5F5F5F5F5F5F5F5F5F5F5F5F5F5F5F5F5F5F5F5F5F5F5F5F5F5F5F5F5F5F5F5F5F5F5F5F5F5F5F5F5F5F5F5F5F5F5F5F5F5F5F5F5F5F5F5F5F5F5F5F5F5F5F5F5F5F5F5F5F5F5F5F5F5F5F5F5F5F5F5F5F5F5F5F5F5F5F5F5F5F5F5F5F5F5F5F5F5F5F5
310
F5F5F5F5F5F5F5F5F5F5F5F5F5F5F5F5E2F5F5F5F5F5F5F5F5F5F5F5E2E2F5F5F5F5F5F5F5F5F5F5F5E2F5F5F5F5F5F5F5F5F5F5F5F5F5F5F5F5F5F5F5F5F5F5F5F5F5F5F5F5F5F5F5F5F5F5F5F5F5F5F5F5F5F5F5F5F5F5F5F5F5F5F5F5F5F5F5F5F5F5F5F5F5F5F5F5F5F5F5F5F5F5F5F5F5F5F5F5F5F5F5F5F5F5F5F5F5
310
F5F5F5F5F5F5F5F5F5F5F5F5F5F5F5F5F5F5F5F5F5F5F5F5F5F5F5F5F5F5F5F5F5F5F5F5F5F5F5F5F5F5F5F5F5F5F5F5F5F5F5F5F5F5F5F5F5F5F5F5F5F5F5F5F5F5F5F5F5E2F5F5F5F5F5F5F5F5F5F5F5E2E2F5F5F5F5F5F5F5F5F5F5F5E2F5F5F5F5F5F5F5F5F5F5F5F5F5F5F5F5F5F5F5F5F5F5F5F5F5F5F5F5F5F5F5F5
310
F5F5F5F5F5F5F5F5F5F5F5F5F5F5F5F5F5F5F5F5F5F5F5F5F5F5F5F5F5F5F5F5F5F5F5F5F5F5F5F5F5F5F5F5F5F5F5F5F5F5F5F5F5F5F5F5F5F5F5F5F5F5F5F5F5F5F5F5F5F5F5F5F5F5F5F5F5F5F5F5F5F5F5F5F5F5F5F5F5F5F5F5F5F5F5F5F5F5F5F5F5F5F5F5F5F5F5F5F5F5F5F5F5F5F5F5F5F5F5F5F5F5E2F5F5F5F5
310
F5F5F5F5F5F5F5E2E2F5F5F5F5F5F5F5F5F5F5F5E2F5F5F5F5F5F5F5F5F5F5F5F5F5F5F5F5F5F5F5F5F5F5F5F5F5F5F5F5F5F5F5F5F5F5F5F5F5F5F5F5F5F5F5F5F5F5F5F5F5F5F5F5F5F5F5F5F5F5F5F5F5F5F5F5F5F5F5F5F5F5F5F5F5F5F5F5F5F5F5F5F5F5F5F5F5F5F5F5F5F5F5F5F5F5F5F5F5F5F5F5F5F5F5F5F5F5
310
F5F5F5F5F5F5F5F5F5F5F5F5F5F5F5F5F5F5F5F5F5F5F5F5F5F5F5F5F5F5F5F5F5F5F5F5F5F5F5F5F5F5F5F5F5F5F5F5E2F5F5F5F5F5F5F5F5F5F5F5E2E2F5F5F5F5F5F5F5F5F5F5F5E2F5F5F5F5F5F5F5F5F5F5F5F5F5F5F5F5F5F5F5F5F5F5F5F5F5F5F5F5F5F5F5F5F5F5F5F5F5F5F5F5F5F5F5F5F5F5F5F5F5F5F5F5F5
310
F5F5F5F5F5F5F5F5F5F5F5F5F5F5F5F5F5F5F5F5F5F5F5F5F5F5F5F5F5F5F5F5F5F5F5F5F5F5F5F5F5F5F5F5F5F5F5F5F5F5F5F5F5F5F5F5F5F5F5F5F5F5F5F5F5F5F5F5F5F5F5F5F5F5F5F5F5F5F5F5F5F5F5F5F5F5F5F5F5F5F5F5F5F5F5F5F5F5F5F5F5E2F5F5F5F5F5F5F5F5F5F5F5E2E2F5F5F5F5F5F5F5F5F5F5F5E2
310
F5F5F5F5F5F5F5F5F5F5F5F5F5F5F5F5F5F5F5F5F5F5F5F5F5F5F5F5F5F5F5F5F5F5F5F5F5F5F5F5F5F5F5F5F5F5F5F5F5F5F5F5F5F5F5F5F5F5F5F5F5F5F5F5F5F5F5F5F5F5F5F5F5F5F5F5F5F5F5F5F5F5F5F5F5F5F5F5F5F5F5F5F5F5F5F5F5F5F5F5F5F5F5F5F5F5F5F5F5F5F5F5F5F5F5F5F5F5F5F5F5F5F5F5F5F5F5
310
F5F5F5F5F5F5F5F5F5F5F5F5F5F5F5F5F5F5F5F5F5F5F5F5F5F5F5E2F5F5F5F5F5F5F5F5F5F5F5E2E2F5F5F5F5F5F5F5F5F5F5F5E2F5F5F5F5F5F5F5F5F5F5F5F5F5F5F5F5F5F5F5F5F5F5F5F5F5F5F5F5F5F5F5F5F5F5F5F5F5F5F5F5F5F5F5F5F5F5F5F5F5F5F5F5F5F5F5F5F5F5F5F5F5F5F5F5F5F5F5F5F5F5F5F5F5F5
310
F5F5F5F5F5F5F5F5F5F5F5F5F5F5F5F5F5F5F5F5F5F5F5F5F5F5F5F5F5F5F5F5F5F5F5F5F5F5F5F5F5F5F5F5F5F5F5F5F5F5F5F5F5F5F5F5F5F5F5F5F5F5F5F5F5F5F5F5F5F5F5F5F5F5F5F5F5F5F5F5E2F5F5F5F5F5F5F5F5F5F5F5E2E2F5F5F5F5F5F5F5F5F5F5F5E2F5F5F5F5F5F5F5F5F5F5F5F5F5F5F5F5F5F5F5F5F5
310
F5F5F5F5F5F5F5F5F5F5F5F5F5F5F5F5F5F5F5F5F5F5F5F5F5F5F5F5F5F5F5F5F5F5F5F5F5F5F5F5F5F5F5F5F5F5F5F5F5F5F5F5F5F5F5F5F5F5F5F5F5F5F5F5F5F5F5F5F5F5F5F5F5F5F5F5F5F5F5F5F5F5F5F5F5F5F5F5F5F5F5F5F5F5F5F5F5F5F5F5F5F5F5F5F5F5F5F5F5F5F5F5F5F5F5F5F5F5F5F5F5F5F5F5F5F5F5
310
F5F5F5F5F5F5E2F5F5F5F5F5F5F5F5F5F5F5E2E2F5F5F5F5F5F5F5F5F5F5F5E2F5F5F5F5F5F5F5F5F5F5F5F5F5F5F5F5F5F5F5F5F5F5F5F5F5F5F5F5F5F5F5F5F5F5F5F5F5F5F5F5F5F5F5F5F5F5F5F5F5F5F5F5F5F5F5F5F5F5F5F5F5F5F5F5F5F5F5F5F5F5F5F5F5F5F5F5F5F5F5F5F5F5F5F5F5F5F5F5F5F5F5F5F5F5F5
310
F5F5F5F5F5F5F5F5F5F5F5F5F5F5F5F5F5F5F5F5F5F5F5F5F5F5F5F5F5F5F5F5F5F5F5F5F5F5F5F5F5F5F5F5F5F5F5F5F5F5F5F5F5F5F5F5F5F5F5E2F5F5F5F5F5F5F5F5F5F5F5E2E2F5F5F5F5F5F5F5F5F5F5F5E2F5F5F5F5F5F5F5F5F5F5F5F5F5F5F5F5F5F5F5F5F5F5F5F5F5F5F5F5F5F5F5F5F5F5F5F5F5F5F5F5F5F5
310
F5F5F5F5F5F5F5F5F5F5F5F5F5F5F5F5F5F5F5F5F5F5F5F5F5F5F5F5F5F5F5F5F5F5F5F5F5F5F5F5F5F5F5F5F5F5F5F5F5F5F5F5F5F5F5F5F5F5F5F5F5F5F5F5F5F5F5F5F5F5F5F5F5F5F5F5F5F5F5F5F5F5F5F5F5F5F5F5F5F5F5F5F5F5F5F5F5F5F5F5F5F5F5F5F5F5F5F5F5F5F5F5E2F5F5F5F5F5F5F5F5F5F5F5E2E2F5
310
F5F5F5F5F5F5F5F5F5F5E2F5F5F5F5F5F5F5F5F5F5F5F5F5F5F5F5F5F5F5F5F5F5F5F5F5F5F5F5F5F5F5F5F5F5F5F5F5F5F5F5F5F5F5F5F5F5F5F5F5F5F5F5F5F5F5F5F5F5F5F5F5F5F5F5F5F5F5F5F5F5F5F5F5F5F5F5F5F5F5F5F5F5F5F5F5F5F5F5F5F5F5F5F5F5F5F5F5F5F5F5F5F5F5F5F5F5F5F5F5F5F5F5F5F5F5F5
310
F5F5F5F5F5F5F5F5F5F5F5F5F5F5F5F5F5F5F5F5F5F5F5F5F5F5F5F5F5F5F5F5F5F5F5F5F5F5E2F5F5F5F5F5F5F5F5F5F5F5E2E2F5F5F5F5F5F5F5F5F5F5F5F5F5F5F5F5F5F5F5F5F5F5F5F5F5F5F5F5F5F5F5F5F5F5F5F5F5F5F5F5F5F5F5F5F5F5F5F5F5F5F5F5F5F5F5F5F5F5F5F5F5F5F5F5F5F5F5F5F5F5F5F5F5F5F5
310
F5F5F5F5F5F5F5F5F5F5F5F5F5F5F5F5F5F5F5F5F5F5F5F5F5F5F5F5F5F5F5F5F5F5F5F5F5F5F5F5F5F5F5F5F5F5F5F5F5F5F5F5F5F5F5F5F5F5F5F5F5F5F5F5F5F5F5F5F5F5F5F5F5F5F5F5F5F5F5F5F5F5F5F5F5F5F5F5F5F5F5F5F5F5F5F5F5F5F5F5F5F5F5E2E2F5F5F5F5F5F5F5F5F5F5F5F5F5F5F5F5F5F5F5F5F5F5
310
F5F5F5F5F5F5F5F5F5F5F5F5F5F5F5F5F5F5F5F5F5F5F5F5F5F5F5F5F5F5F5F5F5F5F5F5F5F5F5F5F5F5F5F5F5F5F5F5F5F5F5F5F5F5F5F5F5F5F5F5F5F5F5F5F5F5F5F5F5F5F5F5F5F5F5F5F5F5F5F5F5F5F5F5F5F5F5F5F5F5F5F5F5F5F5F5F5F5F5F5F5F5F5F5F5F5F5F5F5F5F5F5F5F5F5F5F5F5F5F5F5F5F5F5F5F5F5
310
F5F5F5F5F5F5F5F5F5F5F5F5F5F5F5F5F5F5F5F5F5F5F5F5F5F5F5F5F5E2E2F5F5F5F5F5F5F5F5F5F5F5F5F5F5F5F5F5F5F5F5F5F5F5F5F5F5F5F5F5F5F5F5F5F5F5F5F5F5F5F5F5F5F5F5F5F5F5F5F5F5F5F5F5F5F5F5F5F5F5F5F5F5F5F5F5F5F5F5F5F5F5F5F5F5F5F5F5F5F5F5F5F5F5F5F5F5F5F5F5F5F5F5F5F5F5F5
310
F5F5F5F5F5F5F5F5F5F5F5F5F5F5F5F5F5F5F5F5F5F5F5F5F5F5F5F5F5F5F5F5F5F5F5F5F5F5F5F5F5F5F5F5F5F5F5F5F5F5F5F5F5F5F5F5F5F5F5F5F5F5F5F5F5F5F5F5F5F5F5F5F5F5F5F5F5F5F5F5F5F5E2E2F5F5F5F5F5F5F5F5F5F5F5F5F5F5F5F5F5F5F5F5F5F5F5F5F5F5F5F5F5F5F5F5F5F5F5F5F5F5F5F5F5F5F5
310
F5F5F5F5F5F5F5F5F5F5F5F5F5F5F5F5F5F5F5F5F5F5F5F5F5F5F5F5F5F5F5F5F5F5F5F5F5F5F5F5F5F5F5F5F5F5F5F5F5F5F5F5F5F5F5F5F5F5F5F5F5F5F5F5F5F5F5F5F5F5F5F5F5F5F5F5F5F5F5F5F5F5F5F5F5F5F5F5F5F5F5F5F5F5F5F5F5F5F5F5F5F5F5F5F5F5F5F5F5F5F5F5F5F5F5F5F5F5F5F5F5F5F5F5F5F5F5
310
F5F5F5F5F5F5F5F5E2E2F5F5F5F5F5F5F5F5F5F5F5F5F5F5F5F5F5F5F5F5F5F5F5F5F5F5F5F5F5F5F5F5F5F5F5F5F5F5F5F5F5F5F5F5F5F5F5F5F5F5F5F5F5F5F5F5F5F5F5F5F5F5F5F5F5F5F5F5F5F5F5F5F5F5F5F5F5F5F5F5F5F5F5F5F5F5F5F5F5F5F5F5F5F5F5F5F5F5F5F5F5F5F5F5F5F5F5F5F5F5F5F5F5F5F5F5F5
310
F5F5F5F5F5F5F5F5F5F5F5F5F5F5F5F5F5F5F5F5F5F5F5F5F5F5F5F5F5F5F5F5F5F5F5F5F5F5F5F5F5F5F5F5F5F5F5F5F5F5F5F5F5F5F5F5F5F5F5F5F5E2E2F5F5F5F5F5F5F5F5F5F5F5F5F5F5F5F5F5F5F5F5F5F5F5F5F5F5F5F5F5F5F5F5F5F5F5F5F5F5F5F5F5F5F5F5F5F5F5F5F5F5F5F5F5F5F5F5F5F5F5F5F5F5F5F5
310
F5F5F5F5F5F5F5F5F5F5F5F5F5F5F5F5F5F5F5F5F5F5F5F5F5F5F5F5F5F5F5F5F5F5F5F5F5F5F5F5F5F5F5F5F5F5F5F5F5F5F5F5F5F5F5F5F5F5F5F5F5F5F5F5F5F5F5F5F5F5F5F5F5F5F5F5F5F5F5F5F5F5F5F5F5F5F5F5F5F5F5F5F5F5F5F5F5F5F5F5F5F5F5F5F5F5F5F5F5F5F5F5F5F5E2E2F5F5F5F5F5F5F5F5F5F5F5
310
F5F5F5F5F5F5F5F5F5F5F5F5F5F5F5F5F5F5F5F5F5F5F5F5F5F5F5F5F5F5F5F5F5F5F5F5F5F5F5F5F5F5F5F5F5F5F5F5F5F5F5F5F5F5F5F5F5F5F5F5F5F5F5F5F5F5F5F5F5F5F5F5F5F5F5F5F5F5F5F5F5F5F5F5F5F5F5F5F5F5F5F5F5F5F5F5F5F5F5F5F5F5F5F5F5F5F5F5F5F5F5F5F5F5F5F5F5F5F5F5F5F5F5F5F5F5F5
310
F5F5F5F5F5F5F5F5F5F5F5F5F5F5F5F5F5F5F5F5F5F5F5F5F5F5F5F5F5F5F5F5F5F5F5F5F5F5F5F5E2E2F5F5F5F5F5F5F5F5F5F5F5F5F5F5F5F5F5F5F5F5F5F5F5F5F5F5F5F5F5F5F5F5F5F5F5F5F5F5F5F5F5F5F5F5F5F5F5F5F5F5F5F5F5F5F5F5F5F5F5F5F5F5F5F5F5F5F5F5F5F5F5F5F5F5F5F5F5F5F5F5F5F5F5F5F5
310
F5F5F5F5F5F5F5F5F5F5F5F5F5F5F5F5F5F5F5F5F5F5F5F5F5F5F5F5F5F5F5F5F5F5F5F5F5F5F5F5F5F5F5F5F5F5F5F5F5F5F5F5F5F5F5F5F5F5F5F5F5F5F5F5F5F5F5F5F5F5F5F5F5F5F5F5F5F5F5F5F5F5F5F5F5F5F5F5F5F5F5F5F5E2E2F5F5F5F5F5F5F5F5F5F5F5E2F5F5F5F5F5F5F5F5F5F5F5F5F5F5F5F5F5F5F5F5
310
F5F5F5F5F5F5F5F5F5F5F5F5F5F5F5F5F5F5F5F5F5F5F5F5F5F5F5F5F5F5F5F5F5F5F5F5F5F5F5F5F5F5F5F5F5F5F5F5F5F5F5F5F5F5F5F5F5F5F5F5F5F5F5F5F5F5F5F5F5F5F5F5F5F5F5F5F5F5F5F5F5F5F5F5F5F5F5F5F5F5F5F5F5F5F5F5F5F5F5F5F5F5F5F5F5F5F5F5F5F5F5F5F5F5F5F5F5F5F5F5F5F5F5F5F5F5F5
310
F5F5F5F5F5F5F5E2F5F5F5F5F5F5F5F5F5F5F5E2E2F5F5F5F5F5F5F5F5F5F5F5E2F5F5F5F5F5F5F5F5F5F5F5F5F5F5F5F5F5F5F5F5F5F5F5F5F5F5F5F5F5F5F5F5F5F5F5F5F5F5F5F5F5F5F5F5F5F5F5F5F5F5F5F5F5F5F5F5F5F5F5F5F5F5F5F5F5F5F5F5F5F5F5F5F5F5F5F5F5F5F5F5F5F5F5F5F5F5F5F5F5F5F5F5F5F5
310
F5F5F5F5F5F5F5F5F5F5F5F5F5F5F5F5F5F5F5F5F5F5F5F5F5F5F5F5F5F5F5F5F5F5F5F5F5F5F5F5F5F5F5F5F5F5F5F5F5F5F5F5F5F5F5F5F5F5F5F5E2F5F5F5F5F5F5F5F5F5F5F5E2E2F5F5F5F5F5F5F5F5F5F5F5E2F5F5F5F5F5F5F5F5F5F5F5F5F5F5F5F5F5F5F5F5F5F5F5F5F5F5F5F5F5F5F5F5F5F5F5F5F5F5F5F5F5
310
F5F5F5F5F5F5F5F5F5F5F5F5F5F5F5F5F5F5F5F5F5F5F5F5F5F5F5F5F5F5F5F5F5F5F5F5F5F5F5F5F5F5F5F5F5F5F5F5F5F5F5F5F5F5F5F5F5F5F5F5F5F5F5F5F5F5F5F5F5F5F5F5F5F5F5F5F5F5F5F5F5F5F5F5F5F5F5F5F5F5F5F5F5F5F5F5F5F5F5F5F5F5F5F5F5F5F5F5F5F5F5F5F5E2F5F5F5F5F5F5F5F5F5F5F5E2E2
310
F5F5F5F5F5F5F5F5F5F5F5E2F5F5F5F5F5F5F5F5F5F5F5F5F5F5F5F5F5F5F5F5F5F5F5F5F5F5F5F5F5F5F5F5F5F5F5F5F5F5F5F5F5F5F5F5F5F5F5F5F5F5F5F5F5F5F5F5F5F5F5F5F5F5F5F5F5F5F5F5F5F5F5F5F5F5F5F5F5F5F5F5F5F5F5F5F5F5F5F5F5F5F5F5F5F5F5F5F5F5F5F5F5F5F5F5F5F5F5F5F5F5F5F5F5F5F5
310
F5F5F5F5F5F5F5F5F5F5F5F5F5F5F5F5F5F5F5F5F5F5F5F5F5F5F5F5F5F5F5F5F5F5F5F5F5F5F5E2F5F5F5F5F5F5F5F5F5F5F5E2E2F5F5F5F5F5F5F5F5F5F5F5E2F5F5F5F5F5F5F5F5F5F5F5F5F5F5F5F5F5F5F5F5F5F5F5F5F5F5F5F5F5F5F5F5F5F5F5F5F5F5F5F5F5F5F5F5F5F5F5F5F5F5F5F5F5F5F5F5F5F5F5F5F5F5
310
F5F5F5F5F5F5F5F5F5F5F5F5F5F5F5F5F5F5F5F5F5F5F5F5F5F5F5F5F5F5F5F5F5F5F5F5F5F5F5F5F5F5F5F5F5F5F5F5F5F5F5F5F5F5F5F5F5F5F5F5F5F5F5F5F5F5F5F5F5F5F5F5F5F5F5F5F5F5F5F5F5F5F5F5F5F5F5F5F5F5F5F5E2F5F5F5F5F5F5F5F5F5F5F5E2E2F5F5F5F5F5F5F5F5F5F5F5E2F5F5F5F5F5F5F5F5F5
310
F5F5F5F5F5F5F5F5F5F5F5F5F5F5F5F5F5F5F5F5F5F5F5F5F5F5F5F5F5F5F5F5F5F5F5F5F5F5F5F5F5F5F5F5F5F5F5F5F5F5F5F5F5F5F5F5F5F5F5F5F5F5F5F5F5F5F5F5F5F5F5F5F5F5F5F5F5F5F5F5F5F5F5F5F5F5F5F5F5F5F5F5F5F5F5F5F5F5F5F5F5F5F5F5F5F5F5F5F5F5F5F5F5F5F5F5F5F5F5F5F5F5F5F5F5F5F5
310
F5F5F5F5F5F5F5F5F5F5F5F5F5F5F5F5F5F5E2F5F5F5F5F5F5F5F5F5F5F5E2E2F5F5F5F5F5F5F5F5F5F5F5E2F5F5F5F5F5F5F5F5F5F5F5F5F5F5F5F5F5F5F5F5F5F5F5F5F5F5F5F5F5F5F5F5F5F5F5F5F5F5F5F5F5F5F5F5F5F5F5F5F5F5F5F5F5F5F5F5F5F5F5F5F5F5F5F5F5F5F5F5F5F5F5F5F5F5F5F5F5F5F5F5F5F5F5
310
F5F5F5F5F5F5F5F5F5F5F5F5F5F5F5F5F5F5F5F5F5F5F5F5F5F5F5F5F5F5F5F5F5F5F5F5F5F5F5F5F5F5F5F5F5F5F5F5F5F5F5F5F5F5F5F5F5F5F5F5F5F5F5F5F5F5F5F5F5F5F5E2F5F5F5F5F5F5F5F5F5F5F5E2E2F5F5F5F5F5F5F5F5F5F5F5E2F5F5F5F5F5F5F5F5F5F5F5F5F5F5F5F5F5F5F5F5F5F5F5F5F5F5F5F5F5F5
310
F5F5F5F5F5F5F5F5F5F5F5F5F5F5F5F5F5F5F5F5F5F5F5F5F5F5F5F5F5F5F5F5F5F5F5F5F5F5F5F5F5F5F5F5F5F5F5F5F5F5F5F5F5F5F5F5F5F5F5F5F5F5F5F5F5F5F5F5F5F5F5F5F5F5F5F5F5F5F5F5F5F5F5F5F5F5F5F5F5F5F5F5F5F5F5F5F5F5F5F5F5F5F5F5F5F5F5F5F5F5F5F5F5F5F5F5F5F5F5F5F5F5F5F5E2F5F5
310
F5F5F5F5F5F5F5F5F5E2E2F5F5F5F5F5F5F5F5F5F5F5E2F5F5F5F5F5F5F5F5F5F5F5F5F5F5F5F5F5F5F5F5F5F5F5F5F5F5F5F5F5F5F5F5F5F5F5F5F5F5F5F5F5F5F5F5F5F5F5F5F5F5F5F5F5F5F5F5F5F5F5F5F5F5F5F5F5F5F5F5F5F5F5F5F5F5F5F5F5F5F5F5F5F5F5F5F5F5F5F5F5F5F5F5F5F5F5F5F5F5F5F5F5F5F5F5
310
F5F5F5F5F5F5F5F5F5F5F5F5F5F5F5F5F5F5F5F5F5F5F5F5F5F5F5F5F5F5F5F5F5F5F5F5F5F5F5F5F5F5F5F5F5F5F5F5F5F5E2F5F5F5F5F5F5F5F5F5F5F5E2E2F5F5F5F5F5F5F5F5F5F5F5E2F5F5F5F5F5F5F5F5F5F5F5F5F5F5F5F5F5F5F5F5F5F5F5F5F5F5F5F5F5F5F5F5F5F5F5F5F5F5F5F5F5F5F5F5F5F5F5F5F5F5F5
310
F5F5F5F5F5F5F5F5F5F5F5F5F5F5F5F5F5F5F5F5F5F5F5F5F5F5F5F5F5F5F5F5F5F5F5F5F5F5F5F5F5F5F5F5F5F5F5F5F5F5F5F5F5F5F5F5F5F5F5F5F5F5F5F5F5F5F5F5F5F5F5F5F5F5F5F5F5F5F5F5F5F5F5F5F5F5F5F5F5F5F5F5F5F5F5F5F5F5F5F5F5F5F5E2F5F5F5F5F5F5F5F5F5F5F5E2E2F5F5F5F5F5F5F5F5F5F5
310
F5E2F5F5F5F5F5F5F5F5F5F5F5F5F5F5F5F5F5F5F5F5F5F5F5F5F5F5F5F5F5F5F5F5F5F5F5F5F5F5F5F5F5F5F5F5F5F5F5F5F5F5F5F5F5F5F5F5F5F5F5F5F5F5F5F5F5F5F5F5F5F5F5F5F5F5F5F5F5F5F5F5F5F5F5F5F5F5F5F5F5F5F5F5F5F5F5F5F5F5F5F5F5F5F5F5F5F5F5F5F5F5F5F5F5F5F5F5F5F5F5F5F5F5F5F5F5
310
F5F5F5F5F5F5F5F5F5F5F5F5F5F5F5F5F5F5F5F5F5F5F5F5F5F5F5F5F5E2F5F5F5F5F5F5F5F5F5F5F5E2E2F5F5F5F5F5F5F5F5F5F5F5E2F5F5F5F5F5F5F5F5F5F5F5F5F5F5F5F5F5F5F5F5F5F5F5F5F5F5F5F5F5F5F5F5F5F5F5F5F5F5F5F5F5F5F5F5F5F5F5F5F5F5F5F5F5F5F5F5F5F5F5F5F5F5F5F5F5F5F5F5F5F5F5F5
310
F5F5F5F5F5F5F5F5F5F5F5F5F5F5F5F5F5F5F5F5F5F5F5F5F5F5F5F5F5F5F5F5F5F5F5F5F5F5F5F5F5F5F5F5F5F5F5F5F5F5F5F5F5F5F5F5F5F5F5F5F5F5F5F5F5F5F5F5F5F5F5F5F5F5F5F5F5F5F5F5F5F5E2F5F5F5F5F5F5F5F5F5F5F5E2E2F5F5F5F5F5F5F5F5F5F5F5E2F5F5F5F5F5F5F5F5F5F5F5F5F5F5F5F5F5F5F5
310
F5F5F5F5F5F5F5F5F5F5F5F5F5F5F5F5F5F5F5F5F5F5F5F5F5F5F5F5F5F5F5F5F5F5F5F5F5F5F5F5F5F5F5F5F5F5F5F5F5F5F5F5F5F5F5F5F5F5F5F5F5F5F5F5F5F5F5F5F5F5F5F5F5F5F5F5F5F5F5F5F5F5F5F5F5F5F5F5F5F5F5F5F5F5F5F5F5F5F5F5F5F5F5F5F5F5F5F5F5F5F5F5F5F5F5F5F5F5F5F5F5F5F5F5F5F5F5
310
F5F5F5F5F5F5F5F5E2F5F5F5F5F5F5F5F5F5F5F5E2E2F5F5F5F5F5F5F5F5F5F5F5E2F5F5F5F5F5F5F5F5F5F5F5F5F5F5F5F5F5F5F5F5F5F5F5F5F5F5F5F5F5F5F5F5F5F5F5F5F5F5F5F5F5F5F5F5F5F5F5F5F5F5F5F5F5F5F5F5F5F5F5F5F5F5F5F5F5F5F5F5F5F5F5F5F5F5F5F5F5F5F5F5F5F5F5F5F5F5F5F5F5F5F5F5F5
310
F5F5F5F5F5F5F5F5F5F5F5F5F5F5F5F5F5F5F5F5F5F5F5F5F5F5F5F5F5F5F5F5F5F5F5F5F5F5F5F5F5F5F5F5F5F5F5F5F5F5F5F5F5F5F5F5F5F5F5F5F5E2F5F5F5F5F5F5F5F5F5F5F5E2E2F5F5F5F5F5F5F5F5F5F5F5E2F5F5F5F5F5F5F5F5F5F5F5F5F5F5F5F5F5F5F5F5F5F5F5F5F5F5F5F5F5F5F5F5F5F5F5F5F5F5F5F5
310
F5F5F5F5F5F5F5F5F5F5F5F5F5F5F5F5F5F5F5F5F5F5F5F5F5F5F5F5F5F5F5F5F5F5F5F5F5F5F5F5F5F5F5F5F5F5F5F5F5F5F5F5F5F5F5F5F5F5F5F5F5F5F5F5F5F5F5F5F5F5F5F5F5F5F5F5F5F5F5F5F5F5F5F5F5F5F5F5F5F5F5F5F5F5F5F5F5F5F5F5F5F5F5F5F5F5F5F5F5F5F5F5F5F5E2F5F5F5F5F5F5F5F5F5F5F5E2
310
E2F5F5F5F5F5F5F5F5F5F5F5F5F5F5F5F5F5F5F5F5F5F5F5F5F5F5F5F5F5F5F5F5F5F5F5F5F5F5F5F5F5F5F5F5F5F5F5F5F5F5F5F5F5F5F5F5F5F5F5F5F5F5F5F5F5F5F5F5F5F5F5F5F5F5F5F5F5F5F5F5F5F5F5F5F5F5F5F5F5F5F5F5F5F5F5F5F5F5F5F5F5F5F5F5F5F5F5F5F5F5F5F5F5F5F5F5F5F5F5F5F5F5F5F5F5F5
310
F5F5F5F5F5F5F5F5F5F5F5F5F5F5F5F5F5F5F5F5F5F5F5F5F5F5F5F5F5F5F5F5F5F5F5F5F5F5F5F5F5F5F5F5F5F5F5F5F5F5F5F5E2E2F5F5F5F5F5F5F5F5F5F5F5F5F5F5F5F5F5F5F5F5F5F5F5F5F5F5F5F5F5F5F5F5F5F5F5F5F5F5F5F5F5F5F5F5F5F5F5F5F5F5F5F5F5F5F5F5F5F5F5F5F5F5F5F5F5F5F5F5F5F5F5F5F5
310
F5F5F5F5F5F5F5F5F5F5F5F5F5F5F5F5F5F5F5F5F5F5F5F5F5F5F5F5F5F5F5F5F5F5F5F5F5F5F5F5F5F5F5F5F5F5F5F5F5F5F5F5F5F5F5F5F5F5F5F5F5F5F5F5F5F5F5F5F5F5F5F5F5F5F5F5F5F5F5F5F5F5F5F5F5F5F5F5F5F5F5F5F5F5F5F5F5F5F5F5F5F5F5F5F5E2E2F5F5F5F5F5F5F5F5F5F5F5F5F5F5F5F5F5F5F5F5
310
F5F5F5F5F5F5F5F5F5F5F5F5F5F5F5F5F5F5F5F5F5F5F5F5F5F5F5F5F5F5F5F5F5F5F5F5F5F5F5F5F5F5F5F5F5F5F5F5F5F5F5F5F5F5F5F5F5F5F5F5F5F5F5F5F5F5F5F5F5F5F5F5F5F5F5F5F5F5F5F5F5F5F5F5F5F5F5F5F5F5F5F5F5F5F5F5F5F5F5F5F5F5F5F5F5F5F5F5F5F5F5F5F5F5F5F5F5F5F5F5F5F5F5F5F5F5F5
310
F5F5F5F5F5F5F5F5F5F5F5F5F5F5F5F5F5F5F5F5F5F5F5F5F5F5F5F5F5F5F5E2E2F5F5F5F5F5F5F5F5F5F5F5F5F5F5F5F5F5F5F5F5F5F5F5F5F5F5F5F5F5F5F5F5F5F5F5F5F5F5F5F5F5F5F5F5F5F5F5F5F5F5F5F5F5F5F5F5F5F5F5F5F5F5F5F5F5F5F5F5F5F5F5F5F5F5F5F5F5F5F5F5F5F5F5F5F5F5F5F5F5F5F5F5F5F5
310
F5F5F5F5F5F5F5F5F5F5F5F5F5F5F5F5F5F5F5F5F5F5F5F5F5F5F5F5F5F5F5F5F5F5F5F5F5F5F5F5F5F5F5F5F5F5F5F5F5F5F5F5F5F5F5F5F5F5F5F5F5F5F5F5F5F5F5F5F5F5F5F5F5F5F5F5F5F5F5F5F5F5F5F5E2E2F5F5F5F5F5F5F5F5F5F5F5F5F5F5F5F5F5F5F5F5F5F5F5F5F5F5F5F5F5F5F5F5F5F5F5F5F5F5F5F5F5
310
F5F5F5F5F5F5F5F5F5F5F5F5F5F5F5F5F5F5F5F5F5F5F5F5F5F5F5F5F5F5F5F5F5F5F5F5F5F5F5F5F5F5F5F5F5F5F5F5F5F5F5F5F5F5F5F5F5F5F5F5F5F5F5F5F5F5F5F5F5F5F5F5F5F5F5F5F5F5F5F5F5F5F5F5F5F5F5F5F5F5F5F5F5F5F5F5F5F5F5F5F5F5F5F5F5F5F5F5F5F5F5F5F5F5F5F5F5F5F5F5F5F5F5F5F5F5F5
310
F5F5F5F5F5F5F5F5F5F5E2E2F5F5F5F5F5F5F5F5F5F5F5F5F5F5F5F5F5F5F5F5F5F5F5F5F5F5F5F5F5F5F5F5F5F5F5F5F5F5F5F5F5F5F5F5F5F5F5F5F5F5F5F5F5F5F5F5F5F5F5F5F5F5F5F5F5F5F5F5F5F5F5F5F5F5F5F5F5F5F5F5F5F5F5F5F5F5F5F5F5F5F5F5F5F5F5F5F5F5F5F5F5F5F5F5F5F5F5F5F5F5F5F5F5F5F5
310
F5F5F5F5F5F5F5F5F5F5F5F5F5F5F5F5F5F5F5F5F5F5F5F5F5F5F5F5F5F5F5F5F5F5F5F5F5F5F5F5F5F5F5F5F5F5F5F5F5F5F5F5F5F5F5F5F5F5F5F5F5F5F5E2E2F5F5F5F5F5F5F5F5F5F5F5F5F5F5F5F5F5F5F5F5F5F5F5F5F5F5F5F5F5F5F5F5F5F5F5F5F5F5F5F5F5F5F5F5F5F5F5F5F5F5F5F5F5F5F5F5F5F5F5F5F5F5
310
F5F5F5F5F5F5F5F5F5F5F5F5F5F5F5F5F5F5F5F5F5F5F5F5F5F5F5F5F5F5F5F5F5F5F5F5F5F5F5F5F5F5F5F5F5F5F5F5F5F5F5F5F5F5F5F5F5F5F5F5F5F5F5F5F5F5F5F5F5F5F5F5F5F5F5F5F5F5F5F5F5F5F5F5F5F5F5F5F5F5F5F5F5F5F5F5F5F5F5F5F5F5F5F5F5F5F5F5F5F5F5F5F5F5F5F5E2E2F5F5F5F5F5F5F5F5F5
310
F5F5F5F5F5F5F5F5F5F5F5F5F5F5F5F5F5F5F5F5F5F5F5F5F5F5F5F5F5F5F5F5F5F5F5F5F5F5F5F5F5F5F5F5F5F5F5F5F5F5F5F5F5F5F5F5F5F5F5F5F5F5F5F5F5F5F5F5F5F5F5F5F5F5F5F5F5F5F5F5F5F5F5F5F5F5F5F5F5F5F5F5F5F5F5F5F5F5F5F5F5F5F5F5F5F5F5F5F5F5F5F5F5F5F5F5F5F5F5F5F5F5F5F5F5F5F5
310
F5F5F5F5F5F5F5F5F5F5F5F5F5F5F5F5F5F5F5F5F5F5F5F5F5F5F5F5F5F5F5F5F5F5F5F5F5F5F5F5F5F5E2E2F5F5F5F5F5F5F5F5F5F5F5F5F5F5F5F5F5F5F5F5F5F5F5F5F5F5F5F5F5F5F5F5F5F5F5F5F5F5F5F5F5F5F5F5F5F5F5F5F5F5F5F5F5F5F5F5F5F5F5F5F5F5F5F5F5F5F5F5F5F5F5F5F5F5F5F5F5F5F5F5F5F5F5
310
F5F5F5F5F5F5F5F5F5F5F5F5F5F5F5F5F5F5F5F5F5F5F5F5F5F5F5F5F5F5F5F5F5F5F5F5F5F5F5F5F5F5F5F5F5F5F5F5F5F5F5F5F5F5F5F5F5F5F5F5F5F5F5F5F5F5F5F5F5F5F5F5F5F5F5F5F5F5F5F5F5F5F5F5F5F5F5F5F5F5F5F5F5F5F5E2E2F5F5F5F5F5F5F5F5F5F5F5E2F5F5F5F5F5F5F5F5F5F5F5F5F5F5F5F5F5F5
310
F5F5F5F5F5F5F5F5F5F5F5F5F5F5F5F5F5F5F5F5F5F5F5F5F5F5F5F5F5F5F5F5F5F5F5F5F5F5F5F5F5F5F5F5F5F5F5F5F5F5F5F5F5F5F5F5F5F5F5F5F5F5F5F5F5F5F5F5F5F5F5F5F5F5F5F5F5F5F5F5F5F5F5F5F5F5F5F5F5F5F5F5F5F5F5F5F5F5F5F5F5F5F5F5F5F5F5F5F5F5F5F5F5F5F5F5F5F5F5F5F5F5F5F5F5F5F5
310
F5F5F5F5F5F5F5F5F5E2F5F5F5F5F5F5F5F5F5F5F5E2E2F5F5F5F5F5F5F5F5F5F5F5E2F5F5F5F5F5F5F5F5F5F5F5F5F5F5F5F5F5F5F5F5F5F5F5F5F5F5F5F5F5F5F5F5F5F5F5F5F5F5F5F5F5F5F5F5F5F5F5F5F5F5F5F5F5F5F5F5F5F5F5F5F5F5F5F5F5F5F5F5F5F5F5F5F5F5F5F5F5F5F5F5F5F5F5F5F5F5F5F5F5F5F5F5
310
F5F5F5F5F5F5F5F5F5F5F5F5F5F5F5F5F5F5F5F5F5F5F5F5F5F5F5F5F5F5F5F5F5F5F5F5F5F5F5F5F5F5F5F5F5F5F5F5F5F5F5F5F5F5F5F5F5F5F5F5F5F5E2F5F5F5F5F5F5F5F5F5F5F5E2E2F5F5F5F5F5F5F5F5F5F5F5E2F5F5F5F5F5F5F5F5F5F5F5F5F5F5F5F5F5F5F5F5F5F5F5F5F5F5F5F5F5F5F5F5F5F5F5F5F5F5F5
310
F5F5F5F5F5F5F5F5F5F5F5F5F5F5F5F5F5F5F5F5F5F5F5F5F5F5F5F5F5F5F5F5F5F5F5F5F5F5F5F5F5F5F5F5F5F5F5F5F5F5F5F5F5F5F5F5F5F5F5F5F5F5F5F5F5F5F5F5F5F5F5F5F5F5F5F5F5F5F5F5F5F5F5F5F5F5F5F5F5F5F5F5F5F5F5F5F5F5F5F5F5F5F5F5F5F5F5F5F5F5F5F5F5F5F5E2F5F5F5F5F5F5F5F5F5F5F5
310
E2E2F5F5F5F5F5F5F5F5F5F5F5E2F5F5F5F5F5F5F5F5F5F5F5F5F5F5F5F5F5F5F5F5F5F5F5F5F5F5F5F5F5F5F5F5F5F5F5F5F5F5F5F5F5F5F5F5F5F5F5F5F5F5F5F5F5F5F5F5F5F5F5F5F5F5F5F5F5F5F5F5F5F5F5F5F5F5F5F5F5F5F5F5F5F5F5F5F5F5F5F5F5F5F5F5F5F5F5F5F5F5F5F5F5F5F5F5F5F5F5F5F5F5F5F5F5
310
F5F5F5F5F5F5F5F5F5F5F5F5F5F5F5F5F5F5F5F5F5F5F5F5F5F5F5F5F5F5F5F5F5F5F5F5F5F5F5F5F5E2F5F5F5F5F5F5F5F5F5F5F5E2E2F5F5F5F5F5F5F5F5F5F5F5E2F5F5F5F5F5F5F5F5F5F5F5F5F5F5F5F5F5F5F5F5F5F5F5F5F5F5F5F5F5F5F5F5F5F5F5F5F5F5F5F5F5F5F5F5F5F5F5F5F5F5F5F5F5F5F5F5F5F5F5F5
310
F5F5F5F5F5F5F5F5F5F5F5F5F5F5F5F5F5F5F5F5F5F5F5F5F5F5F5F5F5F5F5F5F5F5F5F5F5F5F5F5F5F5F5F5F5F5F5F5F5F5F5F5F5F5F5F5F5F5F5F5F5F5F5F5F5F5F5F5F5F5F5F5F5F5F5F5F5F5F5F5F5F5F5F5F5F5F5F5F5F5F5F5F5F5E2F5F5F5F5F5F5F5F5F5F5F5E2E2F5F5F5F5F5F5F5F5F5F5F5E2F5F5F5F5F5F5F5
310
F5F5F5F5F5F5F5F5F5F5F5F5F5F5F5F5F5F5F5F5F5F5F5F5F5F5F5F5F5F5F5F5F5F5F5F5F5F5F5F5F5F5F5F5F5F5F5F5F5F5F5F5F5F5F5F5F5F5F5F5F5F5F5F5F5F5F5F5F5F5F5F5F5F5F5F5F5F5F5F5F5F5F5F5F5F5F5F5F5F5F5F5F5F5F5F5F5F5F5F5F5F5F5F5F5F5F5F5F5F5F5F5F5F5F5F5F5F5F5F5F5F5F5F5F5F5F5
310
F5F5F5F5F5F5F5F5F5F5F5F5F5F5F5F5F5F5F5F5E2F5F5F5F5F5F5F5F5F5F5F5E2E2F5F5F5F5F5F5F5F5F5F5F5E2F5F5F5F5F5F5F5F5F5F5F5F5F5F5F5F5F5F5F5F5F5F5F5F5F5F5F5F5F5F5F5F5F5F5F5F5F5F5F5F5F5F5F5F5F5F5F5F5F5F5F5F5F5F5F5F5F5F5F5F5F5F5F5F5F5F5F5F5F5F5F5F5F5F5F5F5F5F5F5F5F5
310
F5F5F5F5F5F5F5F5F5F5F5F5F5F5F5F5F5F5F5F5F5F5F5F5F5F5F5F5F5F5F5F5F5F5F5F5F5F5F5F5F5F5F5F5F5F5F5F5F5F5F5F5F5F5F5F5F5F5F5F5F5F5F5F5F5F5F5F5F5F5F5F5F5E2F5F5F5F5F5F5F5F5F5F5F5E2E2F5F5F5F5F5F5F5F5F5F5F5E2F5F5F5F5F5F5F5F5F5F5F5F5F5F5F5F5F5F5F5F5F5F5F5F5F5F5F5F5
310
F5F5F5F5F5F5F5F5F5F5F5F5F5F5F5F5F5F5F5F5F5F5F5F5F5F5F5F5F5F5F5F5F5F5F5F5F5F5F5F5F5F5F5F5F5F5F5F5F5F5F5F5F5F5F5F5F5F5F5F5F5F5F5F5F5F5F5F5F5F5F5F5F5F5F5F5F5F5F5F5F5F5F5F5F5F5F5F5F5F5F5F5F5F5F5F5F5F5F5F5F5F5F5F5F5F5F5F5F5F5F5F5F5F5F5F5F5F5F5F5F5F5F5F5F5F5E2
310
F5F5F5F5F5F5F5F5F5F5F5E2E2F5F5F5F5F5F5F5F5F5F5F5E2F5F5F5F5F5F5F5F5F5F5F5F5F5F5F5F5F5F5F5F5F5F5F5F5F5F5F5F5F5F5F5F5F5F5F5F5F5F5F5F5F5F5F5F5F5F5F5F5F5F5F5F5F5F5F5F5F5F5F5F5F5F5F5F5F5F5F5F5F5F5F5F5F5F5F5F5F5F5F5F5F5F5F5F5F5F5F5F5F5F5F5F5F5F5F5F5F5F5F5F5F5F5
310
F5F5F5F5F5F5F5F5F5F5F5F5F5F5F5F5F5F5F5F5F5F5F5F5F5F5F5F5F5F5F5F5F5F5F5F5F5F5F5F5F5F5F5F5F5F5F5F5F5F5F5F5E2F5F5F5F5F5F5F5F5F5F5F5E2E2F5F5F5F5F5F5F5F5F5F5F5E2F5F5F5F5F5F5F5F5F5F5F5F5F5F5F5F5F5F5F5F5F5F5F5F5F5F5F5F5F5F5F5F5F5F5F5F5F5F5F5F5F5F5F5F5F5F5F5F5F5
310
F5F5F5F5F5F5F5F5F5F5F5F5F5F5F5F5F5F5F5F5F5F5F5F5F5F5F5F5F5F5F5F5F5F5F5F5F5F5F5F5F5F5F5F5F5F5F5F5F5F5F5F5F5F5F5F5F5F5F5F5F5F5F5F5F5F5F5F5F5F5F5F5F5F5F5F5F5F5F5F5F5F5F5F5F5F5F5F5F5F5F5F5F5F5F5F5F5F5F5F5F5F5F5F5F5E2F5F5F5F5F5F5F5F5F5F5F5E2E2F5F5F5F5F5F5F5F5
310
F5F5F5E2F5F5F5F5F5F5F5F5F5F5F5F5F5F5F5F5F5F5F5F5F5F5F5F5F5F5F5F5F5F5F5F5F5F5F5F5F5F5F5F5F5F5F5F5F5F5F5F5F5F5F5F5F5F5F5F5F5F5F5F5F5F5F5F5F5F5F5F5F5F5F5F5F5F5F5F5F5F5F5F5F5F5F5F5F5F5F5F5F5F5F5F5F5F5F5F5F5F5F5F5F5F5F5F5F5F5F5F5F5F5F5F5F5F5F5F5F5F5F5F5F5F5F5
310
F5F5F5F5F5F5F5F5F5F5F5F5F5F5F5F5F5F5F5F5F5F5F5F5F5F5F5F5F5F5F5E2F5F5F5F5F5F5F5F5F5F5F5E2E2F5F5F5F5F5F5F5F5F5F5F5E2F5F5F5F5F5F5F5F5F5F5F5F5F5F5F5F5F5F5F5F5F5F5F5F5F5F5F5F5F5F5F5F5F5F5F5F5F5F5F5F5F5F5F5F5F5F5F5F5F5F5F5F5F5F5F5F5F5F5F5F5F5F5F5F5F5F5F5F5F5F5
310
F5F5F5F5F5F5F5F5F5F5F5F5F5F5F5F5F5F5F5F5F5F5F5F5F5F5F5F5F5F5F5F5F5F5F5F5F5F5F5F5F5F5F5F5F5F5F5F5F5F5F5F5F5F5F5F5F5F5F5F5F5F5F5F5F5F5F5F5F5F5F5F5F5F5F5F5F5F5F5F5F5F5F5F5E2F5F5F5F5F5F5F5F5F5F5F5E2E2F5F5F5F5F5F5F5F5F5F5F5E2F5F5F5F5F5F5F5F5F5F5F5F5F5F5F5F5F5
310
F5F5F5F5F5F5F5F5F5F5F5F5F5F5F5F5F5F5F5F5F5F5F5F5F5F5F5F5F5F5F5F5F5F5F5F5F5F5F5F5F5F5F5F5F5F5F5F5F5F5F5F5F5F5F5F5F5F5F5F5F5F5F5F5F5F5F5F5F5F5F5F5F5F5F5F5F5F5F5F5F5F5F5F5F5F5F5F5F5F5F5F5F5F5F5F5F5F5F5F5F5F5F5F5F5F5F5F5F5F5F5F5F5F5F5F5F5F5F5F5F5F5F5F5F5F5F5
310
F5F5F5F5F5F5F5F5F5F5E2F5F5F5F5F5F5F5F5F5F5F5E2E2F5F5F5F5F5F5F5F5F5F5F5E2F5F5F5F5F5F5F5F5F5F5F5F5F5F5F5F5F5F5F5F5F5F5F5F5F5F5F5F5F5F5F5F5F5F5F5F5F5F5F5F5F5F5F5F5F5F5F5F5F5F5F5F5F5F5F5F5F5F5F5F5F5F5F5F5F5F5F5F5F5F5F5F5F5F5F5F5F5F5F5F5F5F5F5F5F5F5F5F5F5F5F5
310
F5F5F5F5F5F5F5F5F5F5F5F5F5F5F5F5F5F5F5F5F5F5F5F5F5F5F5F5F5F5F5F5F5F5F5F5F5F5F5F5F5F5F5F5F5F5F5F5F5F5F5F5F5F5F5F5F5F5F5F5F5F5F5E2F5F5F5F5F5F5F5F5F5F5F5E2E2F5F5F5F5F5F5F5F5F5F5F5E2F5F5F5F5F5F5F5F5F5F5F5F5F5F5F5F5F5F5F5F5F5F5F5F5F5F5F5F5F5F5F5F5F5F5F5F5F5F5
310
F5F5F5F5F5F5F5F5F5F5F5F5F5F5F5F5F5F5F5F5F5F5F5F5F5F5F5F5F5F5F5F5F5F5F5F5F5F5F5F5F5F5F5F5F5F5F5F5F5F5F5F5F5F5F5F5F5F5F5F5F5F5F5F5F5F5F5F5F5F5F5F5F5F5F5F5F5F5F5F5F5F5F5F5F5F5F5F5F5F5F5F5F5F5F5F5F5F5F5F5F5F5F5F5F5F5F5F5F5F5F5F5F5F5F5F5E2F5F5F5F5F5F5F5F5F5F5
310
F5E2E2F5F5F5F5F5F5F5F5F5F5F5F5F5F5F5F5F5F5F5F5F5F5F5F5F5F5F5F5F5F5F5F5F5F5F5F5F5F5F5F5F5F5F5F5F5F5F5F5F5F5F5F5F5F5F5F5F5F5F5F5F5F5F5F5F5F5F5F5F5F5F5F5F5F5F5F5F5F5F5F5F5F5F5F5F5F5F5F5F5F5F5F5F5F5F5F5F5F5F5F5F5F5F5F5F5F5F5F5F5F5F5F5F5F5F5F5F5F5F5F5F5F5F5F5
310
F5F5F5F5F5F5F5F5F5F5F5F5F5F5F5F5F5F5F5F5F5F5F5F5F5F5F5F5F5F5F5F5F5F5F5F5F5F5F5F5F5F5F5F5F5F5F5F5F5F5F5F5F5F5E2E2F5F5F5F5F5F5F5F5F5F5F5F5F5F5F5F5F5F5F5F5F5F5F5F5F5F5F5F5F5F5F5F5F5F5F5F5F5F5F5F5F5F5F5F5F5F5F5F5F5F5F5F5F5F5F5F5F5F5F5F5F5F5F5F5F5F5F5F5F5F5F5
310
F5F5F5F5F5F5F5F5F5F5F5F5F5F5F5F5F5F5F5F5F5F5F5F5F5F5F5F5F5F5F5F5F5F5F5F5F5F5F5F5F5F5F5F5F5F5F5F5F5F5F5F5F5F5F5F5F5F5F5F5F5F5F5F5F5F5F5F5F5F5F5F5F5F5F5F5F5F5F5F5F5F5F5F5F5F5F5F5F5F5F5F5F5F5F5F5F5F5F5F5F5F5F5F5F5F5F5E2E2F5F5F5F5F5F5F5F5F5F5F5F5F5F5F5F5F5F5
310
F5F5F5F5F5F5F5F5F5F5F5F5F5F5F5F5F5F5F5F5F5F5F5F5F5F5F5F5F5F5F5F5F5F5F5F5F5F5F5F5F5F5F5F5F5F5F5F5F5F5F5F5F5F5F5F5F5F5F5F5F5F5F5F5F5F5F5F5F5F5F5F5F5F5F5F5F5F5F5F5F5F5F5F5F5F5F5F5F5F5F5F5F5F5F5F5F5F5F5F5F5F5F5F5F5F5F5F5F5F5F5F5F5F5F5F5F5F5F5F5F5F5F5F5F5F5F5
310
F5F5F5F5F5F5F5F5F5F5F5F5F5F5F5F5F5F5F5F5F5F5F5F5F5F5F5F5F5F5F5F5F5E2E2F5F5F5F5F5F5F5F5F5F5F5F5F5F5F5F5F5F5F5F5F5F5F5F5F5F5F5F5F5F5F5F5F5F5F5F5F5F5F5F5F5F5F5F5F5F5F5F5F5F5F5F5F5F5F5F5F5F5F5F5F5F5F5F5F5F5F5F5F5F5F5F5F5F5F5F5F5F5F5F5F5F5F5F5F5F5F5F5F5F5F5F5
310
F5F5F5F5F5F5F5F5F5F5F5F5F5F5F5F5F5F5F5F5F5F5F5F5F5F5F5F5F5F5F5F5F5F5F5F5F5F5F5F5F5F5F5F5F5F5F5F5F5F5F5F5F5F5F5F5F5F5F5F5F5F5F5F5F5F5F5F5F5F5F5F5F5F5F5F5F5F5F5F5F5F5F5F5F5F5E2E2F5F5F5F5F5F5F5F5F5F5F5F5F5F5F5F5F5F5F5F5F5F5F5F5F5F5F5F5F5F5F5F5F5F5F5F5F5F5F5
310
F5F5F5F5F5F5F5F5F5F5F5F5F5F5F5F5F5F5F5F5F5F5F5F5F5F5F5F5F5F5F5F5F5F5F5F5F5F5F5F5F5F5F5F5F5F5F5F5F5F5F5F5F5F5F5F5F5F5F5F5F5F5F5F5F5F5F5F5F5F5F5F5F5F5F5F5F5F5F5F5F5F5F5F5F5F5F5F5F5F5F5F5F5F5F5F5F5F5F5F5F5F5F5F5F5F5F5F5F5F5F5F5F5F5F5F5F5F5F5F5F5F5F5F5F5F5F5
310
F5F5F5F5F5F5F5F5F5F5F5F5E2E2F5F5F5F5F5F5F5F5F5F5F5F5F5F5F5F5F5F5F5F5F5F5F5F5F5F5F5F5F5F5F5F5F5F5F5F5F5F5F5F5F5F5F5F5F5F5F5F5F5F5F5F5F5F5F5F5F5F5F5F5F5F5F5F5F5F5F5F5F5F5F5F5F5F5F5F5F5F5F5F5F5F5F5F5F5F5F5F5F5F5F5F5F5F5F5F5F5F5F5F5F5F5F5F5F5F5F5F5F5F5F5F5F5
310
F5F5F5F5F5F5F5F5F5F5F5F5F5F5F5F5F5F5F5F5F5F5F5F5F5F5F5F5F5F5F5F5F5F5F5F5F5F5F5F5F5F5F5F5F5F5F5F5F5F5F5F5F5F5F5F5F5F5F5F5F5F5F5F5F5E2E2F5F5F5F5F5F5F5F5F5F5F5F5F5F5F5F5F5F5F5F5F5F5F5F5F5F5F5F5F5F5F5F5F5F5F5F5F5F5F5F5F5F5F5F5F5F5F5F5F5F5F5F5F5F5F5F5F5F5F5F5
310
F5F5F5F5F5F5F5F5F5F5F5F5F5F5F5F5F5F5F5F5F5F5F5F5F5F5F5F5F5F5F5F5F5F5F5F5F5F5F5F5F5F5F5F5F5F5F5F5F5F5F5F5F5F5F5F5F5F5F5F5F5F5F5F5F5F5F5F5F5F5F5F5F5F5F5F5F5F5F5F5F5F5F5F5F5F5F5F5F5F5F5F5F5F5F5F5F5F5F5F5F5F5F5F5F5F5F5F5F5F5F5F5F5F5F5F5F5F5E2E2F5F5F5F5F5F5F5
310
F5F5F5F5F5F5F5F5F5F5F5F5F5F5F5F5F5F5F5F5F5F5F5F5F5F5F5F5F5F5F5F5F5F5F5F5F5F5F5F5F5F5F5F5F5F5F5F5F5F5F5F5F5F5F5F5F5F5F5F5F5F5F5F5F5F5F5F5F5F5F5F5F5F5F5F5F5F5F5F5F5F5F5F5F5F5F5F5F5F5F5F5F5F5F5F5F5F5F5F5F5F5F5F5F5F5F5F5F5F5F5F5F5F5F5F5F5F5F5F5F5F5F5F5F5F5F5
310
F5F5F5F5F5F5F5F5F5F5F5F5F5F5F5F5F5F5F5F5F5F5F5F5F5F5F5F5F5F5F5F5F5F5F5F5F5F5F5F5F5F5F5F5E2E2F5F5F5F5F5F5F5F5F5F5F5E2F5F5F5F5F5F5F5F5F5F5F5F5F5F5F5F5F5F5F5F5F5F5F5F5F5F5F5F5F5F5F5F5F5F5F5F5F5F5F5F5F5F5F5F5F5F5F5F5F5F5F5F5F5F5F5F5F5F5F5F5F5F5F5F5F5F5F5F5F5
310
F5F5F5F5F5F5F5F5F5F5F5F5F5F5F5F5F5F5F5F5F5F5F5F5F5F5F5F5F5F5F5F5F5F5F5F5F5F5F5F5F5F5F5F5F5F5F5F5F5F5F5F5F5F5F5F5F5F5F5F5F5F5F5F5F5F5F5F5F5F5F5F5F5F5F5F5F5F5F5F5F5F5F5F5F5E2F5F5F5F5F5F5F5F5F5F5F5E2E2F5F5F5F5F5F5F5F5F5F5F5E2F5F5F5F5F5F5F5F5F5F5F5F5F5F5F5F5
310
F5F5F5F5F5F5F5F5F5F5F5F5F5F5F5F5F5F5F5F5F5F5F5F5F5F5F5F5F5F5F5F5F5F5F5F5F5F5F5F5F5F5F5F5F5F5F5F5F5F5F5F5F5F5F5F5F5F5F5F5F5F5F5F5F5F5F5F5F5F5F5F5F5F5F5F5F5F5F5F5F5F5F5F5F5F5F5F5F5F5F5F5F5F5F5F5F5F5F5F5F5F5F5F5F5F5F5F5F5F5F5F5F5F5F5F5F5F5F5F5F5F5F5F5F5F5F5
310
F5F5F5F5F5F5F5F5F5F5F5E2F5F5F5F5F5F5F5F5F5F5F5E2E2F5F5F5F5F5F5F5F5F5F5F5E2F5F5F5F5F5F5F5F5F5F5F5F5F5F5F5F5F5F5F5F5F5F5F5F5F5F5F5F5F5F5F5F5F5F5F5F5F5F5F5F5F5F5F5F5F5F5F5F5F5F5F5F5F5F5F5F5F5F5F5F5F5F5F5F5F5F5F5F5F5F5F5F5F5F5F5F5F5F5F5F5F5F5F5F5F5F5F5F5F5F5
310
F5F5F5F5F5F5F5F5F5F5F5F5F5F5F5F5F5F5F5F5F5F5F5F5F5F5F5F5F5F5F5F5F5F5F5F5F5F5F5F5F5F5F5F5F5F5F5F5F5F5F5F5F5F5F5F5F5F5F5F5F5F5F5F5E2F5F5F5F5F5F5F5F5F5F5F5E2E2F5F5F5F5F5F5F5F5F5F5F5E2F5F5F5F5F5F5F5F5F5F5F5F5F5F5F5F5F5F5F5F5F5F5F5F5F5F5F5F5F5F5F5F5F5F5F5F5F5
310
F5F5F5F5F5F5F5F5F5F5F5F5F5F5F5F5F5F5F5F5F5F5F5F5F5F5F5F5F5F5F5F5F5F5F5F5F5F5F5F5F5F5F5F5F5F5F5F5F5F5F5F5F5F5F5F5F5F5F5F5F5F5F5F5F5F5F5F5F5F5F5F5F5F5F5F5F5F5F5F5F5F5F5F5F5F5F5F5F5F5F5F5F5F5F5F5F5F5F5F5F5F5F5F5F5F5F5F5F5F5F5F5F5F5F5F5F5E2F5F5F5F5F5F5F5F5F5
310
F5F5E2E2F5F5F5F5F5F5F5F5F5F5F5E2F5F5F5F5F5F5F5F5F5F5F5F5F5F5F5F5F5F5F5F5F5F5F5F5F5F5F5F5F5F5F5F5F5F5F5F5F5F5F5F5F5F5F5F5F5F5F5F5F5F5F5F5F5F5F5F5F5F5F5F5F5F5F5F5F5F5F5F5F5F5F5F5F5F5F5F5F5F5F5F5F5F5F5F5F5F5F5F5F5F5F5F5F5F5F5F5F5F5F5F5F5F5F5F5F5F5F5F5F5F5F5
310
F5F5F5F5F5F5F5F5F5F5F5F5F5F5F5F5F5F5F5F5F5F5F5F5F5F5F5F5F5F5F5F5F5F5F5F5F5F5F5F5F5F5F5E2F5F5F5F5F5F5F5F5F5F5F5E2E2F5F5F5F5F5F5F5F5F5F5F5E2F5F5F5F5F5F5F5F5F5F5F5F5F5F5F5F5F5F5F5F5F5F5F5F5F5F5F5F5F5F5F5F5F5F5F5F5F5F5F5F5F5F5F5F5F5F5F5F5F5F5F5F5F5F5F5F5F5F5
310
F5F5F5F5F5F5F5F5F5F5F5F5F5F5F5F5F5F5F5F5F5F5F5F5F5F5F5F5F5F5F5F5F5F5F5F5F5F5F5F5F5F5F5F5F5F5F5F5F5F5F5F5F5F5F5F5F5F5F5F5F5F5F5F5F5F5F5F5F5F5F5F5F5F5F5F5F5F5F5F5F5F5F5F5F5F5F5F5F5F5F5F5F5F5F5F5E2F5F5F5F5F5F5F5F5F5F5F5E2E2F5F5F5F5F5F5F5F5F5F5F5E2F5F5F5F5F5
310
F5F5F5F5F5F5F5F5F5F5F5F5F5F5F5F5F5F5F5F5F5F5F5F5F5F5F5F5F5F5F5F5F5F5F5F5F5F5F5F5F5F5F5F5F5F5F5F5F5F5F5F5F5F5F5F5F5F5F5F5F5F5F5F5F5F5F5F5F5F5F5F5F5F5F5F5F5F5F5F5F5F5F5F5F5F5F5F5F5F5F5F5F5F5F5F5F5F5F5F5F5F5F5F5F5F5F5F5F5F5F5F5F5F5F5F5F5F5F5F5F5F5F5F5F5F5F5
310
F5F5F5F5F5F5F5F5F5F5F5F5F5F5F5F5F5F5F5F5F5F5E2F5F5F5F5F5F5F5F5F5F5F5E2E2F5F5F5F5F5F5F5F5F5F5F5E2F5F5F5F5F5F5F5F5F5F5F5F5F5F5F5F5F5F5F5F5F5F5F5F5F5F5F5F5F5F5F5F5F5F5F5F5F5F5F5F5F5F5F5F5F5F5F5F5F5F5F5F5F5F5F5F5F5F5F5F5F5F5F5F5F5F5F5F5F5F5F5F5F5F5F5F5F5F5F5
310
F5F5F5F5F5F5F5F5F5F5F5F5F5F5F5F5F5F5F5F5F5F5F5F5F5F5F5F5F5F5F5F5F5F5F5F5F5F5F5F5F5F5F5F5F5F5F5F5F5F5F5F5F5F5F5F5F5F5F5F5F5F5F5F5F5F5F5F5F5F5F5F5F5F5F5E2F5F5F5F5F5F5F5F5F5F5F5E2E2F5F5F5F5F5F5F5F5F5F5F5E2F5F5F5F5F5F5F5F5F5F5F5F5F5F5F5F5F5F5F5F5F5F5F5F5F5F5
310
F5F5F5F5F5F5F5F5F5F5F5F5F5F5F5F5F5F5F5F5F5F5F5F5F5F5F5F5F5F5F5F5F5F5F5F5F5F5F5F5F5F5F5F5F5F5F5F5F5F5F5F5F5F5F5F5F5F5F5F5F5F5F5F5F5F5F5F5F5F5F5F5F5F5F5F5F5F5F5F5F5F5F5F5F5F5F5F5F5F5F5F5F5F5F5F5F5F5F5F5F5F5F5F5F5F5F5F5F5F5F5F5F5F5F5F5F5F5F5F5F5F5F5F5F5F5F5
310
F5E2F5F5F5F5F5F5F5F5F5F5F5E2E2F5F5F5F5F5F5F5F5F5F5F5E2F5F5F5F5F5F5F5F5F5F5F5F5F5F5F5F5F5F5F5F5F5F5F5F5F5F5F5F5F5F5F5F5F5F5F5F5F5F5F5F5F5F5F5F5F5F5F5F5F5F5F5F5F5F5F5F5F5F5F5F5F5F5F5F5F5F5F5F5F5F5F5F5F5F5F5F5F5F5F5F5F5F5F5F5F5F5F5F5F5F5F5F5F5F5F5F5F5F5F5F5
310
F5F5F5F5F5F5F5F5F5F5F5F5F5F5F5F5F5F5F5F5F5F5F5F5F5F5F5F5F5F5F5F5F5F5F5F5F5F5F5F5F5F5F5F5F5F5F5F5F5F5F5F5F5F5E2F5F5F5F5F5F5F5F5F5F5F5E2E2F5F5F5F5F5F5F5F5F5F5F5E2F5F5F5F5F5F5F5F5F5F5F5F5F5F5F5F5F5F5F5F5F5F5F5F5F5F5F5F5F5F5F5F5F5F5F5F5F5F5F5F5F5F5F5F5F5F5F5
310
F5F5F5F5F5F5F5F5F5F5F5F5F5F5F5F5F5F5F5F5F5F5F5F5F5F5F5F5F5F5F5F5F5F5F5F5F5F5F5F5F5F5F5F5F5F5F5F5F5F5F5F5F5F5F5F5F5F5F5F5F5F5F5F5F5F5F5F5F5F5F5F5F5F5F5F5F5F5F5F5F5F5F5F5F5F5F5F5F5F5F5F5F5F5F5F5F5F5F5F5F5F5F5F5F5F5F5E2F5F5F5F5F5F5F5F5F5F5F5E2E2F5F5F5F5F5F5
310
F5F5F5F5F5E2F5F5F5F5F5F5F5F5F5F5F5F5F5F5F5F5F5F5F5F5F5F5F5F5F5F5F5F5F5F5F5F5F5F5F5F5F5F5F5F5F5F5F5F5F5F5F5F5F5F5F5F5F5F5F5F5F5F5F5F5F5F5F5F5F5F5F5F5F5F5F5F5F5F5F5F5F5F5F5F5F5F5F5F5F5F5F5F5F5F5F5F5F5F5F5F5F5F5F5F5F5F5F5F5F5F5F5F5F5F5F5F5F5F5F5F5F5F5F5F5F5
310
F5F5F5F5F5F5F5F5F5F5F5F5F5F5F5F5F5F5F5F5F5F5F5F5F5F5F5F5F5F5F5F5F5E2F5F5F5F5F5F5F5F5F5F5F5E2E2F5F5F5F5F5F5F5F5F5F5F5E2F5F5F5F5F5F5F5F5F5F5F5F5F5F5F5F5F5F5F5F5F5F5F5F5F5F5F5F5F5F5F5F5F5F5F5F5F5F5F5F5F5F5F5F5F5F5F5F5F5F5F5F5F5F5F5F5F5F5F5F5F5F5F5F5F5F5F5F5
310
F5F5F5F5F5F5F5F5F5F5F5F5F5F5F5F5F5F5F5F5F5F5F5F5F5F5F5F5F5F5F5F5F5F5F5F5F5F5F5F5F5F5F5F5F5F5F5F5F5F5F5F5F5F5F5F5F5F5F5F5F5F5F5F5F5F5F5F5F5F5F5F5F5F5F5F5F5F5F5F5F5F5F5F5F5F5E2F5F5F5F5F5F5F5F5F5F5F5E2E2F5F5F5F5F5F5F5F5F5F5F5E2F5F5F5F5F5F5F5F5F5F5F5F5F5F5F5
310
F5F5F5F5F5F5F5F5F5F5F5F5F5F5F5F5F5F5F5F5F5F5F5F5F5F5F5F5F5F5F5F5F5F5F5F5F5F5F5F5F5F5F5F5F5F5F5F5F5F5F5F5F5F5F5F5F5F5F5F5F5F5F5F5F5F5F5F5F5F5F5F5F5F5F5F5F5F5F5F5F5F5F5F5F5F5F5F5F5F5F5F5F5F5F5F5F5F5F5F5F5F5F5F5F5F5F5F5F5F5F5F5F5F5F5F5F5F5F5F5F5F5F5F5F5F5F5
310
F5F5F5F5F5F5F5F5F5F5F5F5E2F5F5F5F5F5F5F5F5F5F5F5E2E2F5F5F5F5F5F5F5F5F5F5F5E2F5F5F5F5F5F5F5F5F5F5F5F5F5F5F5F5F5F5F5F5F5F5F5F5F5F5F5F5F5F5F5F5F5F5F5F5F5F5F5F5F5F5F5F5F5F5F5F5F5F5F5F5F5F5F5F5F5F5F5F5F5F5F5F5F5F5F5F5F5F5F5F5F5F5F5F5F5F5F5F5F5F5F5F5F5F5F5F5F5
310
F5F5F5F5F5F5F5F5F5F5F5F5F5F5F5F5F5F5F5F5F5F5F5F5F5F5F5F5F5F5F5F5F5F5F5F5F5F5F5F5F5F5F5F5F5F5F5F5F5F5F5F5F5F5F5F5F5F5F5F5F5F5F5F5F5E2F5F5F5F5F5F5F5F5F5F5F5E2E2F5F5F5F5F5F5F5F5F5F5F5F5F5F5F5F5F5F5F5F5F5F5F5F5F5F5F5F5F5F5F5F5F5F5F5F5F5F5F5F5F5F5F5F5F5F5F5F5
310
F5F5F5F5F5F5F5F5F5F5F5F5F5F5F5F5F5F5F5F5F5F5F5F5F5F5F5F5F5F5F5F5F5F5F5F5F5F5F5F5F5F5F5F5F5F5F5F5F5F5F5F5F5F5F5F5F5F5F5F5F5F5F5F5F5F5F5F5F5F5F5F5F5F5F5F5F5F5F5F5F5F5F5F5F5F5F5F5F5F5F5F5F5F5F5F5F5F5F5F5F5F5F5F5F5F5F5F5F5F5F5F5F5F5F5F5F5F5F5F5F5F5F5F5F5F5F5
310
F5F5F5E2E2F5F5F5F5F5F5F5F5F5F5F5F5F5F5F5F5F5F5F5F5F5F5F5F5F5F5F5F5F5F5F5F5F5F5F5F5F5F5F5F5F5F5F5F5F5F5F5F5F5F5F5F5F5F5F5F5F5F5F5F5F5F5F5F5F5F5F5F5F5F5F5F5F5F5F5F5F5F5F5F5F5F5F5F5F5F5F5F5F5F5F5F5F5F5F5F5F5F5F5F5F5F5F5F5F5F5F5F5F5F5F5F5F5F5F5F5F5F5F5F5F5F5
310
F5F5F5F5F5F5F5F5F5F5F5F5F5F5F5F5F5F5F5F5F5F5F5F5F5F5F5F5F5F5F5F5F5F5F5F5F5F5F5F5F5F5F5F5F5F5F5F5F5F5F5F5F5F5F5F5E2E2F5F5F5F5F5F5F5F5F5F5F5F5F5F5F5F5F5F5F5F5F5F5F5F5F5F5F5F5F5F5F5F5F5F5F5F5F5F5F5F5F5F5F5F5F5F5F5F5F5F5F5F5F5F5F5F5F5F5F5F5F5F5F5F5F5F5F5F5F5
310
F5F5F5F5F5F5F5F5F5F5F5F5F5F5F5F5F5F5F5F5F5F5F5F5F5F5F5F5F5F5F5F5F5F5F5F5F5F5F5F5F5F5F5F5F5F5F5F5F5F5F5F5F5F5F5F5F5F5F5F5F5F5F5F5F5F5F5F5F5F5F5F5F5F5F5F5F5F5F5F5F5F5F5F5F5F5F5F5F5F5F5F5F5F5F5F5F5F5F5F5F5F5F5F5F5F5F5F5F5E2E2F5F5F5F5F5F5F5F5F5F5F5F5F5F5F5F5
310
F5F5F5F5F5F5F5F5F5F5F5F5F5F5F5F5F5F5F5F5F5F5F5F5F5F5F5F5F5F5F5F5F5F5F5F5F5F5F5F5F5F5F5F5F5F5F5F5F5F5F5F5F5F5F5F5F5F5F5F5F5F5F5F5F5F5F5F5F5F5F5F5F5F5F5F5F5F5F5F5F5F5F5F5F5F5F5F5F5F5F5F5F5F5F5F5F5F5F5F5F5F5F5F5F5F5F5F5F5F5F5F5F5F5F5F5F5F5F5F5F5F5F5F5F5F5F5
310
F5F5F5F5F5F5F5F5F5F5F5F5F5F5F5F5F5F5F5F5F5F5F5F5F5F5F5F5F5F5F5F5F5F5F5E2E2F5F5F5F5F5F5F5F5F5F5F5F5F5F5F5F5F5F5F5F5F5F5F5F5F5F5F5F5F5F5F5F5F5F5F5F5F5F5F5F5F5F5F5F5F5F5F5F5F5F5F5F5F5F5F5F5F5F5F5F5F5F5F5F5F5F5F5F5F5F5F5F5F5F5F5F5F5F5F5F5F5F5F5F5F5F5F5F5F5F5
310
F5F5F5F5F5F5F5F5F5F5F5F5F5F5F5F5F5F5F5F5F5F5F5F5F5F5F5F5F5F5F5F5F5F5F5F5F5F5F5F5F5F5F5F5F5F5F5F5F5F5F5F5F5F5F5F5F5F5F5F5F5F5F5F5F5F5F5F5F5F5F5F5F5F5F5F5F5F5F5F5F5F5F5F5F5F5F5F5E2E2F5F5F5F5F5F5F5F5F5F5F5F5F5F5F5F5F5F5F5F5F5F5F5F5F5F5F5F5F5F5F5F5F5F5F5F5F5
310
F5F5F5F5F5F5F5F5F5F5F5F5F5F5F5F5F5F5F5F5F5F5F5F5F5F5F5F5F5F5F5F5F5F5F5F5F5F5F5F5F5F5F5F5F5F5F5F5F5F5F5F5F5F5F5F5F5F5F5F5F5F5F5F5F5F5F5F5F5F5F5F5F5F5F5F5F5F5F5F5F5F5F5F5F5F5F5F5F5F5F5F5F5F5F5F5F5F5F5F5F5F5F5F5F5F5F5F5F5F5F5F5F5F5F5F5F5F5F5F5F5F5F5F5F5F5F5
310
F5F5F5F5F5F5F5F5F5F5F5F5F5F5E2E2F5F5F5F5F5F5F5F5F5F5F5F5F5F5F5F5F5F5F5F5F5F5F5F5F5F5F5F5F5F5F5F5F5F5F5F5F5F5F5F5F5F5F5F5F5F5F5F5F5F5F5F5F5F5F5F5F5F5F5F5F5F5F5F5F5F5F5F5F5F5F5F5F5F5F5F5F5F5F5F5F5F5F5F5F5F5F5F5F5F5F5F5F5F5F5F5F5F5F5F5F5F5F5F5F5F5F5F5F5F5F5
310
F5F5F5F5F5F5F5F5F5F5F5F5F5F5F5F5F5F5F5F5F5F5F5F5F5F5F5F5F5F5F5F5F5F5F5F5F5F5F5F5F5F5F5F5F5F5F5F5F5F5F5F5F5F5F5F5F5F5F5F5F5F5F5F5F5F5F5E2E2F5F5F5F5F5F5F5F5F5F5F5F5F5F5F5F5F5F5F5F5F5F5F5F5F5F5F5F5F5F5F5F5F5F5F5F5F5F5F5F5F5F5F5F5F5F5F5F5F5F5F5F5F5F5F5F5F5F5
310
F5F5F5F5F5F5F5F5F5F5F5F5F5F5F5F5F5F5F5F5F5F5F5F5F5F5F5F5F5F5F5F5F5F5F5F5F5F5F5F5F5F5F5F5F5F5F5F5F5F5F5F5F5F5F5F5F5F5F5F5F5F5F5F5F5F5F5F5F5F5F5F5F5F5F5F5F5F5F5F5F5F5F5F5F5F5F5F5F5F5F5F5F5F5F5F5F5F5F5F5F5F5F5F5F5F5F5F5F5F5F5F5F5F5F5F5F5F5F5F5E2E2F5F5F5F5F5
310
F5F5F5F5F5F5E2F5F5F5F5F5F5F5F5F5F5F5F5F5F5F5F5F5F5F5F5F5F5F5F5F5F5F5F5F5F5F5F5F5F5F5F5F5F5F5F5F5F5F5F5F5F5F5F5F5F5F5F5F5F5F5F5F5F5F5F5F5F5F5F5F5F5F5F5F5F5F5F5F5F5F5F5F5F5F5F5F5F5F5F5F5F5F5F5F5F5F5F5F5F5F5F5F5F5F5F5F5F5F5F5F5F5F5F5F5F5F5F5F5F5F5F5F5F5F5F5
310
F5F5F5F5F5F5F5F5F5F5F5F5F5F5F5F5F5F5F5F5F5F5F5F5F5F5F5F5F5F5F5F5F5F5E2F5F5F5F5F5F5F5F5F5F5F5E2E2F5F5F5F5F5F5F5F5F5F5F5E2F5F5F5F5F5F5F5F5F5F5F5F5F5F5F5F5F5F5F5F5F5F5F5F5F5F5F5F5F5F5F5F5F5F5F5F5F5F5F5F5F5F5F5F5F5F5F5F5F5F5F5F5F5F5F5F5F5F5F5F5F5F5F5F5F5F5F5
310
F5F5F5F5F5F5F5F5F5F5F5F5F5F5F5F5F5F5F5F5F5F5F5F5F5F5F5F5F5F5F5F5F5F5F5F5F5F5F5F5F5F5F5F5F5F5F5F5F5F5F5F5F5F5F5F5F5F5F5F5F5F5F5F5F5F5F5F5F5F5F5F5F5F5F5F5F5F5F5F5F5F5F5F5F5F5F5E2F5F5F5F5F5F5F5F5F5F5F5E2E2F5F5F5F5F5F5F5F5F5F5F5E2F5F5F5F5F5F5F5F5F5F5F5F5F5F5
310
F5F5F5F5F5F5F5F5F5F5F5F5F5F5F5F5F5F5F5F5F5F5F5F5F5F5F5F5F5F5F5F5F5F5F5F5F5F5F5F5F5F5F5F5F5F5F5F5F5F5F5F5F5F5F5F5F5F5F5F5F5F5F5F5F5F5F5F5F5F5F5F5F5F5F5F5F5F5F5F5F5F5F5F5F5F5F5F5F5F5F5F5F5F5F5F5F5F5F5F5F5F5F5F5F5F5F5F5F5F5F5F5F5F5F5F5F5F5F5F5F5F5F5F5F5F5F5
310
F5F5F5F5F5F5F5F5F5F5F5F5F5E2F5F5F5F5F5F5F5F5F5F5F5E2E2F5F5F5F5F5F5F5F5F5F5F5E2F5F5F5F5F5F5F5F5F5F5F5F5F5F5F5F5F5F5F5F5F5F5F5F5F5F5F5F5F5F5F5F5F5F5F5F5F5F5F5F5F5F5F5F5F5F5F5F5F5F5F5F5F5F5F5F5F5F5F5F5F5F5F5F5F5F5F5F5F5F5F5F5F5F5F5F5F5F5F5F5F5F5F5F5F5F5F5F5
310
F5F5F5F5F5F5F5F5F5F5F5F5F5F5F5F5F5F5F5F5F5F5F5F5F5F5F5F5F5F5F5F5F5F5F5F5F5F5F5F5F5F5F5F5F5F5F5F5F5F5F5F5F5F5F5F5F5F5F5F5F5F5F5F5F5F5E2F5F5F5F5F5F5F5F5F5F5F5E2E2F5F5F5F5F5F5F5F5F5F5F5E2F5F5F5F5F5F5F5F5F5F5F5F5F5F5F5F5F5F5F5F5F5F5F5F5F5F5F5F5F5F5F5F5F5F5F5
310
F5F5F5F5F5F5F5F5F5F5F5F5F5F5F5F5F5F5F5F5F5F5F5F5F5F5F5F5F5F5F5F5F5F5F5F5F5F5F5F5F5F5F5F5F5F5F5F5F5F5F5F5F5F5F5F5F5F5F5F5F5F5F5F5F5F5F5F5F5F5F5F5F5F5F5F5F5F5F5F5F5F5F5F5F5F5F5F5F5F5F5F5F5F5F5F5F5F5F5F5F5F5F5F5F5F5F5F5F5F5F5F5F5F5F5F5F5F5F5E2F5F5F5F5F5F5F5
310
F5F5F5F5E2E2F5F5F5F5F5F5F5F5F5F5F5E2F5F5F5F5F5F5F5F5F5F5F5F5F5F5F5F5F5F5F5F5F5F5F5F5F5F5F5F5F5F5F5F5F5F5F5F5F5F5F5F5F5F5F5F5F5F5F5F5F5F5F5F5F5F5F5F5F5F5F5F5F5F5F5F5F5F5F5F5F5F5F5F5F5F5F5F5F5F5F5F5F5F5F5F5F5F5F5F5F5F5F5F5F5F5F5F5F5F5F5F5F5F5F5F5F5F5F5F5F5
310
F5F5F5F5F5F5F5F5F5F5F5F5F5F5F5F5F5F5F5F5F5F5F5F5F5F5F5F5F5F5F5F5F5F5F5F5F5F5F5F5F5F5F5F5F5E2F5F5F5F5F5F5F5F5F5F5F5E2E2F5F5F5F5F5F5F5F5F5F5F5E2F5F5F5F5F5F5F5F5F5F5F5F5F5F5F5F5F5F5F5F5F5F5F5F5F5F5F5F5F5F5F5F5F5F5F5F5F5F5F5F5F5F5F5F5F5F5F5F5F5F5F5F5F5F5F5F5
310
F5F5F5F5F5F5F5F5F5F5F5F5F5F5F5F5F5F5F5F5F5F5F5F5F5F5F5F5F5F5F5F5F5F5F5F5F5F5F5F5F5F5F5F5F5F5F5F5F5F5F5F5F5F5F5F5F5F5F5F5F5F5F5F5F5F5F5F5F5F5F5F5F5F5F5F5F5F5F5F5F5F5F5F5F5F5F5F5F5F5F5F5F5F5F5F5F5F5E2F5F5F5F5F5F5F5F5F5F5F5E2E2F5F5F5F5F5F5F5F5F5F5F5E2E2E2E2
310
E2E2E2E2E2F5F5F5F5F5F5F5F5F5E2E2E2E2E2E2E2E2E2E2E2E2E2E2E2E2E2F5F5F5F5F5F5F5F5F5E2E2E2E2E2E2E2E2E2E2E2E2E2E2E2E2F5F5F5F5F5F5F5F5F5F5E2E2E2E2E2E2E2E2E2E2E2E2E2E2E2E2F5F5F5F5F5F5F5F5F5F5E2E2E2E2E2E2E2E2E2E2E2E2E2E2E2E2F5F5F5F5F5F5F5F5F5E2E2E2E2E2E2E2E2E2E2
310
E2E2E2E2E2E2E2F5F5F5F5F5F5F5F5F5E2E2E2E2E2E2E2E2E2F5F5F5F5F5F5F5F5F5F5F5E2E2F5F5F5F5F5F5F5F5F5F5F5F5F5F5F5F5F5F5F5F5F5F5F5F5F5F5F5F5F5F5F5F5F5F5F5F5F5F5F5F5F5F5F5F5F5F5F5F5F5F5F5F5F5F5F5F5F5F5F5F5F5F5F5F5F5F5F5F5F5F5F5F5F5F5F5F5F5F5F5F5F5F5F5F5F5F5F5F5F5
310
F5F5F5F5F5F5F5F5F5F5F5F5F5F5F5F5F5F5F5F5F5F5F5F5F5F5F5F5F5F5F5F5F5F5F5F5F5F5F5F5F5F5F5F5F5F5F5F5F5F5F5F5F5F5F5F5F5F5F5F5F5F5F5F5F5F5F5F5F5F5F5F5F5F5F5F5F5F5F5F5F5F5F5F5F5F5F5F5F5E2E2F5F5F5F5F5F5F5F5F5F5F5F5F5F5F5F5F5F5F5F5F5F5F5F5F5F5F5F5F5F5F5F5F5F5F5F5
310
F5F5F5F5F5F5F5F5F5F5F5F5F5F5F5F5F5F5F5F5F5F5F5F5F5F5F5F5F5F5F5F5F5F5F5F5F5F5F5F5F5F5F5F5F5F5F5F5F5F5F5F5F5F5F5F5F5F5F5F5F5F5F5F5F5F5F5F5F5F5F5F5F5F5F5F5F5F5F5F5F5F5F5F5F5F5F5F5F5F5F5F5F5F5F5F5F5F5F5F5F5F5F5F5F5F5F5F5F5F5F5F5F5F5F5F5F5F5F5F5F5F5F5F5F5F5F5
310
F5F5F5F5F5F5F5F5F5F5F5F5F5F5F5E2E2F5F5F5F5F5F5F5F5F5F5F5F5F5F5F5F5F5F5F5F5F5F5F5F5F5F5F5F5F5F5F5F5F5F5F5F5F5F5F5F5F5F5F5F5F5F5F5F5F5F5F5F5F5F5F5F5F5F5F5F5F5F5F5F5F5F5F5F5F5F5F5F5F5F5F5F5F5F5F5F5F5F5F5F5F5F5F5F5F5F5F5F5F5F5F5F5F5F5F5F5F5F5F5F5F5F5F5F5F5F5
310
F5F5F5F5F5F5F5F5F5F5F5F5F5F5F5F5F5F5F5F5F5F5F5F5F5F5F5F5F5F5F5F5F5F5F5F5F5F5F5F5F5F5F5F5F5F5F5F5F5F5F5F5F5F5F5F5F5F5F5F5F5F5F5F5F5F5F5F5E2E2F5F5F5F5F5F5F5F5F5F5F5F5F5F5F5F5F5F5F5F5F5F5F5F5F5F5F5F5F5F5F5F5F5F5F5F5F5F5F5F5F5F5F5F5F5F5F5F5F5F5F5F5F5F5F5F5F5
310
F5F5F5F5F5F5F5F5F5F5F5F5F5F5F5F5F5F5F5F5F5F5F5F5F5F5F5F5F5F5F5F5F5F5F5F5F5F5F5F5F5F5F5F5F5F5F5F5F5F5F5F5F5F5F5F5F5F5F5F5F5F5F5F5F5F5F5F5F5F5F5F5F5F5F5F5F5F5F5F5F5F5F5F5F5F5F5F5F5F5F5F5F5F5F5F5F5F5F5F5F5F5F5F5F5F5F5F5F5F5F5F5F5F5F5F5F5F5F5F5F5E2E2E2E2E2E2
310
E2E2E2E2E2E2E2E2E2E2E2E2E2E2E2E2E2E2E2E2E2E2E2E2E2E2E2E2E2E2E2E2E2E2E2E2E2E2E2E2E2E2E2E2E2E2E2E2E2E2E2E2E2E2E2E2E2E2E2E2E2E2E2E2E2E2E2E2E2E2E2E2E2E2E2E2E2E2E2E2E2E2E2E2E2E2E2E2E2E2E2E2E2E2E2E2E2E2E2E2E2E2E2E2E2E2E2E2E2E2E2E2E2E2E2E2E2E2E2E2E2E2E2E2E2E2E2
310
E2E2E2E2E2E2E2E2E2E2E2E2E2E2E2E2E2E2E2E2E2E2E2E2E2E2E2E2E2E2E2E2E2E2E2E2E2E2E2E2E2E2E2E2E2E2E2E2
  0
ENDSEC
  0
EOF
