  0
SECTION
  2
HEADER
  9
$ACADVER
  1
AC1021
  9
$ACADMAINTVER
 70
     1
  9
$DWGCODEPAGE
  3
ANSI_932
  9
$LASTSAVEDBY
  1
damet
  9
$INSBASE
 10
0.0
 20
0.0
 30
0.0
  9
$EXTMIN
 10
-13580.71181872773
 20
1859.292102415261
 30
0.0
  9
$EXTMAX
 10
-5027.8404442757
 20
3248.036823499878
 30
0.0
  9
$LIMMIN
 10
0.0
 20
0.0
  9
$LIMMAX
 10
0.0
 20
0.0
  9
$ORTHOMODE
 70
     1
  9
$REGENMODE
 70
     1
  9
$FILLMODE
 70
     1
  9
$QTEXTMODE
 70
     0
  9
$MIRRTEXT
 70
     1
  9
$LTSCALE
 40
5.08
  9
$ATTMODE
 70
     1
  9
$TEXTSIZE
 40
0.2
  9
$TRACEWID
 40
1.0
  9
$TEXTSTYLE
  7
Standard
  9
$CLAYER
  8
貫
  9
$CELTYPE
  6
ByLayer
  9
$CECOLOR
 62
   256
  9
$CELTSCALE
 40
1.0
  9
$DISPSILH
 70
     0
  9
$DIMSCALE
 40
1.0
  9
$DIMASZ
 40
1.500683593749999
  9
$DIMEXO
 40
8.0
  9
$DIMDLI
 40
10.16
  9
$DIMRND
 40
0.0
  9
$DIMDLE
 40
1.59
  9
$DIMEXE
 40
3.18
  9
$DIMTP
 40
0.0
  9
$DIMTM
 40
0.0
  9
$DIMTXT
 40
24.0
  9
$DIMCEN
 40
0.0
  9
$DIMTSZ
 40
0.0
  9
$DIMTOL
 70
     0
  9
$DIMLIM
 70
     0
  9
$DIMTIH
 70
     0
  9
$DIMTOH
 70
     0
  9
$DIMSE1
 70
     0
  9
$DIMSE2
 70
     0
  9
$DIMTAD
 70
     1
  9
$DIMZIN
 70
    11
  9
$DIMBLK
  1
DOT
  9
$DIMASO
 70
     1
  9
$DIMSHO
 70
     1
  9
$DIMPOST
  1
<>
  9
$DIMAPOST
  1
[]
  9
$DIMALT
 70
     0
  9
$DIMALTD
 70
     3
  9
$DIMALTF
 40
0.0393700787401575
  9
$DIMLFAC
 40
1.0
  9
$DIMTOFL
 70
     1
  9
$DIMTVP
 40
0.0
  9
$DIMTIX
 70
     1
  9
$DIMSOXD
 70
     0
  9
$DIMSAH
 70
     0
  9
$DIMBLK1
  1

  9
$DIMBLK2
  1

  9
$DIMSTYLE
  2
Yamatoya
  9
$DIMCLRD
 70
     0
  9
$DIMCLRE
 70
     0
  9
$DIMCLRT
 70
     0
  9
$DIMTFAC
 40
1.0
  9
$DIMGAP
 40
1.587499999999999
  9
$DIMJUST
 70
     0
  9
$DIMSD1
 70
     0
  9
$DIMSD2
 70
     0
  9
$DIMTOLJ
 70
     1
  9
$DIMTZIN
 70
    11
  9
$DIMALTZ
 70
    15
  9
$DIMALTTZ
 70
    15
  9
$DIMUPT
 70
     0
  9
$DIMDEC
 70
     0
  9
$DIMTDEC
 70
     0
  9
$DIMALTU
 70
     4
  9
$DIMALTTD
 70
     3
  9
$DIMTXSTY
  7
ヒラギノ角ゴ Pro W3
  9
$DIMAUNIT
 70
     0
  9
$DIMADEC
 70
     2
  9
$DIMALTRND
 40
0.0
  9
$DIMAZIN
 70
     0
  9
$DIMDSEP
 70
    46
  9
$DIMATFIT
 70
     0
  9
$DIMFRAC
 70
     2
  9
$DIMLDRBLK
  1
DOT
  9
$DIMLUNIT
 70
     2
  9
$DIMLWD
 70
    -2
  9
$DIMLWE
 70
    -2
  9
$DIMTMOVE
 70
     0
  9
$DIMFXL
 40
1.0
  9
$DIMFXLON
 70
     0
  9
$DIMJOGANG
 40
0.7853981633974483
  9
$DIMTFILL
 70
     0
  9
$DIMTFILLCLR
 70
     0
  9
$DIMARCSYM
 70
     0
  9
$DIMLTYPE
  6

  9
$DIMLTEX1
  6

  9
$DIMLTEX2
  6

  9
$LUNITS
 70
     2
  9
$LUPREC
 70
     4
  9
$SKETCHINC
 40
0.1
  9
$FILLETRAD
 40
10.0
  9
$AUNITS
 70
     0
  9
$AUPREC
 70
     0
  9
$MENU
  1
acad
  9
$ELEVATION
 40
0.0
  9
$PELEVATION
 40
0.0
  9
$THICKNESS
 40
0.0
  9
$LIMCHECK
 70
     0
  9
$CHAMFERA
 40
1.0
  9
$CHAMFERB
 40
1.0
  9
$CHAMFERC
 40
0.0
  9
$CHAMFERD
 40
0.0
  9
$SKPOLY
 70
     0
  9
$TDCREATE
 40
2455276.758078704
  9
$TDUCREATE
 40
2455276.383078704
  9
$TDUPDATE
 40
2458611.641970660
  9
$TDUUPDATE
 40
2458611.266970660
  9
$TDINDWG
 40
3.3531891898
  9
$TDUSRTIMER
 40
3.3531891204
  9
$USRTIMER
 70
     1
  9
$ANGBASE
 50
0.0
  9
$ANGDIR
 70
     0
  9
$PDMODE
 70
     1
  9
$PDSIZE
 40
-2.0
  9
$PLINEWID
 40
0.0
  9
$SPLFRAME
 70
     0
  9
$SPLINETYPE
 70
     6
  9
$SPLINESEGS
 70
     8
  9
$HANDSEED
  5
2482F
  9
$SURFTAB1
 70
     6
  9
$SURFTAB2
 70
     6
  9
$SURFTYPE
 70
     6
  9
$SURFU
 70
     6
  9
$SURFV
 70
     6
  9
$UCSBASE
  2

  9
$UCSNAME
  2

  9
$UCSORG
 10
0.0
 20
0.0
 30
0.0
  9
$UCSXDIR
 10
1.0
 20
0.0
 30
0.0
  9
$UCSYDIR
 10
0.0
 20
1.0
 30
0.0
  9
$UCSORTHOREF
  2

  9
$UCSORTHOVIEW
 70
     0
  9
$UCSORGTOP
 10
0.0
 20
0.0
 30
0.0
  9
$UCSORGBOTTOM
 10
0.0
 20
0.0
 30
0.0
  9
$UCSORGLEFT
 10
0.0
 20
0.0
 30
0.0
  9
$UCSORGRIGHT
 10
0.0
 20
0.0
 30
0.0
  9
$UCSORGFRONT
 10
0.0
 20
0.0
 30
0.0
  9
$UCSORGBACK
 10
0.0
 20
0.0
 30
0.0
  9
$PUCSBASE
  2

  9
$PUCSNAME
  2

  9
$PUCSORG
 10
0.0
 20
0.0
 30
0.0
  9
$PUCSXDIR
 10
1.0
 20
0.0
 30
0.0
  9
$PUCSYDIR
 10
0.0
 20
1.0
 30
0.0
  9
$PUCSORTHOREF
  2

  9
$PUCSORTHOVIEW
 70
     0
  9
$PUCSORGTOP
 10
0.0
 20
0.0
 30
0.0
  9
$PUCSORGBOTTOM
 10
0.0
 20
0.0
 30
0.0
  9
$PUCSORGLEFT
 10
0.0
 20
0.0
 30
0.0
  9
$PUCSORGRIGHT
 10
0.0
 20
0.0
 30
0.0
  9
$PUCSORGFRONT
 10
0.0
 20
0.0
 30
0.0
  9
$PUCSORGBACK
 10
0.0
 20
0.0
 30
0.0
  9
$USERI1
 70
     0
  9
$USERI2
 70
     0
  9
$USERI3
 70
     0
  9
$USERI4
 70
     0
  9
$USERI5
 70
     0
  9
$USERR1
 40
0.0
  9
$USERR2
 40
0.0
  9
$USERR3
 40
0.0
  9
$USERR4
 40
0.0
  9
$USERR5
 40
0.0
  9
$WORLDVIEW
 70
     1
  9
$SHADEDGE
 70
     3
  9
$SHADEDIF
 70
    70
  9
$TILEMODE
 70
     1
  9
$MAXACTVP
 70
    64
  9
$PINSBASE
 10
0.0
 20
0.0
 30
0.0
  9
$PLIMCHECK
 70
     0
  9
$PEXTMIN
 10
25.69999999999999
 20
19.5
 30
0.0
  9
$PEXTMAX
 10
231.3
 20
175.5
 30
0.0
  9
$PLIMMIN
 10
-20.0
 20
-7.5
  9
$PLIMMAX
 10
277.0
 20
202.5
  9
$UNITMODE
 70
     0
  9
$VISRETAIN
 70
     0
  9
$PLINEGEN
 70
     1
  9
$PSLTSCALE
 70
     1
  9
$TREEDEPTH
 70
  3020
  9
$CMLSTYLE
  2
Standard
  9
$CMLJUST
 70
     0
  9
$CMLSCALE
 40
1.0
  9
$PROXYGRAPHICS
 70
     0
  9
$MEASUREMENT
 70
     1
  9
$CELWEIGHT
370
     5
  9
$ENDCAPS
280
     0
  9
$JOINSTYLE
280
     0
  9
$LWDISPLAY
290
     1
  9
$INSUNITS
 70
     4
  9
$HYPERLINKBASE
  1

  9
$STYLESHEET
  1

  9
$XEDIT
290
     1
  9
$CEPSNTYPE
380
     0
  9
$PSTYLEMODE
290
     1
  9
$FINGERPRINTGUID
  2

  9
$VERSIONGUID
  2
{4F4F5180-55A0-42D2-AE32-62502C136F57}
  9
$EXTNAMES
290
     1
  9
$PSVPSCALE
 40
0.0
  9
$OLESTARTUP
290
     0
  9
$SORTENTS
280
   127
  9
$INDEXCTL
280
     0
  9
$HIDETEXT
280
     0
  9
$XCLIPFRAME
290
     0
  9
$HALOGAP
280
     0
  9
$OBSCOLOR
 70
   257
  9
$OBSLTYPE
280
     0
  9
$INTERSECTIONDISPLAY
280
     0
  9
$INTERSECTIONCOLOR
 70
   257
  9
$DIMASSOC
280
     1
  9
$PROJECTNAME
  1

  9
$CAMERADISPLAY
290
     0
  9
$LENSLENGTH
 40
50.0
  9
$CAMERAHEIGHT
 40
0.0
  9
$STEPSPERSEC
 40
2.0
  9
$STEPSIZE
 40
6.0
  9
$3DDWFPREC
 40
2.0
  9
$PSOLWIDTH
 40
0.25
  9
$PSOLHEIGHT
 40
4.0
  9
$LOFTANG1
 40
1.570796326794896
  9
$LOFTANG2
 40
1.570796326794896
  9
$LOFTMAG1
 40
0.0
  9
$LOFTMAG2
 40
0.0
  9
$LOFTPARAM
 70
     7
  9
$LOFTNORMALS
280
     1
  9
$LATITUDE
 40
37.795
  9
$LONGITUDE
 40
-122.394
  9
$NORTHDIRECTION
 40
0.0
  9
$TIMEZONE
 70
 -8000
  9
$LIGHTGLYPHDISPLAY
280
     1
  9
$TILEMODELIGHTSYNCH
280
     1
  9
$CMATERIAL
347
96E
  9
$SOLIDHIST
280
     1
  9
$SHOWHIST
280
     1
  9
$DWFFRAME
280
     2
  9
$DGNFRAME
280
     0
  9
$REALWORLDSCALE
290
     1
  9
$INTERFERECOLOR
 62
     1
  9
$INTERFEREOBJVS
345
97B
  9
$INTERFEREVPVS
346
978
  9
$CSHADOW
280
     0
  9
$SHADOWPLANELOCATION
 40
0.0
  0
ENDSEC
  0
SECTION
  2
CLASSES
  0
CLASS
  1
IMAGE
  2
AcDbRasterImage
  3
ISM
 90
     2175
 91
        0
280
     0
281
     1
  0
CLASS
  1
DICTIONARYVAR
  2
AcDbDictionaryVar
  3
ObjectDBX Classes
 90
        0
 91
        2
280
     0
281
     0
  0
CLASS
  1
RASTERVARIABLES
  2
AcDbRasterVariables
  3
ISM
 90
        0
 91
        0
280
     0
281
     0
  0
CLASS
  1
IMAGEDEF
  2
AcDbRasterImageDef
  3
ISM
 90
        0
 91
        0
280
     0
281
     0
  0
CLASS
  1
IMAGEDEF_REACTOR
  2
AcDbRasterImageDefReactor
  3
ISM
 90
        1
 91
        0
280
     0
281
     0
  0
CLASS
  1
IDBUFFER
  2
AcDbIdBuffer
  3
ObjectDBX Classes
 90
        0
 91
        0
280
     0
281
     0
  0
CLASS
  1
SPATIAL_FILTER
  2
AcDbSpatialFilter
  3
ObjectDBX Classes
 90
        0
 91
        0
280
     0
281
     0
  0
CLASS
  1
SORTENTSTABLE
  2
AcDbSortentsTable
  3
ObjectDBX Classes
 90
        0
 91
        2
280
     0
281
     0
  0
CLASS
  1
LAYER_INDEX
  2
AcDbLayerIndex
  3
ObjectDBX Classes
 90
        0
 91
        0
280
     0
281
     0
  0
CLASS
  1
SPATIAL_INDEX
  2
AcDbSpatialIndex
  3
ObjectDBX Classes
 90
        0
 91
        0
280
     0
281
     0
  0
CLASS
  1
OBJECT_PTR
  2
CAseDLPNTableRecord
  3
ASE-LPNTableRecord
 90
        1
 91
        0
280
     0
281
     0
  0
CLASS
  1
PLOTSETTINGS
  2
AcDbPlotSettings
  3
ObjectDBX Classes
 90
        0
 91
        0
280
     0
281
     0
  0
CLASS
  1
ACDBDICTIONARYWDFLT
  2
AcDbDictionaryWithDefault
  3
ObjectDBX Classes
 90
        0
 91
        1
280
     0
281
     0
  0
CLASS
  1
WIPEOUT
  2
AcDbWipeout
  3
"WipeOut|Product Desc: Object Enabler for WipeOut entity                        |Company: Autodesk, Inc.                        |WEB Address: www.autodesk.com"
 90
     2175
 91
        0
280
     0
281
     1
  0
CLASS
  1
WIPEOUTVARIABLES
  2
AcDbWipeoutVariables
  3
"WipeOut|Product Desc:     WipeOut Dbx Application|Company:          Autodesk, Inc.|WEB Address:      www.autodesk.com"
 90
        0
 91
        1
280
     0
281
     0
  0
CLASS
  1
RTEXT
  2
RText
  3
RText|AutoCAD Express Tool|expresstools@autodesk.com
 90
        0
 91
        0
280
     0
281
     1
  0
CLASS
  1
ARCALIGNEDTEXT
  2
AcDbArcAlignedText
  3
ATEXT|AutoCAD Express Tool|expresstools@autodesk.com
 90
        0
 91
        0
280
     0
281
     1
  0
CLASS
  1
MATERIAL
  2
AcDbMaterial
  3
ObjectDBX Classes
 90
     1024
 91
        3
280
     0
281
     0
  0
CLASS
  1
VISUALSTYLE
  2
AcDbVisualStyle
  3
ObjectDBX Classes
 90
     4095
 91
       16
280
     0
281
     0
  0
CLASS
  1
TABLESTYLE
  2
AcDbTableStyle
  3
ObjectDBX Classes
 90
     4095
 91
        1
280
     0
281
     0
  0
CLASS
  1
LARGE_RADIAL_DIMENSION
  2
AcDbRadialDimensionLarge
  3
ObjectDBX Classes
 90
     1025
 91
        0
280
     0
281
     1
  0
CLASS
  1
ACAD_EVALUATION_GRAPH
  2
AcDbEvalGraph
  3
ObjectDBX Classes
 90
     1153
 91
        0
280
     0
281
     0
  0
CLASS
  1
ACAECUSTOBJ
  2
AcAeEditorObj
  3
AcAeEditorObj
 90
     1024
 91
        0
280
     0
281
     0
  0
CLASS
  1
ACDB_DYNAMICBLOCKPURGEPREVENTER_VERSION
  2
AcDbDynamicBlockPurgePreventer
  3
ObjectDBX Classes
 90
     1153
 91
        0
280
     0
281
     0
  0
ENDSEC
  0
SECTION
  2
TABLES
  0
TABLE
  2
VPORT
  5
7
102
{ACAD_XDICTIONARY
360
3A0F
102
}
330
0
100
AcDbSymbolTable
 70
     1
  0
VPORT
  5
15
330
7
100
AcDbSymbolTableRecord
100
AcDbViewportTableRecord
  2
*ACTIVE
 70
     0
 10
0.0
 20
0.0
 11
1.0
 21
1.0
 12
-8017.317019208201
 22
2043.052712414962
 13
0.0
 23
0.0
 14
1.0
 24
1.0
 15
0.0
 25
0.0
 16
0.0
 26
0.0
 36
1.0
 17
0.0
 27
0.0
 37
0.0
 40
7315.738651288994
 41
1.95631067961165
 42
50.0
 43
0.0
 44
0.0
 50
0.0
 51
0.0
 71
     0
 72
  2000
 73
     1
 74
     1
 75
     0
 76
     0
 77
     0
 78
     1
281
     0
 65
     0
110
0.0
120
0.0
130
0.0
111
1.0
121
0.0
131
0.0
112
0.0
122
1.0
132
0.0
 79
     0
146
0.0
348
977
 60
     3
 61
     5
292
     1
282
     1
141
0.0
142
0.0
 63
   250
421
  3355443
  0
ENDTAB
  0
TABLE
  2
LTYPE
  5
4
330
0
100
AcDbSymbolTable
 70
     3
  0
LTYPE
  5
11
330
4
100
AcDbSymbolTableRecord
100
AcDbLinetypeTableRecord
  2
ByBlock
 70
     0
  3

 72
    65
 73
     0
 40
0.0
  0
LTYPE
  5
12
330
4
100
AcDbSymbolTableRecord
100
AcDbLinetypeTableRecord
  2
ByLayer
 70
     0
  3

 72
    65
 73
     0
 40
0.0
  0
LTYPE
  5
13
330
4
100
AcDbSymbolTableRecord
100
AcDbLinetypeTableRecord
  2
Continuous
 70
     0
  3
Solid line
 72
    65
 73
     0
 40
0.0
  0
LTYPE
  5
86
330
4
100
AcDbSymbolTableRecord
100
AcDbLinetypeTableRecord
  2
STYLE_05
 70
     0
  3

 72
    65
 73
     2
 40
0.20828
 49
0.069425
 74
     0
 49
-0.138855
 74
     0
  0
LTYPE
  5
89
330
4
100
AcDbSymbolTableRecord
100
AcDbLinetypeTableRecord
  2
STYLE_08
 70
     0
  3

 72
    65
 73
     6
 40
1.25
 49
0.625
 74
     0
 49
-0.20828
 74
     0
 49
0.0694300000000001
 74
     0
 49
-0.13893
 74
     0
 49
0.0694299999999999
 74
     0
 49
-0.13893
 74
     0
  0
ENDTAB
  0
TABLE
  2
LAYER
  5
2
102
{ACAD_XDICTIONARY
360
C1E
102
}
330
0
100
AcDbSymbolTable
 70
     8
  0
LAYER
  5
14
330
2
100
AcDbSymbolTableRecord
100
AcDbLayerTableRecord
  2
0
 70
     0
 62
     7
  6
Continuous
370
    -3
390
1D
347
970
  0
LAYER
  5
8C
330
2
100
AcDbSymbolTableRecord
100
AcDbLayerTableRecord
  2
脚
 70
     0
 62
   174
  6
Continuous
370
    25
390
1D
347
970
  0
LAYER
  5
8D
330
2
100
AcDbSymbolTableRecord
100
AcDbLayerTableRecord
  2
寸法
 70
     0
 62
     7
  6
Continuous
370
     5
390
1D
347
970
  0
LAYER
  5
8E
330
2
100
AcDbSymbolTableRecord
100
AcDbLayerTableRecord
  2
Defpoints
 70
     0
 62
    31
  6
Continuous
290
     0
370
    -3
390
1D
347
970
  0
LAYER
  5
14CDE
330
2
100
AcDbSymbolTableRecord
100
AcDbLayerTableRecord
  2
貫
 70
     0
 62
    14
  6
Continuous
370
    25
390
1D
347
970
1001
AcAecLayerStandard
1000

1000

  0
LAYER
  5
14CE1
330
2
100
AcDbSymbolTableRecord
100
AcDbLayerTableRecord
  2
天板
 70
     0
 62
   114
  6
Continuous
370
    25
390
1D
347
970
1001
AcAecLayerStandard
1000

1000

  0
LAYER
  5
1FA61
330
2
100
AcDbSymbolTableRecord
100
AcDbLayerTableRecord
  2
レイヤー1
 70
     0
 62
     7
  6
Continuous
370
    -3
390
1D
347
970
  0
LAYER
  5
24587
330
2
100
AcDbSymbolTableRecord
100
AcDbLayerTableRecord
  2
木ネジ・ダボ
 70
     0
 62
    44
  6
Continuous
370
    25
390
1D
347
970
1001
AcAecLayerStandard
1000

1000

  0
ENDTAB
  0
TABLE
  2
STYLE
  5
3
330
0
100
AcDbSymbolTable
 70
     2
  0
STYLE
  5
17
330
3
100
AcDbSymbolTableRecord
100
AcDbTextStyleTableRecord
  2
Standard
 70
     0
 40
0.0
 41
1.0
 50
0.0
 71
     0
 42
0.2
  3

  4

1001
ACAD
1000
MS Gothic
1071
    32817
  0
STYLE
  5
81
330
3
100
AcDbSymbolTableRecord
100
AcDbTextStyleTableRecord
  2
ヒラギノ角ゴ Pro W3
 70
     0
 40
0.0
 41
1.0
 50
0.0
 71
     0
 42
0.0
  3

  4

1001
ACAD
1000
MS Gothic
1071
    32817
  0
ENDTAB
  0
TABLE
  2
VIEW
  5
5
330
0
100
AcDbSymbolTable
 70
     0
  0
ENDTAB
  0
TABLE
  2
UCS
  5
6
330
0
100
AcDbSymbolTable
 70
     0
  0
ENDTAB
  0
TABLE
  2
APPID
  5
8
330
0
100
AcDbSymbolTable
 70
    12
  0
APPID
  5
16
330
8
100
AcDbSymbolTableRecord
100
AcDbRegAppTableRecord
  2
ACAD
 70
     0
  0
APPID
  5
98C
330
8
100
AcDbSymbolTableRecord
100
AcDbRegAppTableRecord
  2
DCO15
 70
     0
  0
APPID
  5
991
330
8
100
AcDbSymbolTableRecord
100
AcDbRegAppTableRecord
  2
ACAD_EXEMPT_FROM_CAD_STANDARDS
 70
     0
  0
APPID
  5
C1D
330
8
100
AcDbSymbolTableRecord
100
AcDbRegAppTableRecord
  2
ACAD_PSEXT
 70
     0
  0
APPID
  5
93A3
330
8
100
AcDbSymbolTableRecord
100
AcDbRegAppTableRecord
  2
ACAD_DSTYLE_DIMJOGGED_JOGANGLE_SYMBOL
 70
     0
  0
APPID
  5
93A4
330
8
100
AcDbSymbolTableRecord
100
AcDbRegAppTableRecord
  2
AcAecLayerStandard
 70
     0
  0
APPID
  5
D99E
330
8
100
AcDbSymbolTableRecord
100
AcDbRegAppTableRecord
  2
ACAD_DSTYLE_DIMEXT_ENABLED
 70
     0
  0
APPID
  5
D99F
330
8
100
AcDbSymbolTableRecord
100
AcDbRegAppTableRecord
  2
ACAD_DSTYLE_DIMEXT_LENGTH
 70
     0
  0
APPID
  5
1102C
330
8
100
AcDbSymbolTableRecord
100
AcDbRegAppTableRecord
  2
AcDbDynamicBlockGUID
 70
     0
  0
APPID
  5
1102D
330
8
100
AcDbSymbolTableRecord
100
AcDbRegAppTableRecord
  2
AcDbBlockRepETag
 70
     0
  0
APPID
  5
21A5F
330
8
100
AcDbSymbolTableRecord
100
AcDbRegAppTableRecord
  2
ACAUTHENVIRON
 70
     0
  0
APPID
  5
21A62
330
8
100
AcDbSymbolTableRecord
100
AcDbRegAppTableRecord
  2
AcDbDynamicBlockTrueName
 70
     0
  0
ENDTAB
  0
TABLE
  2
DIMSTYLE
  5
9
330
0
100
AcDbSymbolTable
 70
     2
100
AcDbDimStyleTable
 71
     1
340
CD7E
  0
DIMSTYLE
105
CD7E
330
9
100
AcDbSymbolTableRecord
100
AcDbDimStyleTableRecord
  2
Yamatoya
 70
     0
  3
<>
  4
[]
 41
1.500683593749999
 42
8.0
 43
10.16
 44
3.18
 46
1.59
 73
     0
 74
     0
 77
     1
 78
    11
140
24.0
141
0.0
143
0.0393700787401575
147
1.587499999999999
171
     3
172
     1
174
     1
179
     2
271
     0
272
     0
273
     4
274
     3
276
     2
284
    11
285
    15
286
    15
289
     0
340
81
341
8F
342
8F
  0
DIMSTYLE
105
10565
330
9
100
AcDbSymbolTableRecord
100
AcDbDimStyleTableRecord
  2
Standard
 70
     0
340
17
  0
ENDTAB
  0
TABLE
  2
BLOCK_RECORD
  5
1
330
0
100
AcDbSymbolTable
 70
     5
  0
BLOCK_RECORD
  5
A
102
{ACAD_XDICTIONARY
360
9CE
102
}
330
1
100
AcDbSymbolTableRecord
100
AcDbBlockTableRecord
  2
*MODEL_SPACE
340
20
 70
     0
280
     1
281
     0
  0
BLOCK_RECORD
  5
24612
330
1
100
AcDbSymbolTableRecord
100
AcDbBlockTableRecord
  2
*Paper_Space
340
24613
 70
     0
280
     1
281
     0
  0
BLOCK_RECORD
  5
8F
330
1
100
AcDbSymbolTableRecord
100
AcDbBlockTableRecord
  2
_DOT
340
0
102
{BLKREFS
331
2480F
331
24810
331
2481A
331
2481B
331
24823
331
24824
102
}
 70
     0
280
     1
281
     0
  0
BLOCK_RECORD
  5
2457B
102
{ACAD_XDICTIONARY
360
2457C
102
}
330
1
100
AcDbSymbolTableRecord
100
AcDbBlockTableRecord
  2
A$C73231E16
340
0
102
{BLKREFS
331
2459C
331
245AA
331
245B6
331
245C2
331
245CE
331
245DA
331
246D5
331
246E1
331
246ED
331
246F9
331
24705
331
24711
331
247AD
331
247B5
331
247BD
331
247C5
331
247CD
331
247D5
102
}
 70
     4
280
     1
281
     0
  0
ENDTAB
  0
ENDSEC
  0
SECTION
  2
BLOCKS
  0
BLOCK
  5
D
330
A
100
AcDbEntity
  8
0
100
AcDbBlockBegin
  2
*MODEL_SPACE
 70
     0
 10
0.0
 20
0.0
 30
0.0
  3
*MODEL_SPACE
  1

  0
ENDBLK
  5
E
330
A
100
AcDbEntity
  8
0
100
AcDbBlockEnd
  0
BLOCK
  5
24614
330
24612
100
AcDbEntity
 67
     1
  8
0
370
     5
100
AcDbBlockBegin
  2
*Paper_Space
 70
     0
 10
0.0
 20
0.0
 30
0.0
  3
*Paper_Space
  1

  0
ENDBLK
  5
24615
330
24612
100
AcDbEntity
 67
     1
  8
0
370
     5
100
AcDbBlockEnd
  0
BLOCK
  5
90
330
8F
100
AcDbEntity
  8
0
370
     5
100
AcDbBlockBegin
  2
_DOT
 70
     0
 10
0.0
 20
0.0
 30
0.0
  3
_DOT
  1

  0
POLYLINE
  5
91
330
8F
100
AcDbEntity
  8
0
  6
ByBlock
 62
     0
370
    -2
100
AcDb2dPolyline
 66
     1
 10
0.0
 20
0.0
 30
0.0
 70
     1
 40
0.5
 41
0.5
  0
VERTEX
  5
92
330
91
100
AcDbEntity
  8
0
  6
ByBlock
 62
     0
370
    -2
100
AcDbVertex
100
AcDb2dVertex
 10
-0.25
 20
0.0
 30
0.0
 42
1.0
  0
VERTEX
  5
93
330
91
100
AcDbEntity
  8
0
  6
ByBlock
 62
     0
370
    -2
100
AcDbVertex
100
AcDb2dVertex
 10
0.25
 20
0.0
 30
0.0
 42
1.0
  0
SEQEND
  5
94
330
91
100
AcDbEntity
  8
0
  0
LINE
  5
95
330
8F
100
AcDbEntity
  8
0
  6
ByBlock
 62
     0
370
    -2
100
AcDbLine
 10
-0.5
 20
0.0
 30
0.0
 11
-1.0
 21
0.0
 31
0.0
  0
ENDBLK
  5
96
330
8F
100
AcDbEntity
  8
0
100
AcDbBlockEnd
  0
BLOCK
  5
2457E
330
2457B
100
AcDbEntity
  8
0
100
AcDbBlockBegin
  2
A$C73231E16
 70
     0
 10
0.0
 20
0.0
 30
0.0
  3
A$C73231E16
  1

  0
LINE
  5
2457F
330
2457B
100
AcDbEntity
  8
木ネジ・ダボ
100
AcDbLine
 10
0.0
 20
1.999996000417013
 30
0.0
 11
10.0
 21
1.999996000417013
 31
0.0
  0
LINE
  5
24580
330
2457B
100
AcDbEntity
  8
木ネジ・ダボ
100
AcDbLine
 10
10.0
 20
1.999996000417013
 30
0.0
 11
10.00000000000182
 21
0.9999960004170134
 31
0.0
  0
LINE
  5
24581
330
2457B
100
AcDbEntity
  8
木ネジ・ダボ
100
AcDbLine
 10
9.0
 20
-0.0000039995829866
 30
0.0
 11
1.000000000001817
 21
-0.0000039995829866
 31
0.0
  0
LINE
  5
24582
330
2457B
100
AcDbEntity
  8
木ネジ・ダボ
100
AcDbLine
 10
-0.000000000001819
 20
0.9999960004170134
 30
0.0
 11
0.0
 21
1.999996000416785
 31
0.0
  0
LINE
  5
24583
330
2457B
100
AcDbEntity
  8
木ネジ・ダボ
100
AcDbLine
 10
0.0
 20
0.9999960004170134
 30
0.0
 11
10.0
 21
0.9999960004170134
 31
0.0
  0
LINE
  5
24584
330
2457B
100
AcDbEntity
  8
木ネジ・ダボ
100
AcDbLine
 10
0.0
 20
0.9999960004170134
 30
0.0
 11
1.0
 21
-0.0000039995829866
 31
0.0
  0
LINE
  5
24585
330
2457B
100
AcDbEntity
  8
木ネジ・ダボ
100
AcDbLine
 10
10.0
 20
0.9999960004170134
 30
0.0
 11
9.0
 21
-0.0000039995829866
 31
0.0
  0
ENDBLK
  5
24586
330
2457B
100
AcDbEntity
  8
0
100
AcDbBlockEnd
  0
ENDSEC
  0
SECTION
  2
ENTITIES
  0
ARC
  5
1FC01
330
A
100
AcDbEntity
  8
天板
 62
     7
370
    50
100
AcDbCircle
 10
11345.42378255768
 20
2208.792102450813
 30
0.0
 40
12.5
210
0.0
220
0.0
230
-1.0
100
AcDbArc
 50
180.0
 51
270.0000001164142
  0
ARC
  5
1FC02
330
A
100
AcDbEntity
  8
天板
 62
     7
370
    50
100
AcDbCircle
 10
11345.42378255768
 20
2208.792102425416
 30
0.0
 40
12.5
210
0.0
220
0.0
230
-1.0
100
AcDbArc
 50
90.0
 51
180.0
  0
ARC
  5
1FC10
330
A
100
AcDbEntity
  8
脚
 62
     7
370
    50
100
AcDbCircle
 10
11352.92378255768
 20
1861.292102415262
 30
0.0
 40
5.0
210
0.0
220
0.0
230
-1.0
100
AcDbArc
 50
0.0
 51
90.0
  0
LINE
  5
1FC11
330
A
100
AcDbEntity
  8
脚
 62
     7
370
    50
100
AcDbLine
 10
-11352.9237825669
 20
2196.292102466049
 30
0.0
 11
-11352.92378323734
 21
1866.292102415262
 31
0.0
  0
LINE
  5
1FC18
330
A
100
AcDbEntity
  8
脚
 62
     7
370
    25
100
AcDbLine
 10
-11352.92378255768
 20
1866.292102415262
 30
0.0
 11
-11402.92378255768
 21
1866.292102415262
 31
0.0
  0
LINE
  5
1FC19
330
A
100
AcDbEntity
  8
脚
 62
     7
370
    50
100
AcDbLine
 10
-11397.92378255768
 20
1861.292102415262
 30
0.0
 11
-11357.92378255768
 21
1861.292102415262
 31
0.0
  0
LINE
  5
1FC1A
330
A
100
AcDbEntity
  8
脚
 62
     7
370
    50
100
AcDbLine
 10
-11402.92378257538
 20
1866.292102415262
 30
0.0
 11
-11402.9237821151
 21
2126.292793016006
 31
0.0
  0
ARC
  5
1FC1C
330
A
100
AcDbEntity
  8
脚
 62
     7
370
    50
100
AcDbCircle
 10
-11402.92378255768
 20
1861.292102415262
 30
0.0
 40
5.0
100
AcDbArc
 50
0.0
 51
90.0
  0
LINE
  5
1FC1F
330
A
100
AcDbEntity
  8
脚
 62
     7
370
    50
100
AcDbLine
 10
-12498.29510506833
 20
1866.29210242542
 30
0.0
 11
-12498.29510506833
 21
2126.292101152392
 31
0.0
  0
LINE
  5
1FC20
330
A
100
AcDbEntity
  8
脚
 62
     7
370
    50
100
AcDbLine
 10
-12493.29510506833
 20
1861.29210242542
 30
0.0
 11
-12453.29510506833
 21
1861.29210242542
 31
0.0
  0
ARC
  5
1FC27
330
A
100
AcDbEntity
  8
天板
 62
     7
370
    50
100
AcDbCircle
 10
12422.49381872773
 20
2208.792102425416
 30
0.0
 40
12.5
210
0.0
220
0.0
230
-1.0
100
AcDbArc
 50
90.0
 51
180.0
  0
ARC
  5
1FC29
330
A
100
AcDbEntity
  8
天板
 62
     7
370
    50
100
AcDbCircle
 10
12422.49381872773
 20
2208.792102425416
 30
0.0
 40
12.5
210
0.0
220
0.0
230
-1.0
100
AcDbArc
 50
180.0
 51
270.0
  0
LINE
  5
1FC30
330
A
100
AcDbEntity
  8
脚
 62
     7
370
    50
100
AcDbLine
 10
-11832.53878255768
 20
1866.29210242542
 30
0.0
 11
-11832.53878255768
 21
2196.292103603763
 31
0.0
  0
ARC
  5
1FC31
330
A
100
AcDbEntity
  8
脚
 62
     7
370
    50
100
AcDbCircle
 10
-11832.53878255768
 20
1861.29210242542
 30
0.0
 40
5.0
100
AcDbArc
 50
0.0
 51
90.0
  0
ARC
  5
1FC32
330
A
100
AcDbEntity
  8
天板
 62
     7
370
    50
100
AcDbCircle
 10
-11840.03878255768
 20
2208.792103619001
 30
0.0
 40
12.5
100
AcDbArc
 50
180.0
 51
269.9999998835858
  0
ARC
  5
1FC33
330
A
100
AcDbEntity
  8
天板
 62
     7
370
    50
100
AcDbCircle
 10
-11840.03878255768
 20
2208.792102425416
 30
0.0
 40
12.5
100
AcDbArc
 50
90.0
 51
180.0
  0
LINE
  5
1FC35
330
A
100
AcDbEntity
  8
脚
 62
     7
370
    25
100
AcDbLine
 10
-11782.53878255768
 20
1866.29210242542
 30
0.0
 11
-11832.53878255768
 21
1866.29210242542
 31
0.0
  0
LINE
  5
1FC36
330
A
100
AcDbEntity
  8
脚
 62
     7
370
    50
100
AcDbLine
 10
-11827.53878255768
 20
1861.29210242542
 30
0.0
 11
-11787.53878255768
 21
1861.29210242542
 31
0.0
  0
LINE
  5
1FC38
330
A
100
AcDbEntity
  8
脚
 62
     7
370
    50
100
AcDbLine
 10
-11782.53878255768
 20
1866.29210242542
 30
0.0
 11
-11782.53878255768
 21
2126.292103502183
 31
0.0
  0
ARC
  5
1FC39
330
A
100
AcDbEntity
  8
脚
 62
     7
370
    50
100
AcDbCircle
 10
11782.53878255768
 20
1861.29210242542
 30
0.0
 40
5.0
210
0.0
220
0.0
230
-1.0
100
AcDbArc
 50
0.0
 51
90.0
  0
LINE
  5
1FC43
330
A
100
AcDbEntity
  8
貫
 62
     7
370
    30
100
AcDbLine
 10
-12463.17747430329
 20
2196.292102425417
 30
0.0
 11
-12483.17747430329
 21
2196.292102425417
 31
0.0
  0
LINE
  5
1FC44
330
A
100
AcDbEntity
  8
脚
 62
     7
370
    25
100
AcDbLine
 10
-12448.29510506833
 20
1866.29210242542
 30
0.0
 11
-12498.29510506833
 21
1866.29210242542
 31
0.0
  0
ARC
  5
1FC45
330
A
100
AcDbEntity
  8
脚
 62
     7
370
    50
100
AcDbCircle
 10
-12498.29510506833
 20
1861.29210242542
 30
0.0
 40
5.0
100
AcDbArc
 50
0.0
 51
90.0
  0
ARC
  5
1FC46
330
A
100
AcDbEntity
  8
脚
 62
     7
370
    50
100
AcDbCircle
 10
12448.29510506833
 20
1861.29210242542
 30
0.0
 40
5.0
210
0.0
220
0.0
230
-1.0
100
AcDbArc
 50
0.0
 51
90.0
  0
ARC
  5
1FC4F
330
A
100
AcDbEntity
  8
天板
 62
     7
370
    50
100
AcDbCircle
 10
-13568.21181872773
 20
2208.792102425416
 30
0.0
 40
12.5
100
AcDbArc
 50
90.0
 51
180.0
  0
ARC
  5
1FC51
330
A
100
AcDbEntity
  8
天板
 62
     7
370
    50
100
AcDbCircle
 10
-13568.21181872773
 20
2208.792102425416
 30
0.0
 40
12.5
100
AcDbArc
 50
180.0
 51
270.0
  0
LINE
  5
1FC5D
330
A
100
AcDbEntity
  8
脚
 62
     7
370
    50
100
AcDbLine
 10
-12448.29510506833
 20
1866.29210242542
 30
0.0
 11
-12448.29510506833
 21
2196.292102425416
 31
0.0
  0
LINE
  5
1FC80
330
A
100
AcDbEntity
  8
貫
 62
     7
370
    25
100
AcDbLine
 10
-13494.61528467739
 20
2136.292099879366
 30
0.0
 11
-12498.59035277808
 21
2136.292099879367
 31
0.0
  0
LINE
  5
1FC81
330
A
100
AcDbEntity
  8
貫
 62
     7
370
    50
100
AcDbLine
 10
-13494.61528467739
 20
2126.292101152392
 30
0.0
 11
-12498.59035277808
 21
2126.292101152392
 31
0.0
  0
LINE
  5
1FC82
330
A
100
AcDbEntity
  8
天板
 62
     7
370
    50
100
AcDbLine
 10
-13568.21181872773
 20
2221.492102425417
 30
0.0
 11
-12424.99381872773
 21
2221.492102425417
 31
0.0
  0
LINE
  5
1FC83
330
A
100
AcDbEntity
  8
貫
 62
     7
370
    50
100
AcDbLine
 10
-13568.21181872773
 20
2196.292102425417
 30
0.0
 11
-12995.35281872773
 21
2196.292102425417
 31
0.0
  0
LINE
  5
1FC87
330
A
100
AcDbEntity
  8
天板
 62
     7
370
    50
100
AcDbLine
 10
-11840.03878255768
 20
2221.292102425417
 30
0.0
 11
-11345.42378255768
 21
2221.292102425417
 31
0.0
  0
LINE
  5
2007D
330
A
100
AcDbEntity
  8
貫
  6
STYLE_08
 62
     7
 48
5.0
370
    25
100
AcDbLine
 10
-12995.35281872773
 20
2196.292102425417
 30
0.0
 11
-12600.35281872773
 21
2196.292102425417
 31
0.0
  0
LINE
  5
20082
330
A
100
AcDbEntity
  8
天板
 62
     7
370
    50
100
AcDbLine
 10
-13568.21181872773
 20
2196.292102425417
 30
0.0
 11
-12422.49381872773
 21
2196.292102425417
 31
0.0
  0
LINE
  5
2101B
330
A
100
AcDbEntity
  8
貫
  6
Continuous
 62
     7
 48
3.0
370
    50
100
AcDbLine
 10
-11784.62590426669
 20
2126.292103506424
 30
0.0
 11
-11400.83666104168
 21
2126.292102726704
 31
0.0
  0
LINE
  5
2101C
330
A
100
AcDbEntity
  8
貫
  6
Continuous
 62
     7
370
    13
100
AcDbLine
 10
-11784.62590426959
 20
2136.292793026211
 30
0.0
 11
-11400.83666101846
 21
2136.292793017773
 31
0.0
  0
LINE
  5
2101E
330
A
100
AcDbEntity
  8
天板
 62
     7
370
    50
100
AcDbLine
 10
-11840.03878258308
 20
2196.292103619001
 30
0.0
 11
-11345.42378258308
 21
2196.292102450812
 31
0.0
  0
LINE
  5
21218
330
A
100
AcDbEntity
  8
天板
 62
     7
370
    50
100
AcDbLine
 10
-12424.99381872773
 20
2221.292102425417
 30
0.0
 11
-12422.49381872773
 21
2221.292102425417
 31
0.0
  0
LINE
  5
21219
330
A
100
AcDbEntity
  8
天板
 62
     7
370
    50
100
AcDbLine
 10
-12424.99381872773
 20
2221.492102425417
 30
0.0
 11
-12424.99381872773
 21
2221.292102425417
 31
0.0
  0
LINE
  5
21346
330
A
100
AcDbEntity
  8
天板
 62
     7
370
    50
100
AcDbLine
 10
-13568.21181872773
 20
2221.492102425417
 30
0.0
 11
-13568.21181872773
 21
2221.292102425417
 31
0.0
  0
LINE
  5
21347
330
A
100
AcDbEntity
  8
天板
 62
     7
370
    50
100
AcDbLine
 10
-13568.21181872773
 20
2221.292102425417
 30
0.0
 11
-12424.99381872773
 21
2221.292102425417
 31
0.0
  0
ARC
  5
23253
330
A
100
AcDbEntity
  8
天板
 62
     7
370
    30
100
AcDbCircle
 10
-13283.80581334394
 20
3118.036823499878
 30
0.0
 40
5.0
100
AcDbArc
 50
90.0
 51
150.0000000000519
  0
LINE
  5
23254
330
A
100
AcDbEntity
  8
天板
 62
     7
370
    25
100
AcDbLine
 10
-13286.30581334394
 20
3122.3669505188
 30
0.0
 11
-13293.80581334394
 21
3135.357331575567
 31
0.0
  0
LINE
  5
23255
330
A
100
AcDbEntity
  8
レイヤー1
  6
STYLE_05
 62
     7
370
    13
100
AcDbLine
 10
-13283.80581334394
 20
3138.036823499878
 30
0.0
 11
-13295.35281872773
 21
3138.036823499878
 31
0.0
  0
LINE
  5
23256
330
A
100
AcDbEntity
  8
レイヤー1
  6
STYLE_05
 62
     7
370
    13
100
AcDbLine
 10
-13301.12632141963
 20
3128.036823499878
 30
0.0
 11
-13295.35281872773
 21
3138.036823499878
 31
0.0
  0
ARC
  5
23258
330
A
100
AcDbEntity
  8
天板
 62
     7
370
    50
100
AcDbCircle
 10
-13283.80581334394
 20
3118.036823499878
 30
0.0
 40
20.0
100
AcDbArc
 50
90.0
 51
150.0000000000519
  0
LINE
  5
23259
330
A
100
AcDbEntity
  8
天板
 62
     7
370
    25
100
AcDbLine
 10
-13565.04192959528
 20
2635.921581229216
 30
0.0
 11
-13578.03231065204
 21
2628.421581229216
 31
0.0
  0
ARC
  5
2325A
330
A
100
AcDbEntity
  8
天板
 62
     7
370
    30
100
AcDbCircle
 10
-13560.71180257635
 20
2638.421581229216
 30
0.0
 40
5.000000000000015
100
AcDbArc
 50
150.0000000000519
 51
270.0
  0
ARC
  5
2325E
330
A
100
AcDbEntity
  8
天板
 62
     7
370
    50
100
AcDbCircle
 10
-13560.71180257635
 20
2638.421581229216
 30
0.0
 40
20.00000000000007
100
AcDbArc
 50
150.0000000000519
 51
270.0
  0
ARC
  5
2327A
330
A
100
AcDbEntity
  8
脚
 62
     7
370
    25
100
AcDbCircle
 10
-12746.33358084126
 20
1861.29210242542
 30
0.0
 40
5.0
100
AcDbArc
 50
0.0
 51
90.00000372150259
  0
ARC
  5
2327B
330
A
100
AcDbEntity
  8
脚
 62
     7
370
    25
100
AcDbCircle
 10
12696.33358084127
 20
1861.29210242542
 30
0.0
 40
5.0
210
0.0
220
0.0
230
-1.0
100
AcDbArc
 50
0.0
 51
90.00000372150259
  0
LINE
  5
2327C
330
A
100
AcDbEntity
  8
脚
 62
     7
370
    25
100
AcDbLine
 10
-12701.33358084126
 20
1861.29210242542
 30
0.0
 11
-12741.33358084126
 21
1861.29210242542
 31
0.0
  0
LINE
  5
2327D
330
A
100
AcDbEntity
  8
脚
 62
     7
370
    25
100
AcDbLine
 10
-12746.33358084126
 20
1866.29210242542
 30
0.0
 11
-12696.33358084127
 21
1866.29210242542
 31
0.0
  0
LINE
  5
2327F
330
A
100
AcDbEntity
  8
脚
 62
     7
370
    25
100
AcDbLine
 10
-13249.3720566142
 20
1861.29210242542
 30
0.0
 11
-13289.3720566142
 21
1861.29210242542
 31
0.0
  0
ARC
  5
23280
330
A
100
AcDbEntity
  8
脚
 62
     7
370
    25
100
AcDbCircle
 10
13244.3720566142
 20
1861.29210242542
 30
0.0
 40
5.0
210
0.0
220
0.0
230
-1.0
100
AcDbArc
 50
0.0
 51
90.00000372150259
  0
ARC
  5
23281
330
A
100
AcDbEntity
  8
脚
 62
     7
370
    25
100
AcDbCircle
 10
-13294.3720566142
 20
1861.29210242542
 30
0.0
 40
5.0
100
AcDbArc
 50
0.0
 51
90.00000372150259
  0
LINE
  5
23282
330
A
100
AcDbEntity
  8
脚
 62
     7
370
    25
100
AcDbLine
 10
-13294.3720566142
 20
1866.29210242542
 30
0.0
 11
-13244.3720566142
 21
1866.29210242542
 31
0.0
  0
LINE
  5
2328E
330
A
100
AcDbEntity
  8
天板
 62
     7
370
    50
100
AcDbLine
 10
-13283.80581334394
 20
3138.036823499878
 30
0.0
 11
-12995.35281872773
 21
3138.036823499878
 31
0.0
  0
LINE
  5
23290
330
A
100
AcDbEntity
  8
天板
 62
     7
370
    30
100
AcDbLine
 10
-13560.71180257635
 20
2633.421581229216
 30
0.0
 11
-12995.35281872773
 21
2633.421581229216
 31
0.0
  0
LINE
  5
23295
330
A
100
AcDbEntity
  8
天板
 62
     7
370
    50
100
AcDbLine
 10
-13560.71180257635
 20
2618.421581229216
 30
0.0
 11
-12995.35281872773
 21
2618.421581229216
 31
0.0
  0
LINE
  5
2329C
330
A
100
AcDbEntity
  8
天板
 62
     7
370
    30
100
AcDbLine
 10
-13283.80581334394
 20
3123.036823499878
 30
0.0
 11
-12995.35281872773
 21
3123.036823499878
 31
0.0
  0
LINE
  5
2329F
330
A
100
AcDbEntity
  8
天板
 62
     7
370
    30
100
AcDbLine
 10
-13288.13594036286
 20
3120.536823499878
 30
0.0
 11
-13565.04192959528
 21
2640.921581229216
 31
0.0
  0
LINE
  5
232A7
330
A
100
AcDbEntity
  8
天板
 62
     7
370
    50
100
AcDbLine
 10
-13301.12632141963
 20
3128.036823499878
 30
0.0
 11
-13578.03231065204
 21
2648.421581229216
 31
0.0
  0
LINE
  5
232B3
330
A
100
AcDbEntity
  8
脚
 62
     7
370
    25
100
AcDbLine
 10
-12696.33358084127
 20
1866.29210242542
 30
0.0
 11
-12696.33358084127
 21
2126.292139145876
 31
0.0
  0
LINE
  5
232B6
330
A
100
AcDbEntity
  8
脚
 62
     7
370
    25
100
AcDbLine
 10
-12746.33358084126
 20
1866.29210242542
 30
0.0
 11
-12746.33358084126
 21
2126.292101152392
 31
0.0
  0
LINE
  5
232BC
330
A
100
AcDbEntity
  8
脚
 62
     7
370
    25
100
AcDbLine
 10
-13294.3720566142
 20
1866.29210242542
 30
0.0
 11
-13294.37205661419
 21
2126.292101152392
 31
0.0
  0
LINE
  5
232BD
330
A
100
AcDbEntity
  8
脚
 62
     7
370
    25
100
AcDbLine
 10
-13244.3720566142
 20
1866.29210242542
 30
0.0
 11
-13244.3720566142
 21
2126.292101152392
 31
0.0
  0
LINE
  5
23617
330
A
100
AcDbEntity
  8
脚
 62
     7
370
    50
100
AcDbLine
 10
-11784.62590426669
 20
2126.292103034898
 30
0.0
 11
-11784.62590428701
 21
2196.292103034897
 31
0.0
  0
LINE
  5
237D5
330
A
100
AcDbEntity
  8
脚
 62
     7
370
    50
100
AcDbLine
 10
-13492.41053238713
 20
1866.29210242542
 30
0.0
 11
-13492.41053238714
 21
2126.292101152392
 31
0.0
  0
LINE
  5
237D6
330
A
100
AcDbEntity
  8
脚
 62
     7
370
    50
100
AcDbLine
 10
-13497.41053238713
 20
1861.29210242542
 30
0.0
 11
-13537.41053238713
 21
1861.29210242542
 31
0.0
  0
LINE
  5
237D7
330
A
100
AcDbEntity
  8
脚
 62
     7
370
    25
100
AcDbLine
 10
-13542.41053238713
 20
1866.29210242542
 30
0.0
 11
-13492.41053238713
 21
1866.29210242542
 31
0.0
  0
ARC
  5
237D8
330
A
100
AcDbEntity
  8
脚
 62
     7
370
    50
100
AcDbCircle
 10
-13492.41053238713
 20
1861.29210242542
 30
0.0
 40
5.0
100
AcDbArc
 50
90.0
 51
180.0
  0
ARC
  5
237D9
330
A
100
AcDbEntity
  8
脚
 62
     7
370
    50
100
AcDbCircle
 10
13542.41053238713
 20
1861.29210242542
 30
0.0
 40
5.0
210
0.0
220
0.0
230
-1.0
100
AcDbArc
 50
90.0
 51
180.0
  0
LINE
  5
237DA
330
A
100
AcDbEntity
  8
脚
 62
     7
370
    50
100
AcDbLine
 10
-13542.41053238713
 20
1866.29210242542
 30
0.0
 11
-13542.41053238713
 21
2196.292102425416
 31
0.0
  0
LINE
  5
23E38
330
A
100
AcDbEntity
  8
貫
 62
     7
370
    50
100
AcDbLine
 10
-13494.61528467739
 20
2196.292102425417
 30
0.0
 11
-13494.61528467739
 21
2126.292101152392
 31
0.0
  0
ARC
  5
244DE
330
A
100
AcDbEntity
  8
天板
 62
     7
370
    50
100
AcDbCircle
 10
12422.49381872773
 20
2208.892102425417
 30
0.0
 40
12.5
210
0.0
220
0.0
230
-1.0
100
AcDbArc
 50
180.0
 51
270.0000001164142
  0
LINE
  5
244DF
330
A
100
AcDbEntity
  8
レイヤー1
 62
     7
370
    13
100
AcDbLine
 10
-12464.99381873695
 20
2196.392102491444
 30
0.0
 11
-12444.99381873695
 21
2196.392102491444
 31
0.0
  0
LINE
  5
24504
330
A
100
AcDbEntity
  8
脚
 62
     7
370
    50
100
AcDbLine
 10
-11400.83666104169
 20
2126.292102644962
 30
0.0
 11
-11400.83666087913
 21
2196.292102644961
 31
0.0
  0
LINE
  5
2450C
330
A
100
AcDbEntity
  8
天板
 62
     7
370
    50
100
AcDbLine
 10
-11837.53878238461
 20
2221.392102450812
 30
0.0
 11
-11347.92378255768
 21
2221.392102450812
 31
0.0
  0
LINE
  5
2450F
330
A
100
AcDbEntity
  8
天板
 62
     7
370
    50
100
AcDbLine
 10
-11347.92378255768
 20
2221.392102450812
 30
0.0
 11
-11347.92378255768
 21
2221.192102450812
 31
0.0
  0
LINE
  5
24528
330
A
100
AcDbEntity
  8
天板
 62
     7
370
    50
100
AcDbLine
 10
-11837.53878238461
 20
2221.39210344546
 30
0.0
 11
-11837.53878238502
 21
2221.292102425417
 31
0.0
  0
INSERT
  5
2459C
330
A
100
AcDbEntity
  8
寸法
 62
     7
100
AcDbBlockReference
  2
A$C73231E16
 10
-13522.41053238713
 20
1859.292106425003
 30
0.0
  0
LINE
  5
2459D
330
A
100
AcDbEntity
  8
木ネジ・ダボ
 62
     7
100
AcDbLine
 10
-13516.41053238713
 20
1861.29210242542
 30
0.0
 11
-13516.41053238713
 21
1871.29210242542
 31
0.0
  0
LINE
  5
2459E
330
A
100
AcDbEntity
  8
木ネジ・ダボ
 62
     7
100
AcDbLine
 10
-13518.41053238713
 20
1861.29210242542
 30
0.0
 11
-13518.41053238713
 21
1871.29210242542
 31
0.0
  0
LINE
  5
2459F
330
A
100
AcDbEntity
  8
木ネジ・ダボ
 62
     7
100
AcDbLine
 10
-13518.41053238713
 20
1871.29210242542
 30
0.0
 11
-13516.41053238713
 21
1871.29210242542
 31
0.0
  0
INSERT
  5
245AA
330
A
100
AcDbEntity
  8
寸法
 62
     7
100
AcDbBlockReference
  2
A$C73231E16
 10
-13274.3720566142
 20
1859.292106425003
 30
0.0
  0
LINE
  5
245AB
330
A
100
AcDbEntity
  8
木ネジ・ダボ
 62
     7
100
AcDbLine
 10
-13268.3720566142
 20
1861.29210242542
 30
0.0
 11
-13268.3720566142
 21
1871.29210242542
 31
0.0
  0
LINE
  5
245AC
330
A
100
AcDbEntity
  8
木ネジ・ダボ
 62
     7
100
AcDbLine
 10
-13270.3720566142
 20
1861.29210242542
 30
0.0
 11
-13270.3720566142
 21
1871.29210242542
 31
0.0
  0
LINE
  5
245AD
330
A
100
AcDbEntity
  8
木ネジ・ダボ
 62
     7
100
AcDbLine
 10
-13270.3720566142
 20
1871.29210242542
 30
0.0
 11
-13268.3720566142
 21
1871.29210242542
 31
0.0
  0
INSERT
  5
245B6
330
A
100
AcDbEntity
  8
寸法
 62
     7
100
AcDbBlockReference
  2
A$C73231E16
 10
-12726.33358084126
 20
1859.292106425003
 30
0.0
  0
LINE
  5
245B7
330
A
100
AcDbEntity
  8
木ネジ・ダボ
 62
     7
100
AcDbLine
 10
-12720.33358084126
 20
1861.29210242542
 30
0.0
 11
-12720.33358084126
 21
1871.29210242542
 31
0.0
  0
LINE
  5
245B8
330
A
100
AcDbEntity
  8
木ネジ・ダボ
 62
     7
100
AcDbLine
 10
-12722.33358084126
 20
1861.29210242542
 30
0.0
 11
-12722.33358084126
 21
1871.29210242542
 31
0.0
  0
LINE
  5
245B9
330
A
100
AcDbEntity
  8
木ネジ・ダボ
 62
     7
100
AcDbLine
 10
-12722.33358084126
 20
1871.29210242542
 30
0.0
 11
-12720.33358084126
 21
1871.29210242542
 31
0.0
  0
INSERT
  5
245C2
330
A
100
AcDbEntity
  8
寸法
 62
     7
100
AcDbBlockReference
  2
A$C73231E16
 10
-12478.29510506833
 20
1859.292106425003
 30
0.0
  0
LINE
  5
245C3
330
A
100
AcDbEntity
  8
木ネジ・ダボ
 62
     7
100
AcDbLine
 10
-12472.29510506833
 20
1861.29210242542
 30
0.0
 11
-12472.29510506833
 21
1871.29210242542
 31
0.0
  0
LINE
  5
245C4
330
A
100
AcDbEntity
  8
木ネジ・ダボ
 62
     7
100
AcDbLine
 10
-12474.29510506833
 20
1861.29210242542
 30
0.0
 11
-12474.29510506833
 21
1871.29210242542
 31
0.0
  0
LINE
  5
245C5
330
A
100
AcDbEntity
  8
木ネジ・ダボ
 62
     7
100
AcDbLine
 10
-12474.29510506833
 20
1871.29210242542
 30
0.0
 11
-12472.29510506833
 21
1871.29210242542
 31
0.0
  0
INSERT
  5
245CE
330
A
100
AcDbEntity
  8
寸法
 62
     7
100
AcDbBlockReference
  2
A$C73231E16
 10
-11812.53878255768
 20
1859.292106425003
 30
0.0
  0
LINE
  5
245CF
330
A
100
AcDbEntity
  8
木ネジ・ダボ
 62
     7
100
AcDbLine
 10
-11806.53878255768
 20
1861.29210242542
 30
0.0
 11
-11806.53878255768
 21
1871.29210242542
 31
0.0
  0
LINE
  5
245D0
330
A
100
AcDbEntity
  8
木ネジ・ダボ
 62
     7
100
AcDbLine
 10
-11808.53878255768
 20
1861.29210242542
 30
0.0
 11
-11808.53878255768
 21
1871.29210242542
 31
0.0
  0
LINE
  5
245D1
330
A
100
AcDbEntity
  8
木ネジ・ダボ
 62
     7
100
AcDbLine
 10
-11808.53878255768
 20
1871.29210242542
 30
0.0
 11
-11806.53878255768
 21
1871.29210242542
 31
0.0
  0
INSERT
  5
245DA
330
A
100
AcDbEntity
  8
寸法
 62
     7
100
AcDbBlockReference
  2
A$C73231E16
 10
-11382.92378255768
 20
1859.292106414844
 30
0.0
  0
LINE
  5
245DB
330
A
100
AcDbEntity
  8
木ネジ・ダボ
 62
     7
100
AcDbLine
 10
-11376.92378255768
 20
1861.292102415262
 30
0.0
 11
-11376.92378255768
 21
1871.292102415262
 31
0.0
  0
LINE
  5
245DC
330
A
100
AcDbEntity
  8
木ネジ・ダボ
 62
     7
100
AcDbLine
 10
-11378.92378255768
 20
1861.292102415262
 30
0.0
 11
-11378.92378255768
 21
1871.292102415262
 31
0.0
  0
LINE
  5
245DD
330
A
100
AcDbEntity
  8
木ネジ・ダボ
 62
     7
100
AcDbLine
 10
-11378.92378255768
 20
1871.292102415262
 30
0.0
 11
-11376.92378255768
 21
1871.292102415262
 31
0.0
  0
ARC
  5
24623
330
A
100
AcDbEntity
  8
天板
 62
     7
370
    30
100
AcDbCircle
 10
-12706.89982411152
 20
3118.036823499878
 30
0.0
 40
5.0
100
AcDbArc
 50
29.99999999991928
 51
90.0
  0
LINE
  5
24624
330
A
100
AcDbEntity
  8
天板
 62
     7
370
    25
100
AcDbLine
 10
-12704.39982411152
 20
3122.3669505188
 30
0.0
 11
-12696.89982411152
 21
3135.357331575567
 31
0.0
  0
LINE
  5
24625
330
A
100
AcDbEntity
  8
レイヤー1
  6
STYLE_05
 62
     7
370
    13
100
AcDbLine
 10
-12706.89982411152
 20
3138.036823499878
 30
0.0
 11
-12695.35281872772
 21
3138.036823499878
 31
0.0
  0
LINE
  5
24626
330
A
100
AcDbEntity
  8
レイヤー1
  6
STYLE_05
 62
     7
370
    13
100
AcDbLine
 10
-12689.57931603583
 20
3128.036823499878
 30
0.0
 11
-12695.35281872772
 21
3138.036823499878
 31
0.0
  0
ARC
  5
24627
330
A
100
AcDbEntity
  8
天板
 62
     7
370
    50
100
AcDbCircle
 10
-12706.89982411152
 20
3118.036823499878
 30
0.0
 40
20.0
100
AcDbArc
 50
29.99999999991928
 51
90.0
  0
LINE
  5
24628
330
A
100
AcDbEntity
  8
天板
 62
     7
370
    25
100
AcDbLine
 10
-12425.66370786018
 20
2635.921581229216
 30
0.0
 11
-12412.67332680342
 21
2628.421581229216
 31
0.0
  0
ARC
  5
24629
330
A
100
AcDbEntity
  8
天板
 62
     7
370
    30
100
AcDbCircle
 10
-12429.9938348791
 20
2638.421581229216
 30
0.0
 40
5.000000000000015
100
AcDbArc
 50
270.0
 51
29.99999999991928
  0
ARC
  5
2462A
330
A
100
AcDbEntity
  8
天板
 62
     7
370
    50
100
AcDbCircle
 10
-12429.9938348791
 20
2638.421581229216
 30
0.0
 40
20.00000000000007
100
AcDbArc
 50
270.0
 51
29.99999999991928
  0
LINE
  5
2462B
330
A
100
AcDbEntity
  8
天板
 62
     7
370
    50
100
AcDbLine
 10
-12706.89982411152
 20
3138.036823499878
 30
0.0
 11
-12995.35281872773
 21
3138.036823499878
 31
0.0
  0
LINE
  5
2462C
330
A
100
AcDbEntity
  8
天板
 62
     7
370
    30
100
AcDbLine
 10
-12429.9938348791
 20
2633.421581229216
 30
0.0
 11
-12995.35281872773
 21
2633.421581229216
 31
0.0
  0
LINE
  5
2462D
330
A
100
AcDbEntity
  8
天板
 62
     7
370
    50
100
AcDbLine
 10
-12429.9938348791
 20
2618.421581229216
 30
0.0
 11
-12995.35281872773
 21
2618.421581229216
 31
0.0
  0
LINE
  5
2462E
330
A
100
AcDbEntity
  8
天板
 62
     7
370
    30
100
AcDbLine
 10
-12706.89982411152
 20
3123.036823499878
 30
0.0
 11
-12995.35281872773
 21
3123.036823499878
 31
0.0
  0
LINE
  5
2462F
330
A
100
AcDbEntity
  8
天板
 62
     7
370
    30
100
AcDbLine
 10
-12702.5696970926
 20
3120.536823499878
 30
0.0
 11
-12425.66370786018
 21
2640.921581229216
 31
0.0
  0
LINE
  5
24630
330
A
100
AcDbEntity
  8
天板
 62
     7
370
    50
100
AcDbLine
 10
-12689.57931603583
 20
3128.036823499878
 30
0.0
 11
-12412.67332680342
 21
2648.421581229216
 31
0.0
  0
LINE
  5
24637
330
A
100
AcDbEntity
  8
貫
 62
     7
370
    50
100
AcDbLine
 10
-12498.59035277808
 20
2196.292102425417
 30
0.0
 11
-12498.59035277808
 21
2126.292101152392
 31
0.0
  0
ARC
  5
24638
330
A
100
AcDbEntity
  8
天板
 62
     7
370
    50
100
AcDbCircle
 10
8195.364434199083
 20
2248.792102450812
 30
0.0
 40
12.5
210
0.0
220
0.0
230
-1.0
100
AcDbArc
 50
180.0
 51
270.0000001164142
  0
ARC
  5
24639
330
A
100
AcDbEntity
  8
天板
 62
     7
370
    50
100
AcDbCircle
 10
8195.364434199083
 20
2248.792102425417
 30
0.0
 40
12.5
210
0.0
220
0.0
230
-1.0
100
AcDbArc
 50
90.0
 51
180.0
  0
LINE
  5
2463B
330
A
100
AcDbEntity
  8
脚
 62
     7
370
    50
100
AcDbLine
 10
-8202.864434208306
 20
2236.292102466049
 30
0.0
 11
-8202.864434960007
 21
1866.292102415262
 31
0.0
  0
LINE
  5
2463E
330
A
100
AcDbEntity
  8
脚
 62
     7
370
    50
100
AcDbLine
 10
-8252.864434287603
 20
1866.292102415262
 30
0.0
 11
-8252.864433756503
 21
2166.292793016006
 31
0.0
  0
LINE
  5
24640
330
A
100
AcDbEntity
  8
脚
 62
     7
370
    50
100
AcDbLine
 10
-9348.235756709733
 20
1866.29210242542
 30
0.0
 11
-9348.235756709728
 21
2166.292101152393
 31
0.0
  0
ARC
  5
24642
330
A
100
AcDbEntity
  8
天板
 62
     7
370
    50
100
AcDbCircle
 10
9272.434470369132
 20
2248.792102425417
 30
0.0
 40
12.5
210
0.0
220
0.0
230
-1.0
100
AcDbArc
 50
90.0
 51
180.0
  0
ARC
  5
24643
330
A
100
AcDbEntity
  8
天板
 62
     7
370
    50
100
AcDbCircle
 10
9272.434470369132
 20
2248.792102425417
 30
0.0
 40
12.5
210
0.0
220
0.0
230
-1.0
100
AcDbArc
 50
180.0
 51
270.0
  0
LINE
  5
24644
330
A
100
AcDbEntity
  8
脚
 62
     7
370
    50
100
AcDbLine
 10
-8682.479434199086
 20
1866.29210242542
 30
0.0
 11
-8682.479434199086
 21
2236.292103603763
 31
0.0
  0
ARC
  5
24646
330
A
100
AcDbEntity
  8
天板
 62
     7
370
    50
100
AcDbCircle
 10
-8689.979434199086
 20
2248.792103619001
 30
0.0
 40
12.5
100
AcDbArc
 50
180.0
 51
269.9999998835858
  0
ARC
  5
24647
330
A
100
AcDbEntity
  8
天板
 62
     7
370
    50
100
AcDbCircle
 10
-8689.979434199086
 20
2248.792102425417
 30
0.0
 40
12.5
100
AcDbArc
 50
90.0
 51
180.0
  0
LINE
  5
2464A
330
A
100
AcDbEntity
  8
脚
 62
     7
370
    50
100
AcDbLine
 10
-8632.479434199083
 20
1866.29210242542
 30
0.0
 11
-8632.479434199083
 21
2166.292103502183
 31
0.0
  0
LINE
  5
2464C
330
A
100
AcDbEntity
  8
貫
 62
     7
370
    30
100
AcDbLine
 10
-9313.118125944695
 20
2236.292102425417
 30
0.0
 11
-9333.118125944697
 21
2236.292102425417
 31
0.0
  0
ARC
  5
24650
330
A
100
AcDbEntity
  8
天板
 62
     7
370
    50
100
AcDbCircle
 10
-10418.15247036913
 20
2248.792102425417
 30
0.0
 40
12.5
100
AcDbArc
 50
90.0
 51
180.0
  0
ARC
  5
24651
330
A
100
AcDbEntity
  8
天板
 62
     7
370
    50
100
AcDbCircle
 10
-10418.15247036913
 20
2248.792102425417
 30
0.0
 40
12.5
100
AcDbArc
 50
180.0
 51
270.0
  0
LINE
  5
24652
330
A
100
AcDbEntity
  8
脚
 62
     7
370
    50
100
AcDbLine
 10
-9298.235756709727
 20
1866.29210242542
 30
0.0
 11
-9298.235756709731
 21
2236.292102425416
 31
0.0
  0
LINE
  5
24653
330
A
100
AcDbEntity
  8
天板
 62
     7
370
    50
100
AcDbLine
 10
-10418.15247036913
 20
2236.292102425417
 30
0.0
 11
-9272.434470369132
 21
2236.292102425417
 31
0.0
  0
LINE
  5
24654
330
A
100
AcDbEntity
  8
貫
 62
     7
370
    25
100
AcDbLine
 10
-10344.55593631879
 20
2176.292099879366
 30
0.0
 11
-9348.531004419475
 21
2176.292099879367
 31
0.0
  0
LINE
  5
24655
330
A
100
AcDbEntity
  8
貫
 62
     7
370
    50
100
AcDbLine
 10
-10344.55593631879
 20
2166.292101152393
 30
0.0
 11
-9348.531004419475
 21
2166.292101152393
 31
0.0
  0
LINE
  5
24656
330
A
100
AcDbEntity
  8
天板
 62
     7
370
    50
100
AcDbLine
 10
-10418.15247036913
 20
2261.492102425416
 30
0.0
 11
-9274.934470369132
 21
2261.492102425416
 31
0.0
  0
LINE
  5
24657
330
A
100
AcDbEntity
  8
天板
 62
     7
370
    50
100
AcDbLine
 10
-9274.934470369132
 20
2261.292102425417
 30
0.0
 11
-9272.434470369132
 21
2261.292102425417
 31
0.0
  0
LINE
  5
24658
330
A
100
AcDbEntity
  8
貫
 62
     7
370
    50
100
AcDbLine
 10
-10418.15247036913
 20
2236.292102425417
 30
0.0
 11
-9845.293470369131
 21
2236.292102425417
 31
0.0
  0
LINE
  5
24659
330
A
100
AcDbEntity
  8
貫
  6
STYLE_08
 62
     7
 48
5.0
370
    25
100
AcDbLine
 10
-9845.293470369131
 20
2236.292102425417
 30
0.0
 11
-9450.293470369132
 21
2236.292102425417
 31
0.0
  0
LINE
  5
2465A
330
A
100
AcDbEntity
  8
貫
  6
Continuous
 62
     7
370
    13
100
AcDbLine
 10
-8634.566555910993
 20
2176.292793026211
 30
0.0
 11
-8250.777312659868
 21
2176.292793017773
 31
0.0
  0
LINE
  5
2465B
330
A
100
AcDbEntity
  8
天板
 62
     7
370
    50
100
AcDbLine
 10
-8689.979434199086
 20
2261.292102425417
 30
0.0
 11
-8195.364434199083
 21
2261.292102425417
 31
0.0
  0
LINE
  5
2465C
330
A
100
AcDbEntity
  8
天板
 62
     7
370
    50
100
AcDbLine
 10
-8689.979434224481
 20
2236.292103619001
 30
0.0
 11
-8195.364434224483
 21
2236.292102450812
 31
0.0
  0
LINE
  5
2465D
330
A
100
AcDbEntity
  8
貫
  6
Continuous
 62
     7
 48
3.0
370
    50
100
AcDbLine
 10
-8634.566555908092
 20
2166.292103506423
 30
0.0
 11
-8250.777312683087
 21
2166.292102726704
 31
0.0
  0
LINE
  5
2465E
330
A
100
AcDbEntity
  8
天板
 62
     7
370
    50
100
AcDbLine
 10
-9274.934470369132
 20
2261.492102425416
 30
0.0
 11
-9274.934470369132
 21
2261.292102425417
 31
0.0
  0
LINE
  5
2465F
330
A
100
AcDbEntity
  8
天板
 62
     7
370
    50
100
AcDbLine
 10
-10418.15247036913
 20
2261.492102425416
 30
0.0
 11
-10418.15247036913
 21
2261.292102425417
 31
0.0
  0
LINE
  5
24660
330
A
100
AcDbEntity
  8
天板
 62
     7
370
    50
100
AcDbLine
 10
-10418.15247036913
 20
2261.292102425417
 30
0.0
 11
-9274.934470369132
 21
2261.292102425417
 31
0.0
  0
ARC
  5
24661
330
A
100
AcDbEntity
  8
脚
 62
     7
370
    50
100
AcDbCircle
 10
8202.864434199083
 20
1861.292102415262
 30
0.0
 40
5.0
210
0.0
220
0.0
230
-1.0
100
AcDbArc
 50
0.0
 51
90.0
  0
LINE
  5
24662
330
A
100
AcDbEntity
  8
脚
 62
     7
370
    25
100
AcDbLine
 10
-8202.864434199083
 20
1866.292102415262
 30
0.0
 11
-8252.864434199086
 21
1866.292102415262
 31
0.0
  0
LINE
  5
24663
330
A
100
AcDbEntity
  8
脚
 62
     7
370
    50
100
AcDbLine
 10
-8247.864434199085
 20
1861.292102415262
 30
0.0
 11
-8207.864434199084
 21
1861.292102415262
 31
0.0
  0
ARC
  5
24664
330
A
100
AcDbEntity
  8
脚
 62
     7
370
    50
100
AcDbCircle
 10
-8252.864434199086
 20
1861.292102415262
 30
0.0
 40
5.0
100
AcDbArc
 50
0.0
 51
90.0
  0
LINE
  5
24665
330
A
100
AcDbEntity
  8
脚
 62
     7
370
    50
100
AcDbLine
 10
-9343.235756709734
 20
1861.29210242542
 30
0.0
 11
-9303.235756709732
 21
1861.29210242542
 31
0.0
  0
ARC
  5
24666
330
A
100
AcDbEntity
  8
脚
 62
     7
370
    50
100
AcDbCircle
 10
-8682.479434199086
 20
1861.29210242542
 30
0.0
 40
5.0
100
AcDbArc
 50
0.0
 51
90.0
  0
LINE
  5
24667
330
A
100
AcDbEntity
  8
脚
 62
     7
370
    25
100
AcDbLine
 10
-8632.479434199083
 20
1866.29210242542
 30
0.0
 11
-8682.479434199086
 21
1866.29210242542
 31
0.0
  0
LINE
  5
24668
330
A
100
AcDbEntity
  8
脚
 62
     7
370
    50
100
AcDbLine
 10
-8677.479434199083
 20
1861.29210242542
 30
0.0
 11
-8637.479434199086
 21
1861.29210242542
 31
0.0
  0
ARC
  5
24669
330
A
100
AcDbEntity
  8
脚
 62
     7
370
    50
100
AcDbCircle
 10
8632.479434199083
 20
1861.29210242542
 30
0.0
 40
5.0
210
0.0
220
0.0
230
-1.0
100
AcDbArc
 50
0.0
 51
90.0
  0
LINE
  5
2466A
330
A
100
AcDbEntity
  8
脚
 62
     7
370
    25
100
AcDbLine
 10
-9298.235756709731
 20
1866.29210242542
 30
0.0
 11
-9348.235756709732
 21
1866.29210242542
 31
0.0
  0
ARC
  5
2466B
330
A
100
AcDbEntity
  8
脚
 62
     7
370
    50
100
AcDbCircle
 10
-9348.235756709732
 20
1861.29210242542
 30
0.0
 40
5.0
100
AcDbArc
 50
0.0
 51
90.0
  0
ARC
  5
2466C
330
A
100
AcDbEntity
  8
脚
 62
     7
370
    50
100
AcDbCircle
 10
9298.235756709731
 20
1861.29210242542
 30
0.0
 40
5.0
210
0.0
220
0.0
230
-1.0
100
AcDbArc
 50
0.0
 51
90.0
  0
ARC
  5
24685
330
A
100
AcDbEntity
  8
天板
 62
     7
370
    30
100
AcDbCircle
 10
-10133.74646498534
 20
3158.036823499878
 30
0.0
 40
5.0
100
AcDbArc
 50
90.0
 51
150.0000000000546
  0
LINE
  5
24686
330
A
100
AcDbEntity
  8
天板
 62
     7
370
    25
100
AcDbLine
 10
-10136.24646498534
 20
3162.3669505188
 30
0.0
 11
-10143.74646498534
 21
3175.357331575567
 31
0.0
  0
LINE
  5
24687
330
A
100
AcDbEntity
  8
レイヤー1
  6
STYLE_05
 62
     7
370
    13
100
AcDbLine
 10
-10133.74646498534
 20
3178.036823499878
 30
0.0
 11
-10145.29347036913
 21
3178.036823499878
 31
0.0
  0
LINE
  5
24688
330
A
100
AcDbEntity
  8
レイヤー1
  6
STYLE_05
 62
     7
370
    13
100
AcDbLine
 10
-10151.06697306103
 20
3168.036823499878
 30
0.0
 11
-10145.29347036913
 21
3178.036823499878
 31
0.0
  0
ARC
  5
24689
330
A
100
AcDbEntity
  8
天板
 62
     7
370
    50
100
AcDbCircle
 10
-10133.74646498534
 20
3158.036823499878
 30
0.0
 40
20.0
100
AcDbArc
 50
90.0
 51
150.0000000000546
  0
LINE
  5
2468A
330
A
100
AcDbEntity
  8
天板
 62
     7
370
    25
100
AcDbLine
 10
-10414.98258123668
 20
2675.921581229216
 30
0.0
 11
-10427.97296229345
 21
2668.421581229216
 31
0.0
  0
ARC
  5
2468B
330
A
100
AcDbEntity
  8
天板
 62
     7
370
    30
100
AcDbCircle
 10
-10410.65245421776
 20
2678.421581229216
 30
0.0
 40
5.000000000000015
100
AcDbArc
 50
150.0000000000546
 51
270.0
  0
ARC
  5
2468C
330
A
100
AcDbEntity
  8
天板
 62
     7
370
    50
100
AcDbCircle
 10
-10410.65245421776
 20
2678.421581229216
 30
0.0
 40
20.00000000000007
100
AcDbArc
 50
150.0000000000546
 51
270.0
  0
LINE
  5
24695
330
A
100
AcDbEntity
  8
天板
 62
     7
370
    50
100
AcDbLine
 10
-10133.74646498534
 20
3178.036823499878
 30
0.0
 11
-9845.293470369131
 21
3178.036823499878
 31
0.0
  0
LINE
  5
24696
330
A
100
AcDbEntity
  8
天板
 62
     7
370
    30
100
AcDbLine
 10
-10410.65245421776
 20
2673.421581229216
 30
0.0
 11
-9845.293470369135
 21
2673.421581229216
 31
0.0
  0
LINE
  5
24697
330
A
100
AcDbEntity
  8
天板
 62
     7
370
    50
100
AcDbLine
 10
-10410.65245421776
 20
2658.421581229216
 30
0.0
 11
-9845.293470369135
 21
2658.421581229216
 31
0.0
  0
LINE
  5
24698
330
A
100
AcDbEntity
  8
天板
 62
     7
370
    30
100
AcDbLine
 10
-10133.74646498534
 20
3163.036823499878
 30
0.0
 11
-9845.293470369131
 21
3163.036823499878
 31
0.0
  0
LINE
  5
24699
330
A
100
AcDbEntity
  8
天板
 62
     7
370
    30
100
AcDbLine
 10
-10138.07659200426
 20
3160.536823499878
 30
0.0
 11
-10414.98258123668
 21
2680.921581229216
 31
0.0
  0
LINE
  5
2469A
330
A
100
AcDbEntity
  8
天板
 62
     7
370
    50
100
AcDbLine
 10
-10151.06697306103
 20
3168.036823499878
 30
0.0
 11
-10427.97296229345
 21
2688.421581229216
 31
0.0
  0
LINE
  5
2469B
330
A
100
AcDbEntity
  8
脚
 62
     7
370
    25
100
AcDbLine
 10
-9546.274232482666
 20
1866.29210242542
 30
0.0
 11
-9546.274232482666
 21
2166.292139145875
 31
0.0
  0
LINE
  5
2469C
330
A
100
AcDbEntity
  8
脚
 62
     7
370
    25
100
AcDbLine
 10
-9596.274232482668
 20
1866.29210242542
 30
0.0
 11
-9596.274232482668
 21
2166.292101152393
 31
0.0
  0
LINE
  5
2469D
330
A
100
AcDbEntity
  8
脚
 62
     7
370
    25
100
AcDbLine
 10
-10144.3127082556
 20
1866.29210242542
 30
0.0
 11
-10144.31270825559
 21
2166.292101152393
 31
0.0
  0
LINE
  5
2469E
330
A
100
AcDbEntity
  8
脚
 62
     7
370
    25
100
AcDbLine
 10
-10094.3127082556
 20
1866.29210242542
 30
0.0
 11
-10094.3127082556
 21
2166.292101152393
 31
0.0
  0
LINE
  5
2469F
330
A
100
AcDbEntity
  8
脚
 62
     7
370
    50
100
AcDbLine
 10
-8634.566555908092
 20
2166.292103034898
 30
0.0
 11
-8634.566555928408
 21
2236.292103034897
 31
0.0
  0
LINE
  5
246A0
330
A
100
AcDbEntity
  8
脚
 62
     7
370
    50
100
AcDbLine
 10
-10342.35118402853
 20
1866.29210242542
 30
0.0
 11
-10342.35118402854
 21
2166.292101152393
 31
0.0
  0
LINE
  5
246A5
330
A
100
AcDbEntity
  8
脚
 62
     7
370
    50
100
AcDbLine
 10
-10392.35118402853
 20
1866.29210242542
 30
0.0
 11
-10392.35118402853
 21
2236.292102425416
 31
0.0
  0
LINE
  5
246A6
330
A
100
AcDbEntity
  8
脚
 62
     7
370
    50
100
AcDbLine
 10
-10347.35118402853
 20
1861.29210242542
 30
0.0
 11
-10387.35118402853
 21
1861.29210242542
 31
0.0
  0
LINE
  5
246A7
330
A
100
AcDbEntity
  8
脚
 62
     7
370
    25
100
AcDbLine
 10
-10392.35118402853
 20
1866.29210242542
 30
0.0
 11
-10342.35118402853
 21
1866.29210242542
 31
0.0
  0
ARC
  5
246A8
330
A
100
AcDbEntity
  8
脚
 62
     7
370
    50
100
AcDbCircle
 10
-10342.35118402853
 20
1861.29210242542
 30
0.0
 40
5.0
100
AcDbArc
 50
90.0
 51
180.0
  0
ARC
  5
246A9
330
A
100
AcDbEntity
  8
脚
 62
     7
370
    50
100
AcDbCircle
 10
10392.35118402853
 20
1861.29210242542
 30
0.0
 40
5.0
210
0.0
220
0.0
230
-1.0
100
AcDbArc
 50
90.0
 51
180.0
  0
LINE
  5
246B2
330
A
100
AcDbEntity
  8
脚
 62
     7
370
    25
100
AcDbLine
 10
-10099.3127082556
 20
1861.29210242542
 30
0.0
 11
-10139.3127082556
 21
1861.29210242542
 31
0.0
  0
ARC
  5
246B3
330
A
100
AcDbEntity
  8
脚
 62
     7
370
    25
100
AcDbCircle
 10
10094.3127082556
 20
1861.29210242542
 30
0.0
 40
5.0
210
0.0
220
0.0
230
-1.0
100
AcDbArc
 50
0.0
 51
90.00000372150259
  0
ARC
  5
246B4
330
A
100
AcDbEntity
  8
脚
 62
     7
370
    25
100
AcDbCircle
 10
-10144.3127082556
 20
1861.29210242542
 30
0.0
 40
5.0
100
AcDbArc
 50
0.0
 51
90.00000372150259
  0
LINE
  5
246B5
330
A
100
AcDbEntity
  8
脚
 62
     7
370
    25
100
AcDbLine
 10
-10144.3127082556
 20
1866.29210242542
 30
0.0
 11
-10094.3127082556
 21
1866.29210242542
 31
0.0
  0
LINE
  5
246BE
330
A
100
AcDbEntity
  8
脚
 62
     7
370
    25
100
AcDbLine
 10
-9551.274232482668
 20
1861.29210242542
 30
0.0
 11
-9591.274232482666
 21
1861.29210242542
 31
0.0
  0
ARC
  5
246BF
330
A
100
AcDbEntity
  8
脚
 62
     7
370
    25
100
AcDbCircle
 10
9546.274232482666
 20
1861.29210242542
 30
0.0
 40
5.0
210
0.0
220
0.0
230
-1.0
100
AcDbArc
 50
0.0
 51
90.00000372150259
  0
ARC
  5
246C0
330
A
100
AcDbEntity
  8
脚
 62
     7
370
    25
100
AcDbCircle
 10
-9596.274232482668
 20
1861.29210242542
 30
0.0
 40
5.0
100
AcDbArc
 50
0.0
 51
90.00000372150259
  0
LINE
  5
246C1
330
A
100
AcDbEntity
  8
脚
 62
     7
370
    25
100
AcDbLine
 10
-9596.274232482668
 20
1866.29210242542
 30
0.0
 11
-9546.274232482666
 21
1866.29210242542
 31
0.0
  0
LINE
  5
246CA
330
A
100
AcDbEntity
  8
貫
 62
     7
370
    50
100
AcDbLine
 10
-10344.55593631879
 20
2236.292102425417
 30
0.0
 11
-10344.55593631879
 21
2166.292101152393
 31
0.0
  0
ARC
  5
246CB
330
A
100
AcDbEntity
  8
天板
 62
     7
370
    50
100
AcDbCircle
 10
9272.434470369132
 20
2248.892102425417
 30
0.0
 40
12.5
210
0.0
220
0.0
230
-1.0
100
AcDbArc
 50
180.0
 51
270.0000001164142
  0
LINE
  5
246CC
330
A
100
AcDbEntity
  8
レイヤー1
 62
     7
370
    13
100
AcDbLine
 10
-9314.934470378355
 20
2236.392102491444
 30
0.0
 11
-9294.934470378356
 21
2236.392102491444
 31
0.0
  0
LINE
  5
246CD
330
A
100
AcDbEntity
  8
脚
 62
     7
370
    50
100
AcDbLine
 10
-8250.777312683089
 20
2166.292102644962
 30
0.0
 11
-8250.777312520529
 21
2236.292102644961
 31
0.0
  0
LINE
  5
246CE
330
A
100
AcDbEntity
  8
天板
 62
     7
370
    50
100
AcDbLine
 10
-8687.479434026016
 20
2261.392102450813
 30
0.0
 11
-8197.864434199086
 21
2261.392102450813
 31
0.0
  0
LINE
  5
246CF
330
A
100
AcDbEntity
  8
天板
 62
     7
370
    50
100
AcDbLine
 10
-8197.864434199086
 20
2261.392102450813
 30
0.0
 11
-8197.864434199086
 21
2261.192102450813
 31
0.0
  0
LINE
  5
246D0
330
A
100
AcDbEntity
  8
天板
 62
     7
370
    50
100
AcDbLine
 10
-8687.479434026016
 20
2261.39210344546
 30
0.0
 11
-8687.479434026421
 21
2261.292102425417
 31
0.0
  0
INSERT
  5
246D5
330
A
100
AcDbEntity
  8
寸法
 62
     7
100
AcDbBlockReference
  2
A$C73231E16
 10
-10372.35118402853
 20
1859.292106425003
 30
0.0
  0
LINE
  5
246D6
330
A
100
AcDbEntity
  8
木ネジ・ダボ
 62
     7
100
AcDbLine
 10
-10366.35118402853
 20
1861.29210242542
 30
0.0
 11
-10366.35118402853
 21
1871.29210242542
 31
0.0
  0
LINE
  5
246D7
330
A
100
AcDbEntity
  8
木ネジ・ダボ
 62
     7
100
AcDbLine
 10
-10368.35118402853
 20
1861.29210242542
 30
0.0
 11
-10368.35118402853
 21
1871.29210242542
 31
0.0
  0
LINE
  5
246D8
330
A
100
AcDbEntity
  8
木ネジ・ダボ
 62
     7
100
AcDbLine
 10
-10368.35118402853
 20
1871.29210242542
 30
0.0
 11
-10366.35118402853
 21
1871.29210242542
 31
0.0
  0
INSERT
  5
246E1
330
A
100
AcDbEntity
  8
寸法
 62
     7
100
AcDbBlockReference
  2
A$C73231E16
 10
-10124.3127082556
 20
1859.292106425003
 30
0.0
  0
LINE
  5
246E2
330
A
100
AcDbEntity
  8
木ネジ・ダボ
 62
     7
100
AcDbLine
 10
-10118.3127082556
 20
1861.29210242542
 30
0.0
 11
-10118.3127082556
 21
1871.29210242542
 31
0.0
  0
LINE
  5
246E3
330
A
100
AcDbEntity
  8
木ネジ・ダボ
 62
     7
100
AcDbLine
 10
-10120.3127082556
 20
1861.29210242542
 30
0.0
 11
-10120.3127082556
 21
1871.29210242542
 31
0.0
  0
LINE
  5
246E4
330
A
100
AcDbEntity
  8
木ネジ・ダボ
 62
     7
100
AcDbLine
 10
-10120.3127082556
 20
1871.29210242542
 30
0.0
 11
-10118.3127082556
 21
1871.29210242542
 31
0.0
  0
INSERT
  5
246ED
330
A
100
AcDbEntity
  8
寸法
 62
     7
100
AcDbBlockReference
  2
A$C73231E16
 10
-9576.274232482669
 20
1859.292106425003
 30
0.0
  0
LINE
  5
246EE
330
A
100
AcDbEntity
  8
木ネジ・ダボ
 62
     7
100
AcDbLine
 10
-9570.274232482669
 20
1861.29210242542
 30
0.0
 11
-9570.274232482669
 21
1871.29210242542
 31
0.0
  0
LINE
  5
246EF
330
A
100
AcDbEntity
  8
木ネジ・ダボ
 62
     7
100
AcDbLine
 10
-9572.274232482667
 20
1861.29210242542
 30
0.0
 11
-9572.274232482667
 21
1871.29210242542
 31
0.0
  0
LINE
  5
246F0
330
A
100
AcDbEntity
  8
木ネジ・ダボ
 62
     7
100
AcDbLine
 10
-9572.274232482667
 20
1871.29210242542
 30
0.0
 11
-9570.274232482669
 21
1871.29210242542
 31
0.0
  0
INSERT
  5
246F9
330
A
100
AcDbEntity
  8
寸法
 62
     7
100
AcDbBlockReference
  2
A$C73231E16
 10
-9328.235756709734
 20
1859.292106425003
 30
0.0
  0
LINE
  5
246FA
330
A
100
AcDbEntity
  8
木ネジ・ダボ
 62
     7
100
AcDbLine
 10
-9322.235756709734
 20
1861.29210242542
 30
0.0
 11
-9322.235756709734
 21
1871.29210242542
 31
0.0
  0
LINE
  5
246FB
330
A
100
AcDbEntity
  8
木ネジ・ダボ
 62
     7
100
AcDbLine
 10
-9324.235756709731
 20
1861.29210242542
 30
0.0
 11
-9324.235756709731
 21
1871.29210242542
 31
0.0
  0
LINE
  5
246FC
330
A
100
AcDbEntity
  8
木ネジ・ダボ
 62
     7
100
AcDbLine
 10
-9324.235756709731
 20
1871.29210242542
 30
0.0
 11
-9322.235756709734
 21
1871.29210242542
 31
0.0
  0
INSERT
  5
24705
330
A
100
AcDbEntity
  8
寸法
 62
     7
100
AcDbBlockReference
  2
A$C73231E16
 10
-8662.479434199086
 20
1859.292106425003
 30
0.0
  0
LINE
  5
24706
330
A
100
AcDbEntity
  8
木ネジ・ダボ
 62
     7
100
AcDbLine
 10
-8656.479434199086
 20
1861.29210242542
 30
0.0
 11
-8656.479434199086
 21
1871.29210242542
 31
0.0
  0
LINE
  5
24707
330
A
100
AcDbEntity
  8
木ネジ・ダボ
 62
     7
100
AcDbLine
 10
-8658.479434199085
 20
1861.29210242542
 30
0.0
 11
-8658.479434199085
 21
1871.29210242542
 31
0.0
  0
LINE
  5
24708
330
A
100
AcDbEntity
  8
木ネジ・ダボ
 62
     7
100
AcDbLine
 10
-8658.479434199085
 20
1871.29210242542
 30
0.0
 11
-8656.479434199086
 21
1871.29210242542
 31
0.0
  0
INSERT
  5
24711
330
A
100
AcDbEntity
  8
寸法
 62
     7
100
AcDbBlockReference
  2
A$C73231E16
 10
-8232.864434199084
 20
1859.292106414844
 30
0.0
  0
LINE
  5
24712
330
A
100
AcDbEntity
  8
木ネジ・ダボ
 62
     7
100
AcDbLine
 10
-8226.864434199086
 20
1861.292102415262
 30
0.0
 11
-8226.864434199086
 21
1871.292102415262
 31
0.0
  0
LINE
  5
24713
330
A
100
AcDbEntity
  8
木ネジ・ダボ
 62
     7
100
AcDbLine
 10
-8228.864434199087
 20
1861.292102415262
 30
0.0
 11
-8228.864434199087
 21
1871.292102415262
 31
0.0
  0
LINE
  5
24714
330
A
100
AcDbEntity
  8
木ネジ・ダボ
 62
     7
100
AcDbLine
 10
-8228.864434199087
 20
1871.292102415262
 30
0.0
 11
-8226.864434199086
 21
1871.292102415262
 31
0.0
  0
ARC
  5
24719
330
A
100
AcDbEntity
  8
天板
 62
     7
370
    30
100
AcDbCircle
 10
-9556.84047575292
 20
3158.036823499878
 30
0.0
 40
5.0
100
AcDbArc
 50
29.99999999992382
 51
90.0
  0
LINE
  5
2471A
330
A
100
AcDbEntity
  8
天板
 62
     7
370
    25
100
AcDbLine
 10
-9554.340475752921
 20
3162.3669505188
 30
0.0
 11
-9546.840475752921
 21
3175.357331575567
 31
0.0
  0
LINE
  5
2471B
330
A
100
AcDbEntity
  8
レイヤー1
  6
STYLE_05
 62
     7
370
    13
100
AcDbLine
 10
-9556.84047575292
 20
3178.036823499878
 30
0.0
 11
-9545.293470369129
 21
3178.036823499878
 31
0.0
  0
LINE
  5
2471C
330
A
100
AcDbEntity
  8
レイヤー1
  6
STYLE_05
 62
     7
370
    13
100
AcDbLine
 10
-9539.519967677232
 20
3168.036823499878
 30
0.0
 11
-9545.293470369129
 21
3178.036823499878
 31
0.0
  0
ARC
  5
2471D
330
A
100
AcDbEntity
  8
天板
 62
     7
370
    50
100
AcDbCircle
 10
-9556.84047575292
 20
3158.036823499878
 30
0.0
 40
20.0
100
AcDbArc
 50
29.99999999992382
 51
90.0
  0
LINE
  5
2471E
330
A
100
AcDbEntity
  8
天板
 62
     7
370
    25
100
AcDbLine
 10
-9275.604359501585
 20
2675.921581229216
 30
0.0
 11
-9262.613978444816
 21
2668.421581229216
 31
0.0
  0
ARC
  5
2471F
330
A
100
AcDbEntity
  8
天板
 62
     7
370
    30
100
AcDbCircle
 10
-9279.934486520506
 20
2678.421581229216
 30
0.0
 40
5.000000000000015
100
AcDbArc
 50
270.0
 51
29.99999999992382
  0
ARC
  5
24720
330
A
100
AcDbEntity
  8
天板
 62
     7
370
    50
100
AcDbCircle
 10
-9279.934486520506
 20
2678.421581229216
 30
0.0
 40
20.00000000000007
100
AcDbArc
 50
270.0
 51
29.99999999992382
  0
LINE
  5
24721
330
A
100
AcDbEntity
  8
天板
 62
     7
370
    50
100
AcDbLine
 10
-9556.84047575292
 20
3178.036823499878
 30
0.0
 11
-9845.293470369131
 21
3178.036823499878
 31
0.0
  0
LINE
  5
24722
330
A
100
AcDbEntity
  8
天板
 62
     7
370
    30
100
AcDbLine
 10
-9279.934486520506
 20
2673.421581229216
 30
0.0
 11
-9845.29347036913
 21
2673.421581229216
 31
0.0
  0
LINE
  5
24723
330
A
100
AcDbEntity
  8
天板
 62
     7
370
    50
100
AcDbLine
 10
-9279.934486520506
 20
2658.421581229216
 30
0.0
 11
-9845.29347036913
 21
2658.421581229216
 31
0.0
  0
LINE
  5
24724
330
A
100
AcDbEntity
  8
天板
 62
     7
370
    30
100
AcDbLine
 10
-9556.84047575292
 20
3163.036823499878
 30
0.0
 11
-9845.293470369131
 21
3163.036823499878
 31
0.0
  0
LINE
  5
24725
330
A
100
AcDbEntity
  8
天板
 62
     7
370
    30
100
AcDbLine
 10
-9552.510348734001
 20
3160.536823499878
 30
0.0
 11
-9275.604359501585
 21
2680.921581229216
 31
0.0
  0
LINE
  5
24726
330
A
100
AcDbEntity
  8
天板
 62
     7
370
    50
100
AcDbLine
 10
-9539.519967677232
 20
3168.036823499878
 30
0.0
 11
-9262.613978444816
 21
2688.421581229216
 31
0.0
  0
LINE
  5
24727
330
A
100
AcDbEntity
  8
貫
 62
     7
370
    50
100
AcDbLine
 10
-9348.531004419475
 20
2236.292102425417
 30
0.0
 11
-9348.531004419475
 21
2166.292101152393
 31
0.0
  0
ARC
  5
24728
330
A
100
AcDbEntity
  8
天板
 62
     7
370
    50
100
AcDbCircle
 10
5040.3404442757
 20
2318.792102450812
 30
0.0
 40
12.5
210
0.0
220
0.0
230
-1.0
100
AcDbArc
 50
180.0
 51
270.0000001164142
  0
ARC
  5
24729
330
A
100
AcDbEntity
  8
天板
 62
     7
370
    50
100
AcDbCircle
 10
5040.3404442757
 20
2318.792102425417
 30
0.0
 40
12.5
210
0.0
220
0.0
230
-1.0
100
AcDbArc
 50
90.0
 51
180.0
  0
LINE
  5
2472A
330
A
100
AcDbEntity
  8
脚
 62
     7
370
    50
100
AcDbLine
 10
-5047.840444284919
 20
2306.292102466049
 30
0.0
 11
-5047.840445178838
 21
1866.292102415262
 31
0.0
  0
LINE
  5
2472B
330
A
100
AcDbEntity
  8
脚
 62
     7
370
    50
100
AcDbLine
 10
-5097.840444488139
 20
1866.292102415262
 30
0.0
 11
-5097.840443833116
 21
2236.292793016006
 31
0.0
  0
LINE
  5
2472C
330
A
100
AcDbEntity
  8
脚
 62
     7
370
    50
100
AcDbLine
 10
-6193.211766786347
 20
1866.29210242542
 30
0.0
 11
-6193.211766786341
 21
2236.292101152392
 31
0.0
  0
ARC
  5
2472D
330
A
100
AcDbEntity
  8
天板
 62
     7
370
    50
100
AcDbCircle
 10
6117.410480445748
 20
2318.792102425417
 30
0.0
 40
12.5
210
0.0
220
0.0
230
-1.0
100
AcDbArc
 50
90.0
 51
180.0
  0
ARC
  5
2472E
330
A
100
AcDbEntity
  8
天板
 62
     7
370
    50
100
AcDbCircle
 10
6117.410480445748
 20
2318.792102425417
 30
0.0
 40
12.5
210
0.0
220
0.0
230
-1.0
100
AcDbArc
 50
180.0
 51
270.0
  0
LINE
  5
2472F
330
A
100
AcDbEntity
  8
脚
 62
     7
370
    50
100
AcDbLine
 10
-5527.4554442757
 20
1866.29210242542
 30
0.0
 11
-5527.4554442757
 21
2306.292103603763
 31
0.0
  0
ARC
  5
24730
330
A
100
AcDbEntity
  8
天板
 62
     7
370
    50
100
AcDbCircle
 10
-5534.955444275699
 20
2318.792103619001
 30
0.0
 40
12.5
100
AcDbArc
 50
180.0
 51
269.9999998835858
  0
ARC
  5
24731
330
A
100
AcDbEntity
  8
天板
 62
     7
370
    50
100
AcDbCircle
 10
-5534.955444275699
 20
2318.792102425417
 30
0.0
 40
12.5
100
AcDbArc
 50
90.0
 51
180.0
  0
LINE
  5
24732
330
A
100
AcDbEntity
  8
脚
 62
     7
370
    50
100
AcDbLine
 10
-5477.4554442757
 20
1866.292102425419
 30
0.0
 11
-5477.4554442757
 21
2236.292103502183
 31
0.0
  0
LINE
  5
24733
330
A
100
AcDbEntity
  8
貫
 62
     7
370
    30
100
AcDbLine
 10
-6158.094136021311
 20
2306.292102425417
 30
0.0
 11
-6178.094136021311
 21
2306.292102425417
 31
0.0
  0
ARC
  5
24734
330
A
100
AcDbEntity
  8
天板
 62
     7
370
    50
100
AcDbCircle
 10
-7263.128480445748
 20
2318.792102425417
 30
0.0
 40
12.5
100
AcDbArc
 50
90.0
 51
180.0
  0
ARC
  5
24735
330
A
100
AcDbEntity
  8
天板
 62
     7
370
    50
100
AcDbCircle
 10
-7263.128480445748
 20
2318.792102425417
 30
0.0
 40
12.5
100
AcDbArc
 50
180.0
 51
270.0
  0
LINE
  5
24736
330
A
100
AcDbEntity
  8
脚
 62
     7
370
    50
100
AcDbLine
 10
-6143.211766786347
 20
1866.29210242542
 30
0.0
 11
-6143.211766786347
 21
2306.292102425416
 31
0.0
  0
LINE
  5
24737
330
A
100
AcDbEntity
  8
天板
 62
     7
370
    50
100
AcDbLine
 10
-7263.128480445748
 20
2306.292102425417
 30
0.0
 11
-6117.410480445748
 21
2306.292102425417
 31
0.0
  0
LINE
  5
24738
330
A
100
AcDbEntity
  8
貫
 62
     7
370
    25
100
AcDbLine
 10
-7189.531946395404
 20
2246.292099879366
 30
0.0
 11
-6193.507014496091
 21
2246.292099879367
 31
0.0
  0
LINE
  5
24739
330
A
100
AcDbEntity
  8
貫
 62
     7
370
    50
100
AcDbLine
 10
-7189.531946395405
 20
2236.292101152392
 30
0.0
 11
-6193.507014496091
 21
2236.292101152392
 31
0.0
  0
LINE
  5
2473A
330
A
100
AcDbEntity
  8
天板
 62
     7
370
    50
100
AcDbLine
 10
-7263.128480445748
 20
2331.492102425416
 30
0.0
 11
-6119.910480445748
 21
2331.492102425416
 31
0.0
  0
LINE
  5
2473B
330
A
100
AcDbEntity
  8
天板
 62
     7
370
    50
100
AcDbLine
 10
-6119.910480445748
 20
2331.292102425416
 30
0.0
 11
-6117.410480445748
 21
2331.292102425416
 31
0.0
  0
LINE
  5
2473C
330
A
100
AcDbEntity
  8
貫
 62
     7
370
    50
100
AcDbLine
 10
-7263.128480445748
 20
2306.292102425417
 30
0.0
 11
-6690.269480445746
 21
2306.292102425417
 31
0.0
  0
LINE
  5
2473D
330
A
100
AcDbEntity
  8
貫
  6
STYLE_08
 62
     7
 48
5.0
370
    25
100
AcDbLine
 10
-6690.269480445746
 20
2306.292102425417
 30
0.0
 11
-6295.269480445746
 21
2306.292102425417
 31
0.0
  0
LINE
  5
2473E
330
A
100
AcDbEntity
  8
貫
  6
Continuous
 62
     7
370
    13
100
AcDbLine
 10
-5479.542565987607
 20
2246.292793026211
 30
0.0
 11
-5095.753322736481
 21
2246.292793017773
 31
0.0
  0
LINE
  5
2473F
330
A
100
AcDbEntity
  8
天板
 62
     7
370
    50
100
AcDbLine
 10
-5534.955444275699
 20
2331.292102425416
 30
0.0
 11
-5040.3404442757
 21
2331.292102425416
 31
0.0
  0
LINE
  5
24740
330
A
100
AcDbEntity
  8
天板
 62
     7
370
    50
100
AcDbLine
 10
-5534.955444301095
 20
2306.292103619
 30
0.0
 11
-5040.340444301097
 21
2306.292102450813
 31
0.0
  0
LINE
  5
24741
330
A
100
AcDbEntity
  8
貫
  6
Continuous
 62
     7
 48
3.0
370
    50
100
AcDbLine
 10
-5479.542565984706
 20
2236.292103506423
 30
0.0
 11
-5095.7533227597
 21
2236.292102726705
 31
0.0
  0
LINE
  5
24742
330
A
100
AcDbEntity
  8
天板
 62
     7
370
    50
100
AcDbLine
 10
-6119.910480445748
 20
2331.492102425416
 30
0.0
 11
-6119.910480445748
 21
2331.292102425416
 31
0.0
  0
LINE
  5
24743
330
A
100
AcDbEntity
  8
天板
 62
     7
370
    50
100
AcDbLine
 10
-7263.128480445748
 20
2331.492102425416
 30
0.0
 11
-7263.128480445748
 21
2331.292102425416
 31
0.0
  0
LINE
  5
24744
330
A
100
AcDbEntity
  8
天板
 62
     7
370
    50
100
AcDbLine
 10
-7263.128480445748
 20
2331.292102425416
 30
0.0
 11
-6119.910480445748
 21
2331.292102425416
 31
0.0
  0
ARC
  5
24751
330
A
100
AcDbEntity
  8
脚
 62
     7
370
    50
100
AcDbCircle
 10
5047.840444275698
 20
1861.292102415262
 30
0.0
 40
5.0
210
0.0
220
0.0
230
-1.0
100
AcDbArc
 50
0.0
 51
90.0
  0
LINE
  5
24752
330
A
100
AcDbEntity
  8
脚
 62
     7
370
    25
100
AcDbLine
 10
-5047.840444275698
 20
1866.292102415262
 30
0.0
 11
-5097.8404442757
 21
1866.292102415262
 31
0.0
  0
LINE
  5
24753
330
A
100
AcDbEntity
  8
脚
 62
     7
370
    50
100
AcDbLine
 10
-5092.8404442757
 20
1861.292102415262
 30
0.0
 11
-5052.840444275698
 21
1861.292102415262
 31
0.0
  0
ARC
  5
24754
330
A
100
AcDbEntity
  8
脚
 62
     7
370
    50
100
AcDbCircle
 10
-5097.8404442757
 20
1861.292102415262
 30
0.0
 40
5.0
100
AcDbArc
 50
0.0
 51
90.0
  0
LINE
  5
24755
330
A
100
AcDbEntity
  8
脚
 62
     7
370
    50
100
AcDbLine
 10
-6188.211766786348
 20
1861.29210242542
 30
0.0
 11
-6148.211766786347
 21
1861.29210242542
 31
0.0
  0
ARC
  5
24756
330
A
100
AcDbEntity
  8
脚
 62
     7
370
    50
100
AcDbCircle
 10
-5527.4554442757
 20
1861.29210242542
 30
0.0
 40
5.0
100
AcDbArc
 50
0.0
 51
90.0
  0
LINE
  5
24757
330
A
100
AcDbEntity
  8
脚
 62
     7
370
    25
100
AcDbLine
 10
-5477.4554442757
 20
1866.29210242542
 30
0.0
 11
-5527.4554442757
 21
1866.29210242542
 31
0.0
  0
LINE
  5
24758
330
A
100
AcDbEntity
  8
脚
 62
     7
370
    50
100
AcDbLine
 10
-5522.455444275699
 20
1861.29210242542
 30
0.0
 11
-5482.4554442757
 21
1861.29210242542
 31
0.0
  0
ARC
  5
24759
330
A
100
AcDbEntity
  8
脚
 62
     7
370
    50
100
AcDbCircle
 10
5477.4554442757
 20
1861.29210242542
 30
0.0
 40
5.0
210
0.0
220
0.0
230
-1.0
100
AcDbArc
 50
0.0
 51
90.0
  0
LINE
  5
2475A
330
A
100
AcDbEntity
  8
脚
 62
     7
370
    25
100
AcDbLine
 10
-6143.211766786347
 20
1866.29210242542
 30
0.0
 11
-6193.211766786347
 21
1866.29210242542
 31
0.0
  0
ARC
  5
2475B
330
A
100
AcDbEntity
  8
脚
 62
     7
370
    50
100
AcDbCircle
 10
-6193.211766786347
 20
1861.29210242542
 30
0.0
 40
5.0
100
AcDbArc
 50
0.0
 51
90.0
  0
ARC
  5
2475C
330
A
100
AcDbEntity
  8
脚
 62
     7
370
    50
100
AcDbCircle
 10
6143.211766786347
 20
1861.29210242542
 30
0.0
 40
5.0
210
0.0
220
0.0
230
-1.0
100
AcDbArc
 50
0.0
 51
90.0
  0
ARC
  5
24769
330
A
100
AcDbEntity
  8
天板
 62
     7
370
    30
100
AcDbCircle
 10
-6978.722475061957
 20
3228.036823499877
 30
0.0
 40
5.0
100
AcDbArc
 50
90.0
 51
150.0000000000583
  0
LINE
  5
2476A
330
A
100
AcDbEntity
  8
天板
 62
     7
370
    25
100
AcDbLine
 10
-6981.222475061958
 20
3232.3669505188
 30
0.0
 11
-6988.722475061955
 21
3245.357331575567
 31
0.0
  0
LINE
  5
2476B
330
A
100
AcDbEntity
  8
レイヤー1
  6
STYLE_05
 62
     7
370
    13
100
AcDbLine
 10
-6978.722475061957
 20
3248.036823499878
 30
0.0
 11
-6990.26948044575
 21
3248.036823499878
 31
0.0
  0
LINE
  5
2476C
330
A
100
AcDbEntity
  8
レイヤー1
  6
STYLE_05
 62
     7
370
    13
100
AcDbLine
 10
-6996.042983137647
 20
3238.036823499878
 30
0.0
 11
-6990.26948044575
 21
3248.036823499878
 31
0.0
  0
ARC
  5
2476D
330
A
100
AcDbEntity
  8
天板
 62
     7
370
    50
100
AcDbCircle
 10
-6978.722475061957
 20
3228.036823499877
 30
0.0
 40
20.0
100
AcDbArc
 50
90.0
 51
150.0000000000583
  0
LINE
  5
2476E
330
A
100
AcDbEntity
  8
天板
 62
     7
370
    25
100
AcDbLine
 10
-7259.958591313294
 20
2745.921581229216
 30
0.0
 11
-7272.948972370061
 21
2738.421581229216
 31
0.0
  0
ARC
  5
2476F
330
A
100
AcDbEntity
  8
天板
 62
     7
370
    30
100
AcDbCircle
 10
-7255.628464294374
 20
2748.421581229216
 30
0.0
 40
5.000000000000015
100
AcDbArc
 50
150.0000000000583
 51
270.0
  0
ARC
  5
24770
330
A
100
AcDbEntity
  8
天板
 62
     7
370
    50
100
AcDbCircle
 10
-7255.628464294374
 20
2748.421581229216
 30
0.0
 40
20.00000000000007
100
AcDbArc
 50
150.0000000000583
 51
270.0
  0
LINE
  5
24771
330
A
100
AcDbEntity
  8
天板
 62
     7
370
    50
100
AcDbLine
 10
-6978.722475061957
 20
3248.036823499878
 30
0.0
 11
-6690.269480445746
 21
3248.036823499878
 31
0.0
  0
LINE
  5
24772
330
A
100
AcDbEntity
  8
天板
 62
     7
370
    30
100
AcDbLine
 10
-7255.628464294374
 20
2743.421581229216
 30
0.0
 11
-6690.269480445748
 21
2743.421581229216
 31
0.0
  0
LINE
  5
24773
330
A
100
AcDbEntity
  8
天板
 62
     7
370
    50
100
AcDbLine
 10
-7255.628464294374
 20
2728.421581229216
 30
0.0
 11
-6690.269480445748
 21
2728.421581229216
 31
0.0
  0
LINE
  5
24774
330
A
100
AcDbEntity
  8
天板
 62
     7
370
    30
100
AcDbLine
 10
-6978.722475061957
 20
3233.036823499878
 30
0.0
 11
-6690.269480445746
 21
3233.036823499878
 31
0.0
  0
LINE
  5
24775
330
A
100
AcDbEntity
  8
天板
 62
     7
370
    30
100
AcDbLine
 10
-6983.052602080879
 20
3230.536823499878
 30
0.0
 11
-7259.958591313294
 21
2750.921581229216
 31
0.0
  0
LINE
  5
24776
330
A
100
AcDbEntity
  8
天板
 62
     7
370
    50
100
AcDbLine
 10
-6996.042983137647
 20
3238.036823499878
 30
0.0
 11
-7272.948972370061
 21
2758.421581229216
 31
0.0
  0
LINE
  5
24777
330
A
100
AcDbEntity
  8
脚
 62
     7
370
    25
100
AcDbLine
 10
-6391.250242559281
 20
1866.29210242542
 30
0.0
 11
-6391.250242559281
 21
2236.292139145875
 31
0.0
  0
LINE
  5
24778
330
A
100
AcDbEntity
  8
脚
 62
     7
370
    25
100
AcDbLine
 10
-6441.250242559281
 20
1866.29210242542
 30
0.0
 11
-6441.250242559281
 21
2236.292101152392
 31
0.0
  0
LINE
  5
24779
330
A
100
AcDbEntity
  8
脚
 62
     7
370
    25
100
AcDbLine
 10
-6989.288718332216
 20
1866.29210242542
 30
0.0
 11
-6989.288718332211
 21
2236.292101152393
 31
0.0
  0
LINE
  5
2477A
330
A
100
AcDbEntity
  8
脚
 62
     7
370
    25
100
AcDbLine
 10
-6939.288718332213
 20
1866.29210242542
 30
0.0
 11
-6939.288718332213
 21
2236.292101152393
 31
0.0
  0
LINE
  5
2477B
330
A
100
AcDbEntity
  8
脚
 62
     7
370
    50
100
AcDbLine
 10
-5479.542565984704
 20
2236.292103034898
 30
0.0
 11
-5479.542566005022
 21
2306.292103034897
 31
0.0
  0
LINE
  5
2477C
330
A
100
AcDbEntity
  8
脚
 62
     7
370
    50
100
AcDbLine
 10
-7187.327194105141
 20
1866.29210242542
 30
0.0
 11
-7187.327194105154
 21
2236.292101152392
 31
0.0
  0
LINE
  5
2477D
330
A
100
AcDbEntity
  8
脚
 62
     7
370
    50
100
AcDbLine
 10
-7237.327194105147
 20
1866.29210242542
 30
0.0
 11
-7237.327194105147
 21
2306.292102425416
 31
0.0
  0
LINE
  5
24782
330
A
100
AcDbEntity
  8
脚
 62
     7
370
    50
100
AcDbLine
 10
-7192.327194105144
 20
1861.29210242542
 30
0.0
 11
-7232.327194105145
 21
1861.29210242542
 31
0.0
  0
LINE
  5
24783
330
A
100
AcDbEntity
  8
脚
 62
     7
370
    25
100
AcDbLine
 10
-7237.327194105147
 20
1866.29210242542
 30
0.0
 11
-7187.327194105147
 21
1866.29210242542
 31
0.0
  0
ARC
  5
24784
330
A
100
AcDbEntity
  8
脚
 62
     7
370
    50
100
AcDbCircle
 10
-7187.327194105144
 20
1861.29210242542
 30
0.0
 40
5.0
100
AcDbArc
 50
90.0
 51
180.0
  0
ARC
  5
24785
330
A
100
AcDbEntity
  8
脚
 62
     7
370
    50
100
AcDbCircle
 10
7237.327194105147
 20
1861.29210242542
 30
0.0
 40
5.0
210
0.0
220
0.0
230
-1.0
100
AcDbArc
 50
90.0
 51
180.0
  0
LINE
  5
2478E
330
A
100
AcDbEntity
  8
脚
 62
     7
370
    25
100
AcDbLine
 10
-6944.288718332213
 20
1861.29210242542
 30
0.0
 11
-6984.288718332213
 21
1861.29210242542
 31
0.0
  0
ARC
  5
2478F
330
A
100
AcDbEntity
  8
脚
 62
     7
370
    25
100
AcDbCircle
 10
6939.288718332213
 20
1861.29210242542
 30
0.0
 40
5.0
210
0.0
220
0.0
230
-1.0
100
AcDbArc
 50
0.0
 51
90.00000372150259
  0
ARC
  5
24790
330
A
100
AcDbEntity
  8
脚
 62
     7
370
    25
100
AcDbCircle
 10
-6989.288718332213
 20
1861.29210242542
 30
0.0
 40
5.0
100
AcDbArc
 50
0.0
 51
90.00000372150259
  0
LINE
  5
24791
330
A
100
AcDbEntity
  8
脚
 62
     7
370
    25
100
AcDbLine
 10
-6989.288718332213
 20
1866.29210242542
 30
0.0
 11
-6939.288718332213
 21
1866.29210242542
 31
0.0
  0
LINE
  5
2479A
330
A
100
AcDbEntity
  8
脚
 62
     7
370
    25
100
AcDbLine
 10
-6396.250242559281
 20
1861.29210242542
 30
0.0
 11
-6436.250242559281
 21
1861.29210242542
 31
0.0
  0
ARC
  5
2479B
330
A
100
AcDbEntity
  8
脚
 62
     7
370
    25
100
AcDbCircle
 10
6391.250242559281
 20
1861.29210242542
 30
0.0
 40
5.0
210
0.0
220
0.0
230
-1.0
100
AcDbArc
 50
0.0
 51
90.00000372150259
  0
ARC
  5
2479C
330
A
100
AcDbEntity
  8
脚
 62
     7
370
    25
100
AcDbCircle
 10
-6441.250242559281
 20
1861.29210242542
 30
0.0
 40
5.0
100
AcDbArc
 50
0.0
 51
90.00000372150259
  0
LINE
  5
2479D
330
A
100
AcDbEntity
  8
脚
 62
     7
370
    25
100
AcDbLine
 10
-6441.250242559281
 20
1866.29210242542
 30
0.0
 11
-6391.250242559281
 21
1866.29210242542
 31
0.0
  0
LINE
  5
247A2
330
A
100
AcDbEntity
  8
貫
 62
     7
370
    50
100
AcDbLine
 10
-7189.531946395404
 20
2306.292102425417
 30
0.0
 11
-7189.531946395404
 21
2236.292101152392
 31
0.0
  0
ARC
  5
247A3
330
A
100
AcDbEntity
  8
天板
 62
     7
370
    50
100
AcDbCircle
 10
6117.410480445748
 20
2318.892102425416
 30
0.0
 40
12.5
210
0.0
220
0.0
230
-1.0
100
AcDbArc
 50
180.0
 51
270.0000001164142
  0
LINE
  5
247A4
330
A
100
AcDbEntity
  8
レイヤー1
 62
     7
370
    13
100
AcDbLine
 10
-6159.910480454968
 20
2306.392102491444
 30
0.0
 11
-6139.910480454968
 21
2306.392102491444
 31
0.0
  0
LINE
  5
247A5
330
A
100
AcDbEntity
  8
脚
 62
     7
370
    50
100
AcDbLine
 10
-5095.753322759702
 20
2236.292102644962
 30
0.0
 11
-5095.753322597143
 21
2306.292102644961
 31
0.0
  0
LINE
  5
247A6
330
A
100
AcDbEntity
  8
天板
 62
     7
370
    50
100
AcDbLine
 10
-5532.455444102629
 20
2331.392102450812
 30
0.0
 11
-5042.8404442757
 21
2331.392102450812
 31
0.0
  0
LINE
  5
247A7
330
A
100
AcDbEntity
  8
天板
 62
     7
370
    50
100
AcDbLine
 10
-5042.8404442757
 20
2331.392102450812
 30
0.0
 11
-5042.8404442757
 21
2331.192102450812
 31
0.0
  0
LINE
  5
247A8
330
A
100
AcDbEntity
  8
天板
 62
     7
370
    50
100
AcDbLine
 10
-5532.455444102629
 20
2331.39210344546
 30
0.0
 11
-5532.455444103035
 21
2331.292102425416
 31
0.0
  0
INSERT
  5
247AD
330
A
100
AcDbEntity
  8
寸法
 62
     7
100
AcDbBlockReference
  2
A$C73231E16
 10
-7217.327194105144
 20
1859.292106425003
 30
0.0
  0
LINE
  5
247AE
330
A
100
AcDbEntity
  8
木ネジ・ダボ
 62
     7
100
AcDbLine
 10
-7211.327194105145
 20
1861.29210242542
 30
0.0
 11
-7211.327194105145
 21
1871.29210242542
 31
0.0
  0
LINE
  5
247AF
330
A
100
AcDbEntity
  8
木ネジ・ダボ
 62
     7
100
AcDbLine
 10
-7213.327194105144
 20
1861.29210242542
 30
0.0
 11
-7213.327194105144
 21
1871.29210242542
 31
0.0
  0
LINE
  5
247B0
330
A
100
AcDbEntity
  8
木ネジ・ダボ
 62
     7
100
AcDbLine
 10
-7213.327194105144
 20
1871.29210242542
 30
0.0
 11
-7211.327194105145
 21
1871.29210242542
 31
0.0
  0
INSERT
  5
247B5
330
A
100
AcDbEntity
  8
寸法
 62
     7
100
AcDbBlockReference
  2
A$C73231E16
 10
-6969.288718332212
 20
1859.292106425003
 30
0.0
  0
LINE
  5
247B6
330
A
100
AcDbEntity
  8
木ネジ・ダボ
 62
     7
100
AcDbLine
 10
-6963.288718332212
 20
1861.29210242542
 30
0.0
 11
-6963.288718332212
 21
1871.29210242542
 31
0.0
  0
LINE
  5
247B7
330
A
100
AcDbEntity
  8
木ネジ・ダボ
 62
     7
100
AcDbLine
 10
-6965.288718332215
 20
1861.29210242542
 30
0.0
 11
-6965.288718332215
 21
1871.29210242542
 31
0.0
  0
LINE
  5
247B8
330
A
100
AcDbEntity
  8
木ネジ・ダボ
 62
     7
100
AcDbLine
 10
-6965.288718332215
 20
1871.29210242542
 30
0.0
 11
-6963.288718332212
 21
1871.29210242542
 31
0.0
  0
INSERT
  5
247BD
330
A
100
AcDbEntity
  8
寸法
 62
     7
100
AcDbBlockReference
  2
A$C73231E16
 10
-6421.250242559281
 20
1859.292106425003
 30
0.0
  0
LINE
  5
247BE
330
A
100
AcDbEntity
  8
木ネジ・ダボ
 62
     7
100
AcDbLine
 10
-6415.250242559281
 20
1861.29210242542
 30
0.0
 11
-6415.250242559281
 21
1871.29210242542
 31
0.0
  0
LINE
  5
247BF
330
A
100
AcDbEntity
  8
木ネジ・ダボ
 62
     7
100
AcDbLine
 10
-6417.250242559281
 20
1861.29210242542
 30
0.0
 11
-6417.250242559281
 21
1871.29210242542
 31
0.0
  0
LINE
  5
247C0
330
A
100
AcDbEntity
  8
木ネジ・ダボ
 62
     7
100
AcDbLine
 10
-6417.250242559281
 20
1871.29210242542
 30
0.0
 11
-6415.250242559281
 21
1871.29210242542
 31
0.0
  0
INSERT
  5
247C5
330
A
100
AcDbEntity
  8
寸法
 62
     7
100
AcDbBlockReference
  2
A$C73231E16
 10
-6173.211766786348
 20
1859.292106425003
 30
0.0
  0
LINE
  5
247C6
330
A
100
AcDbEntity
  8
木ネジ・ダボ
 62
     7
100
AcDbLine
 10
-6167.211766786348
 20
1861.29210242542
 30
0.0
 11
-6167.211766786348
 21
1871.29210242542
 31
0.0
  0
LINE
  5
247C7
330
A
100
AcDbEntity
  8
木ネジ・ダボ
 62
     7
100
AcDbLine
 10
-6169.211766786347
 20
1861.29210242542
 30
0.0
 11
-6169.211766786347
 21
1871.29210242542
 31
0.0
  0
LINE
  5
247C8
330
A
100
AcDbEntity
  8
木ネジ・ダボ
 62
     7
100
AcDbLine
 10
-6169.211766786347
 20
1871.29210242542
 30
0.0
 11
-6167.211766786348
 21
1871.29210242542
 31
0.0
  0
INSERT
  5
247CD
330
A
100
AcDbEntity
  8
寸法
 62
     7
100
AcDbBlockReference
  2
A$C73231E16
 10
-5507.455444275699
 20
1859.292106425003
 30
0.0
  0
LINE
  5
247CE
330
A
100
AcDbEntity
  8
木ネジ・ダボ
 62
     7
100
AcDbLine
 10
-5501.4554442757
 20
1861.29210242542
 30
0.0
 11
-5501.4554442757
 21
1871.29210242542
 31
0.0
  0
LINE
  5
247CF
330
A
100
AcDbEntity
  8
木ネジ・ダボ
 62
     7
100
AcDbLine
 10
-5503.4554442757
 20
1861.29210242542
 30
0.0
 11
-5503.4554442757
 21
1871.29210242542
 31
0.0
  0
LINE
  5
247D0
330
A
100
AcDbEntity
  8
木ネジ・ダボ
 62
     7
100
AcDbLine
 10
-5503.4554442757
 20
1871.29210242542
 30
0.0
 11
-5501.4554442757
 21
1871.29210242542
 31
0.0
  0
INSERT
  5
247D5
330
A
100
AcDbEntity
  8
寸法
 62
     7
100
AcDbBlockReference
  2
A$C73231E16
 10
-5077.8404442757
 20
1859.292106414844
 30
0.0
  0
LINE
  5
247D6
330
A
100
AcDbEntity
  8
木ネジ・ダボ
 62
     7
100
AcDbLine
 10
-5071.8404442757
 20
1861.292102415262
 30
0.0
 11
-5071.8404442757
 21
1871.292102415262
 31
0.0
  0
LINE
  5
247D7
330
A
100
AcDbEntity
  8
木ネジ・ダボ
 62
     7
100
AcDbLine
 10
-5073.8404442757
 20
1861.292102415262
 30
0.0
 11
-5073.8404442757
 21
1871.292102415262
 31
0.0
  0
LINE
  5
247D8
330
A
100
AcDbEntity
  8
木ネジ・ダボ
 62
     7
100
AcDbLine
 10
-5073.8404442757
 20
1871.292102415262
 30
0.0
 11
-5071.8404442757
 21
1871.292102415262
 31
0.0
  0
ARC
  5
247D9
330
A
100
AcDbEntity
  8
天板
 62
     7
370
    30
100
AcDbCircle
 10
-6401.816485829534
 20
3228.036823499877
 30
0.0
 40
5.0
100
AcDbArc
 50
29.99999999992657
 51
90.0
  0
LINE
  5
247DA
330
A
100
AcDbEntity
  8
天板
 62
     7
370
    25
100
AcDbLine
 10
-6399.316485829535
 20
3232.3669505188
 30
0.0
 11
-6391.816485829535
 21
3245.357331575567
 31
0.0
  0
LINE
  5
247DB
330
A
100
AcDbEntity
  8
レイヤー1
  6
STYLE_05
 62
     7
370
    13
100
AcDbLine
 10
-6401.816485829534
 20
3248.036823499878
 30
0.0
 11
-6390.269480445742
 21
3248.036823499878
 31
0.0
  0
LINE
  5
247DC
330
A
100
AcDbEntity
  8
レイヤー1
  6
STYLE_05
 62
     7
370
    13
100
AcDbLine
 10
-6384.495977753847
 20
3238.036823499878
 30
0.0
 11
-6390.269480445742
 21
3248.036823499878
 31
0.0
  0
ARC
  5
247DD
330
A
100
AcDbEntity
  8
天板
 62
     7
370
    50
100
AcDbCircle
 10
-6401.816485829534
 20
3228.036823499877
 30
0.0
 40
20.0
100
AcDbArc
 50
29.99999999992657
 51
90.0
  0
LINE
  5
247DE
330
A
100
AcDbEntity
  8
天板
 62
     7
370
    25
100
AcDbLine
 10
-6120.580369578198
 20
2745.921581229216
 30
0.0
 11
-6107.58998852143
 21
2738.421581229216
 31
0.0
  0
ARC
  5
247DF
330
A
100
AcDbEntity
  8
天板
 62
     7
370
    30
100
AcDbCircle
 10
-6124.91049659712
 20
2748.421581229216
 30
0.0
 40
5.000000000000015
100
AcDbArc
 50
270.0
 51
29.99999999992657
  0
ARC
  5
247E0
330
A
100
AcDbEntity
  8
天板
 62
     7
370
    50
100
AcDbCircle
 10
-6124.91049659712
 20
2748.421581229216
 30
0.0
 40
20.00000000000007
100
AcDbArc
 50
270.0
 51
29.99999999992657
  0
LINE
  5
247E1
330
A
100
AcDbEntity
  8
天板
 62
     7
370
    50
100
AcDbLine
 10
-6401.816485829534
 20
3248.036823499878
 30
0.0
 11
-6690.269480445746
 21
3248.036823499878
 31
0.0
  0
LINE
  5
247E2
330
A
100
AcDbEntity
  8
天板
 62
     7
370
    30
100
AcDbLine
 10
-6124.91049659712
 20
2743.421581229216
 30
0.0
 11
-6690.269480445744
 21
2743.421581229216
 31
0.0
  0
LINE
  5
247E3
330
A
100
AcDbEntity
  8
天板
 62
     7
370
    50
100
AcDbLine
 10
-6124.91049659712
 20
2728.421581229216
 30
0.0
 11
-6690.269480445744
 21
2728.421581229216
 31
0.0
  0
LINE
  5
247E4
330
A
100
AcDbEntity
  8
天板
 62
     7
370
    30
100
AcDbLine
 10
-6401.816485829534
 20
3233.036823499878
 30
0.0
 11
-6690.269480445746
 21
3233.036823499878
 31
0.0
  0
LINE
  5
247E5
330
A
100
AcDbEntity
  8
天板
 62
     7
370
    30
100
AcDbLine
 10
-6397.486358810613
 20
3230.536823499878
 30
0.0
 11
-6120.580369578198
 21
2750.921581229216
 31
0.0
  0
LINE
  5
247E6
330
A
100
AcDbEntity
  8
天板
 62
     7
370
    50
100
AcDbLine
 10
-6384.495977753847
 20
3238.036823499878
 30
0.0
 11
-6107.58998852143
 21
2758.421581229216
 31
0.0
  0
LINE
  5
247E7
330
A
100
AcDbEntity
  8
貫
 62
     7
370
    50
100
AcDbLine
 10
-6193.507014496091
 20
2306.292102425417
 30
0.0
 11
-6193.507014496091
 21
2236.292101152392
 31
0.0
  0
VIEWPORT
  5
24619
330
24612
100
AcDbEntity
 67
     1
  8
0
370
     5
100
AcDbViewport
 10
128.5
 20
97.5
 30
0.0
 40
428.26
 41
222.18
 68
     1
 69
     1
 12
128.5
 22
97.5
 13
0.0
 23
0.0
 14
10.0
 24
10.0
 15
10.0
 25
10.0
 16
0.0
 26
0.0
 36
1.0
 17
0.0
 27
0.0
 37
0.0
 42
50.0
 43
0.0
 44
0.0
 45
222.18
 50
0.0
 51
0.0
 72
  2000
 90
   819232
  1

281
     0
 71
     1
 74
     0
110
0.0
120
0.0
130
0.0
111
1.0
121
0.0
131
0.0
112
0.0
122
1.0
132
0.0
 79
     0
146
0.0
170
     0
 61
     5
348
977
292
     1
282
     1
141
0.0
142
0.0
 63
   250
421
  3355443
  0
ENDSEC
  0
SECTION
  2
OBJECTS
  0
DICTIONARY
  5
19
330
0
100
AcDbDictionary
281
     1
  3
ACAD_BGPLOT_KEY
350
1108E
  3
ACAD_COLOR
350
982
  3
ACAD_GROUP
350
1A
  3
ACAD_LAYOUT
350
1E
  3
ACAD_MATERIAL
350
96D
  3
ACAD_MLINESTYLE
350
1B
  3
ACAD_PLOTSETTINGS
350
22
  3
ACAD_PLOTSTYLENAME
350
1F
  3
ACAD_TABLESTYLE
350
983
  3
ACAD_VISUALSTYLE
350
971
  3
ACAD_WIPEOUT_VARS
350
23
  3
AcDbVariableDictionary
350
98E
  3
ASE_INDEX_DICTIONARY
350
1F730
  0
DICTIONARY
  5
3A0F
330
7
100
AcDbDictionary
280
     1
281
     1
  0
DICTIONARY
  5
C1E
330
2
100
AcDbDictionary
280
     1
281
     1
  3
ACAD_LAYERFILTERS
360
2006D
  3
ACAD_LAYERSTATES
360
C1F
  3
ACLYDICTIONARY
360
2006C
  0
DICTIONARY
  5
9CE
330
A
100
AcDbDictionary
280
     1
281
     1
  3
ACAD_SORTENTS
360
9CF
  0
DICTIONARY
  5
2457C
330
2457B
100
AcDbDictionary
280
     1
281
     1
  3
ACAD_SORTENTS
360
2457D
  0
DICTIONARY
  5
1108E
102
{ACAD_REACTORS
330
19
102
}
330
19
100
AcDbDictionary
280
     1
281
     1
  0
DICTIONARY
  5
982
102
{ACAD_REACTORS
330
19
102
}
330
19
100
AcDbDictionary
281
     1
  0
DICTIONARY
  5
1A
102
{ACAD_REACTORS
330
19
102
}
330
19
100
AcDbDictionary
281
     1
  0
DICTIONARY
  5
1E
102
{ACAD_REACTORS
330
19
102
}
330
19
100
AcDbDictionary
281
     1
  3
Model
350
20
  3
レイアウト1
350
24613
  0
DICTIONARY
  5
96D
102
{ACAD_REACTORS
330
19
102
}
330
19
100
AcDbDictionary
281
     1
  3
ByBlock
350
96F
  3
ByLayer
350
96E
  3
Global
350
970
  0
DICTIONARY
  5
1B
102
{ACAD_REACTORS
330
19
102
}
330
19
100
AcDbDictionary
281
     1
  3
Standard
350
1C
  0
DICTIONARY
  5
22
102
{ACAD_REACTORS
330
19
102
}
330
19
100
AcDbDictionary
281
     1
  0
ACDBDICTIONARYWDFLT
  5
1F
102
{ACAD_REACTORS
330
19
102
}
330
19
100
AcDbDictionary
281
     1
  3
Normal
350
1D
100
AcDbDictionaryWithDefault
340
1D
  0
DICTIONARY
  5
983
102
{ACAD_REACTORS
330
19
102
}
330
19
100
AcDbDictionary
281
     1
  3
Standard
350
984
  0
DICTIONARY
  5
971
102
{ACAD_REACTORS
330
19
102
}
330
19
100
AcDbDictionary
281
     1
  3
2dWireframe
350
977
  3
3D Hidden
350
979
  3
3dWireframe
350
978
  3
Basic
350
976
  3
Brighten
350
97D
  3
ColorChange
350
981
  3
Conceptual
350
97A
  3
Dim
350
97C
  3
Facepattern
350
980
  3
Flat
350
972
  3
FlatWithEdges
350
973
  3
Gouraud
350
974
  3
GouraudWithEdges
350
975
  3
Linepattern
350
97F
  3
Realistic
350
97B
  3
Thicken
350
97E
  0
WIPEOUTVARIABLES
  5
23
330
19
100
AcDbWipeoutVariables
 70
     0
  0
DICTIONARY
  5
98E
102
{ACAD_REACTORS
330
19
102
}
330
19
100
AcDbDictionary
281
     1
  3
CTABLESTYLE
350
98F
  3
FIELDEVAL
350
1108F
  0
DICTIONARY
  5
1F730
102
{ACAD_REACTORS
330
19
102
}
330
19
100
AcDbDictionary
281
     1
  3
ASEBlockHierarchyIndexRecord
350
1F731
1001
DCO15
1040
1970648362.265
  0
DICTIONARY
  5
2006D
102
{ACAD_REACTORS
330
C1E
102
}
330
C1E
100
AcDbDictionary
281
     1
  0
DICTIONARY
  5
C1F
102
{ACAD_REACTORS
330
C1E
102
}
330
C1E
100
AcDbDictionary
281
     1
  0
DICTIONARY
  5
2006C
102
{ACAD_REACTORS
330
C1E
102
}
330
C1E
100
AcDbDictionary
281
     1
1001
ACAD
1000
<All
  0
SORTENTSTABLE
  5
9CF
102
{ACAD_REACTORS
330
9CE
102
}
330
9CE
100
AcDbSortentsTable
330
A
331
2329F
  5
232BB
331
232B3
  5
237DE
331
1FC33
  5
1FC40
331
23259
  5
23265
331
23E38
  5
23F17
331
1FC27
  5
1FC34
331
2007D
  5
201E9
331
2325A
  5
23269
331
1FC5D
  5
1FC76
331
237D5
  5
23A4F
331
1FC51
  5
1FC63
331
1FC1C
  5
1FC29
331
1FC10
  5
1FC1C
331
2327F
  5
2328F
331
1FC35
  5
1FC43
331
23295
  5
232A9
331
237D6
  5
23A50
331
1FC29
  5
1FC37
331
1FC11
  5
1FC1F
331
23280
  5
23290
331
1FC36
  5
1FC45
331
232B6
  5
237DF
331
237D7
  5
23A51
331
2101C
  5
201EC
331
1FC4F
  5
1FC61
331
23281
  5
23291
331
1FC43
  5
1FC53
331
1FC80
  5
200B7
331
237D8
  5
23A5B
331
1FC1F
  5
1FC2A
331
23282
  5
23292
331
1FC44
  5
1FC54
331
2325E
  5
2326C
331
1FC38
  5
1FC47
331
1FC81
  5
200D5
331
237D9
  5
23AC2
331
2101E
  5
201EF
331
1FC20
  5
1FC2B
331
20082
  5
20082
331
1FC45
  5
1FC55
331
23253
  5
2325B
331
1FC39
  5
1FC4A
331
1FC82
  5
201DF
331
237DA
  5
23B7D
331
1FC01
  5
1FC17
331
1FC46
  5
1FC5A
331
23254
  5
2325C
331
1FC83
  5
201E6
331
2328E
  5
23295
331
21218
  5
201E5
331
23617
  5
23A4C
331
1FC02
  5
1FC18
331
23255
  5
2325D
331
232A7
  5
237DD
331
21219
  5
212EB
331
2327A
  5
23282
331
23256
  5
2325E
331
232BC
  5
237E0
331
2329C
  5
232AD
331
1FC30
  5
1FC3D
331
23290
  5
232A1
331
21346
  5
21A79
331
2327B
  5
23283
331
232BD
  5
237E1
331
1FC18
  5
1FC23
331
1FC31
  5
1FC3E
331
21347
  5
21A7E
331
2327C
  5
23284
331
1FC19
  5
1FC24
331
1FC87
  5
201EE
331
23258
  5
23260
331
1FC32
  5
1FC3F
331
1FC1A
  5
1FC26
331
2327D
  5
2328E
  0
SORTENTSTABLE
  5
2457D
102
{ACAD_REACTORS
330
2457C
102
}
330
2457C
100
AcDbSortentsTable
330
2457B
  0
LAYOUT
  5
20
102
{ACAD_REACTORS
330
1E
102
}
330
1E
100
AcDbPlotSettings
  1

  2
none_device
  4
ISO_A4_(210.00_x_297.00_MM)
  6

 40
7.5
 41
20.0
 42
7.5
 43
20.0
 44
210.0
 45
297.0
 46
0.0
 47
0.0
 48
0.0
 49
0.0
140
0.0
141
0.0
142
1.0
143
1.0
 70
 11264
 72
     1
 73
     1
 74
     0
  7

 75
     0
147
1.0
 76
     0
 77
     2
 78
   300
148
916.8712341080579
149
627.2450171497188
100
AcDbLayout
  1
Model
 70
     0
 71
     0
 10
0.0
 20
0.0
 11
0.0
 21
0.0
 12
0.0
 22
0.0
 32
0.0
 14
0.0
 24
0.0
 34
0.0
 15
0.0
 25
0.0
 35
0.0
146
0.0
 13
0.0
 23
0.0
 33
0.0
 16
0.0
 26
0.0
 36
0.0
 17
0.0
 27
0.0
 37
0.0
 76
     0
330
A
331
15
1001
ACAD_PSEXT
1000
なし
1000
なし
1000
適切ではありません
1000
新しいプロッタ環境設定名を選択しない限り、レイアウトは印刷されません。
1070
     0
  0
LAYOUT
  5
24613
102
{ACAD_XDICTIONARY
360
24620
102
}
102
{ACAD_REACTORS
330
1E
102
}
330
1E
100
AcDbPlotSettings
  1

  2
none_device
  4
ISO_A4_(210.00_x_297.00_MM)
  6

 40
7.5
 41
20.0
 42
7.5
 43
20.0
 44
210.0
 45
297.0
 46
0.0
 47
0.0
 48
0.0
 49
0.0
140
0.0
141
0.0
142
1.0
143
1.0
 70
   688
 72
     1
 73
     1
 74
     5
  7

 75
    16
147
1.0
 76
     0
 77
     2
 78
   300
148
0.0
149
0.0
100
AcDbLayout
  1
レイアウト1
 70
     1
 71
     1
 10
-20.0
 20
-7.5
 11
277.0
 21
202.5
 12
0.0
 22
0.0
 32
0.0
 14
25.69999999999999
 24
19.5
 34
0.0
 15
231.3
 25
175.5
 35
0.0
146
0.0
 13
0.0
 23
0.0
 33
0.0
 16
1.0
 26
0.0
 36
0.0
 17
0.0
 27
1.0
 37
0.0
 76
     0
330
24612
331
24619
1001
ACAD_PSEXT
1000
なし
1000
なし
1000
適切ではありません
1000
新しいプロッタ環境設定名を選択しない限り、レイアウトは印刷されません。
1070
     0
  0
MATERIAL
  5
96F
102
{ACAD_REACTORS
330
96D
102
}
330
96D
100
AcDbMaterial
  1
ByBlock
  0
MATERIAL
  5
96E
102
{ACAD_REACTORS
330
96D
102
}
330
96D
100
AcDbMaterial
  1
ByLayer
  0
MATERIAL
  5
970
102
{ACAD_REACTORS
330
96D
102
}
330
96D
100
AcDbMaterial
  1
Global
  0
MLINESTYLE
  5
1C
102
{ACAD_REACTORS
330
1B
102
}
330
1B
100
AcDbMlineStyle
  2
STANDARD
 70
     0
  3

 62
     0
 51
90.0
 52
90.0
 71
     2
 49
0.5
 62
   256
  6
BYLAYER
 49
-0.5
 62
   256
  6
BYLAYER
  0
ACDBPLACEHOLDER
  5
1D
102
{ACAD_REACTORS
330
1F
102
}
330
1F
  0
TABLESTYLE
  5
984
102
{ACAD_REACTORS
330
983
102
}
330
983
100
AcDbTableStyle
  3
Standard
 70
     0
 71
     0
 40
1.5
 41
1.5
280
     0
281
     0
  7
Standard
140
4.5
170
     2
 62
     0
 63
     7
283
     0
 90
      512
 91
        0
  1

274
    -2
284
     1
 64
     0
275
    -2
285
     1
 65
     0
276
    -2
286
     1
 66
     0
277
    -2
287
     1
 67
     0
278
    -2
288
     1
 68
     0
279
    -2
289
     1
 69
     0
  7
Standard
140
6.0
170
     5
 62
     0
 63
     7
283
     0
 90
      512
 91
        0
  1

274
    -2
284
     1
 64
     0
275
    -2
285
     1
 65
     0
276
    -2
286
     1
 66
     0
277
    -2
287
     1
 67
     0
278
    -2
288
     1
 68
     0
279
    -2
289
     1
 69
     0
  7
Standard
140
4.5
170
     5
 62
     0
 63
     7
283
     0
 90
      512
 91
        0
  1

274
    -2
284
     1
 64
     0
275
    -2
285
     1
 65
     0
276
    -2
286
     1
 66
     0
277
    -2
287
     1
 67
     0
278
    -2
288
     1
 68
     0
279
    -2
289
     1
 69
     0
  0
VISUALSTYLE
  5
977
102
{ACAD_REACTORS
330
971
102
}
330
971
100
AcDbVisualStyle
  2
2dWireframe
 70
     4
 71
     0
 72
     2
 73
     0
 90
        0
 40
-0.6
 41
-30.0
 62
     5
 63
     7
421
 16777215
 74
     1
 91
        4
 64
     7
 65
   257
 75
     1
175
     1
 42
1.0
 92
        0
 66
   257
 43
1.0
 76
     1
 77
     6
 78
     2
 67
     7
 79
     5
170
     0
171
     0
290
     0
174
     0
 93
        1
 44
0.0
173
     0
291
     0
 45
0.0
  0
VISUALSTYLE
  5
979
102
{ACAD_REACTORS
330
971
102
}
330
971
100
AcDbVisualStyle
  2
3D Hidden
 70
     6
 71
     1
 72
     2
 73
     2
 90
        0
 40
-0.6
 41
-30.0
 62
     5
 63
     7
421
 16777215
 74
     2
 91
        2
 64
     7
 65
   257
 75
     2
175
     1
 42
40.0
 92
        0
 66
   257
 43
1.0
 76
     1
 77
     6
 78
     2
 67
     7
 79
     3
170
     0
171
     0
290
     0
174
     0
 93
        1
 44
0.0
173
     0
291
     0
 45
0.0
  0
VISUALSTYLE
  5
978
102
{ACAD_REACTORS
330
971
102
}
330
971
100
AcDbVisualStyle
  2
3dWireframe
 70
     5
 71
     0
 72
     2
 73
     0
 90
        0
 40
-0.6
 41
-30.0
 62
     5
 63
     7
421
 16777215
 74
     1
 91
        4
 64
     7
 65
   257
 75
     1
175
     1
 42
1.0
 92
        0
 66
   257
 43
1.0
 76
     1
 77
     6
 78
     2
 67
     7
 79
     5
170
     0
171
     0
290
     0
174
     0
 93
        1
 44
0.0
173
     0
291
     0
 45
0.0
  0
VISUALSTYLE
  5
976
102
{ACAD_REACTORS
330
971
102
}
330
971
100
AcDbVisualStyle
  2
Basic
 70
     7
 71
     1
 72
     0
 73
     1
 90
        0
 40
-0.6
 41
-30.0
 62
     5
 63
     7
421
 16777215
 74
     0
 91
        4
 64
     7
 65
   257
 75
     1
175
     1
 42
1.0
 92
        8
 66
     7
 43
1.0
 76
     1
 77
     6
 78
     2
 67
     7
 79
     5
170
     0
171
     0
290
     0
174
     0
 93
        1
 44
0.0
173
     0
291
     1
 45
0.0
  0
VISUALSTYLE
  5
97D
102
{ACAD_REACTORS
330
971
102
}
330
971
100
AcDbVisualStyle
  2
Brighten
 70
    12
 71
     2
 72
     2
 73
     0
 90
        0
 40
-0.6
 41
-30.0
 62
     5
 63
     7
421
 16777215
 74
     1
 91
        4
 64
     7
 65
   257
 75
     1
175
     1
 42
1.0
 92
        8
 66
     7
 43
1.0
 76
     1
 77
     6
 78
     2
 67
     7
 79
     5
170
     0
171
     0
290
     0
174
     0
 93
        1
 44
50.0
173
     0
291
     1
 45
0.0
  0
VISUALSTYLE
  5
981
102
{ACAD_REACTORS
330
971
102
}
330
971
100
AcDbVisualStyle
  2
ColorChange
 70
    16
 71
     2
 72
     2
 73
     3
 90
        0
 40
-0.6
 41
-30.0
 62
     5
 63
     8
421
  8421504
 74
     1
 91
        4
 64
     7
 65
   257
 75
     1
175
     1
 42
1.0
 92
        8
 66
     8
424
  8421504
 43
1.0
 76
     1
 77
     6
 78
     2
 67
     7
 79
     5
170
     0
171
     0
290
     0
174
     0
 93
        1
 44
0.0
173
     0
291
     1
 45
0.0
  0
VISUALSTYLE
  5
97A
102
{ACAD_REACTORS
330
971
102
}
330
971
100
AcDbVisualStyle
  2
Conceptual
 70
     9
 71
     3
 72
     2
 73
     0
 90
        0
 40
-0.6
 41
-30.0
 62
     5
 63
     7
421
 16777215
 74
     2
 91
        2
 64
     7
 65
   257
 75
     1
175
     1
 42
40.0
 92
        8
 66
     7
 43
1.0
 76
     1
 77
     6
 78
     2
 67
     7
 79
     3
170
     0
171
     0
290
     0
174
     0
 93
        1
 44
0.0
173
     0
291
     0
 45
0.0
  0
VISUALSTYLE
  5
97C
102
{ACAD_REACTORS
330
971
102
}
330
971
100
AcDbVisualStyle
  2
Dim
 70
    11
 71
     2
 72
     2
 73
     0
 90
        0
 40
-0.6
 41
-30.0
 62
     5
 63
     7
421
 16777215
 74
     1
 91
        4
 64
     7
 65
   257
 75
     1
175
     1
 42
1.0
 92
        8
 66
     7
 43
1.0
 76
     1
 77
     6
 78
     2
 67
     7
 79
     5
170
     0
171
     0
290
     0
174
     0
 93
        1
 44
-50.0
173
     0
291
     1
 45
0.0
  0
VISUALSTYLE
  5
980
102
{ACAD_REACTORS
330
971
102
}
330
971
100
AcDbVisualStyle
  2
Facepattern
 70
    15
 71
     2
 72
     2
 73
     0
 90
        0
 40
-0.6
 41
-30.0
 62
     5
 63
     7
421
 16777215
 74
     1
 91
        4
 64
     7
 65
   257
 75
     1
175
     1
 42
1.0
 92
        8
 66
     7
 43
1.0
 76
     1
 77
     6
 78
     2
 67
     7
 79
     5
170
     0
171
     0
290
     0
174
     0
 93
        1
 44
0.0
173
     0
291
     1
 45
0.0
  0
VISUALSTYLE
  5
972
102
{ACAD_REACTORS
330
971
102
}
330
971
100
AcDbVisualStyle
  2
Flat
 70
     0
 71
     2
 72
     1
 73
     1
 90
        2
 40
-0.6
 41
30.0
 62
     5
 63
     7
421
 16777215
 74
     0
 91
        4
 64
     7
 65
   257
 75
     1
175
     1
 42
1.0
 92
        8
 66
     7
 43
1.0
 76
     1
 77
     6
 78
     2
 67
     7
 79
     5
170
     0
171
     0
290
     0
174
     0
 93
       13
 44
0.0
173
     0
291
     1
 45
0.0
  0
VISUALSTYLE
  5
973
102
{ACAD_REACTORS
330
971
102
}
330
971
100
AcDbVisualStyle
  2
FlatWithEdges
 70
     1
 71
     2
 72
     1
 73
     1
 90
        2
 40
-0.6
 41
30.0
 62
     5
 63
     7
421
 16777215
 74
     1
 91
        4
 64
     7
 65
   257
 75
     1
175
     1
 42
1.0
 92
        0
 66
   257
 43
1.0
 76
     1
 77
     6
 78
     2
 67
     7
 79
     5
170
     0
171
     0
290
     0
174
     0
 93
       13
 44
0.0
173
     0
291
     1
 45
0.0
  0
VISUALSTYLE
  5
974
102
{ACAD_REACTORS
330
971
102
}
330
971
100
AcDbVisualStyle
  2
Gouraud
 70
     2
 71
     2
 72
     2
 73
     1
 90
        2
 40
-0.6
 41
30.0
 62
     5
 63
     7
421
 16777215
 74
     0
 91
        4
 64
     7
 65
   257
 75
     1
175
     1
 42
1.0
 92
        0
 66
     7
 43
1.0
 76
     1
 77
     6
 78
     2
 67
     7
 79
     5
170
     0
171
     0
290
     0
174
     0
 93
       13
 44
0.0
173
     0
291
     1
 45
0.0
  0
VISUALSTYLE
  5
975
102
{ACAD_REACTORS
330
971
102
}
330
971
100
AcDbVisualStyle
  2
GouraudWithEdges
 70
     3
 71
     2
 72
     2
 73
     1
 90
        2
 40
-0.6
 41
30.0
 62
     5
 63
     7
421
 16777215
 74
     1
 91
        4
 64
     7
 65
   257
 75
     1
175
     1
 42
1.0
 92
        0
 66
   257
 43
1.0
 76
     1
 77
     6
 78
     2
 67
     7
 79
     5
170
     0
171
     0
290
     0
174
     0
 93
       13
 44
0.0
173
     0
291
     1
 45
0.0
  0
VISUALSTYLE
  5
97F
102
{ACAD_REACTORS
330
971
102
}
330
971
100
AcDbVisualStyle
  2
Linepattern
 70
    14
 71
     2
 72
     2
 73
     0
 90
        0
 40
-0.6
 41
-30.0
 62
     5
 63
     7
421
 16777215
 74
     1
 91
        4
 64
     7
 65
   257
 75
     7
175
     7
 42
1.0
 92
        8
 66
     7
 43
1.0
 76
     1
 77
     6
 78
     2
 67
     7
 79
     5
170
     0
171
     0
290
     0
174
     0
 93
        1
 44
0.0
173
     0
291
     1
 45
0.0
  0
VISUALSTYLE
  5
97B
102
{ACAD_REACTORS
330
971
102
}
330
971
100
AcDbVisualStyle
  2
Realistic
 70
     8
 71
     2
 72
     2
 73
     0
 90
        0
 40
-0.6
 41
-30.0
 62
     5
 63
     7
421
 16777215
 74
     1
 91
        0
 64
     7
 65
   257
 75
     1
175
     1
 42
1.0
 92
        8
 66
     8
424
  7895160
 43
1.0
 76
     1
 77
     6
 78
     2
 67
     7
 79
     5
170
     0
171
     0
290
     0
174
     0
 93
       13
 44
0.0
173
     0
291
     0
 45
0.0
  0
VISUALSTYLE
  5
97E
102
{ACAD_REACTORS
330
971
102
}
330
971
100
AcDbVisualStyle
  2
Thicken
 70
    13
 71
     2
 72
     2
 73
     0
 90
        0
 40
-0.6
 41
-30.0
 62
     5
 63
     7
421
 16777215
 74
     1
 91
        4
 64
     7
 65
   257
 75
     1
175
     1
 42
1.0
 92
       12
 66
     7
 43
1.0
 76
     1
 77
     6
 78
     2
 67
     7
 79
     5
170
     0
171
     0
290
     0
174
     0
 93
        1
 44
0.0
173
     0
291
     1
 45
0.0
  0
DICTIONARYVAR
  5
98F
102
{ACAD_REACTORS
330
98E
102
}
330
98E
100
DictionaryVariables
280
     0
  1
STANDARD
  0
DICTIONARYVAR
  5
1108F
102
{ACAD_REACTORS
330
98E
102
}
330
98E
100
DictionaryVariables
280
     0
  1
4
  0
XRECORD
  5
1F731
102
{ACAD_REACTORS
330
1F730
102
}
330
1F730
100
AcDbXrecord
280
     1
330
246D5
330
246E1
330
246ED
330
246F9
330
24705
330
24711
330
247AD
330
247B5
330
247BD
330
247C5
330
247CD
330
247D5
330
2459C
330
245AA
330
245B6
330
245C2
330
245CE
330
245DA
330
2481A
330
2481B
330
24823
330
24824
330
2480F
330
24810
  0
DICTIONARY
  5
24620
330
24613
100
AcDbDictionary
280
     1
281
     1
  3
ADSK_XREC_LAYOUTTHUMBNAIL
360
24621
  0
XRECORD
  5
24621
102
{ACAD_REACTORS
330
24620
102
}
330
24620
100
AcDbXrecord
280
     1
310
28000000B40000007F00000001000800000000004C59000000000000000000000001000000000000FFFFFF0000000000FFFFFF000000000000000000000000000000000000000000000000000000000000000000330000006600000099000000CC000000FF00000000330000333300006633000099330000CC330000FF3300
310
0000660000336600006666000099660000CC660000FF66000000990000339900006699000099990000CC990000FF99000000CC000033CC000066CC000099CC0000CCCC0000FFCC000000FF000033FF000066FF000099FF0000CCFF0000FFFF000000003300330033006600330099003300CC003300FF003300003333003333
310
33006633330099333300CC333300FF33330000663300336633006666330099663300CC663300FF66330000993300339933006699330099993300CC993300FF99330000CC330033CC330066CC330099CC3300CCCC3300FFCC330000FF330033FF330066FF330099FF3300CCFF3300FFFF330000006600330066006600660099
310
006600CC006600FF00660000336600333366006633660099336600CC336600FF33660000666600336666006666660099666600CC666600FF66660000996600339966006699660099996600CC996600FF99660000CC660033CC660066CC660099CC6600CCCC6600FFCC660000FF660033FF660066FF660099FF6600CCFF6600
310
FFFF660000009900330099006600990099009900CC009900FF00990000339900333399006633990099339900CC339900FF33990000669900336699006666990099669900CC669900FF66990000999900339999006699990099999900CC999900FF99990000CC990033CC990066CC990099CC9900CCCC9900FFCC990000FF99
310
0033FF990066FF990099FF9900CCFF9900FFFF99000000CC003300CC006600CC009900CC00CC00CC00FF00CC000033CC003333CC006633CC009933CC00CC33CC00FF33CC000066CC003366CC006666CC009966CC00CC66CC00FF66CC000099CC003399CC006699CC009999CC00CC99CC00FF99CC0000CCCC0033CCCC0066CC
310
CC0099CCCC00CCCCCC00FFCCCC0000FFCC0033FFCC0066FFCC0099FFCC00CCFFCC00FFFFCC000000FF003300FF006600FF009900FF00CC00FF00FF00FF000033FF003333FF006633FF009933FF00CC33FF00FF33FF000066FF003366FF006666FF009966FF00CC66FF00FF66FF000099FF003399FF006699FF009999FF00CC
310
99FF00FF99FF0000CCFF0033CCFF0066CCFF0099CCFF00CCCCFF00FFCCFF0000FFFF0033FFFF0066FFFF0099FFFF00CCFFFF00FFFFFF00000000000D0D0D001A1A1A00282828003535350043434300505050005D5D5D006B6B6B00787878008686860093939300A1A1A100AEAEAE00BBBBBB00C9C9C900D6D6D600E4E4E400
310
F1F1F100FFFFFF0000000000000000000000000000000000000000000000000000000000000000000000000000000000E2E2E2E2E2E2E2E2E2E2E2E2E2E2E2E2E2E2E2E2E2E2E2E2E2E2E2E2E2E2E2E2E2E2E2E2E2E2E2E2E2E2E2E2E2E2E2E2E2E2E2E2E2E2E2E2E2E2E2E2E2E2E2E2E2E2E2E2E2E2E2E2E2E2E2E2E2E2E2
310
E2E2E2E2E2E2E2E2E2E2E2E2E2E2E2E2E2E2E2E2E2E2E2E2E2E2E2E2E2E2E2E2E2E2E2E2E2E2E2E2E2E2E2E2E2E2E2E2E2E2E2E2E2E2E2E2E2E2E2E2E2E2E2E2E2E2E2E2E2E2E2E2E2E2E2E2E2E2E2E2E2E2E2E2E2E2E2E2E2E2E2E2E2E2E2E2E2E2E2E2E2E2F5F5F5F5F5F5F5F5F5F5F5F5F5F5F5F5F5F5F5F5F5F5F5F5F5
310
F5F5F5F5F5F5F5F5F5F5F5F5F5F5F5F5F5F5F5F5F5F5F5F5F5F5F5F5F5F5F5F5F5F5F5F5F5F5F5F5F5F5F5F5F5F5F5F5F5F5F5F5F5F5F5F5F5F5F5F5F5F5F5F5F5F5F5F5F5F5F5F5F5F5F5F5F5F5F5F5F5F5F5F5F5F5F5F5F5F5F5F5F5F5F5F5F5F5F5F5F5F5F5F5F5F5F5F5F5F5F5F5F5F5F5F5F5F5F5F5F5F5F5F5F5F5F5
310
F5F5F5F5F5F5F5F5F5F5F5F5F5F5F5F5F5F5F5F5F5F5F5F5F5F5E2E2F5F5F5F5F5F5F5F5F5F5F5F5F5F5F5F5F5F5F5F5F5F5F5F5F5F5F5F5F5F5F5F5F5F5F5F5F5F5F5F5F5F5F5F5F5F5F5F5F5F5F5F5F5F5F5F5F5F5F5F5F5F5F5F5F5F5F5F5F5F5F5F5F5F5F5F5F5F5F5F5F5F5F5F5F5F5F5F5F5F5F5F5F5F5F5F5F5F5F5
310
F5F5F5F5F5F5F5F5F5F5F5F5F5F5F5F5F5F5F5F5F5F5F5F5F5F5F5F5F5F5F5F5F5F5F5F5F5F5F5F5F5F5F5F5F5F5F5F5F5F5F5F5F5F5F5F5F5F5F5F5F5F5F5F5F5F5F5F5F5F5F5F5F5F5F5F5F5F5F5E2E2F5F5F5F5F5F5F5F5F5F5F5F5F5F5F5F5F5F5F5F5F5F5F5F5F5F5F5F5F5F5F5F5F5F5F5F5F5F5F5F5F5F5F5F5F5F5
310
F5F5F5F5F5F5F5F5F5F5F5F5F5F5F5F5F5F5F5F5F5F5F5F5F5F5F5F5F5F5F5F5F5F5F5F5F5F5F5F5F5F5F5F5F5F5F5F5F5F5F5F5F5F5F5F5F5F5F5F5F5F5F5F5F5F5F5F5F5F5F5F5F5F5F5F5F5F5F5F5F5F5F5F5F5F5F5F5F5F5F5F5F5F5F5F5F5F5F5F5F5F5F5F5F5F5F5F5F5F5F5F5F5F5F5F5F5F5F5F5F5F5F5F5F5F5F5
310
F5F5F5F5F5E2E2F5F5F5F5F5F5F5F5F5F5F5F5F5F5F5F5F5F5F5F5F5F5F5F5F5F5F5F5F5F5F5F5F5F5F5F5F5F5F5F5F5F5F5F5F5F5F5F5F5F5F5F5F5F5F5F5F5F5F5F5F5F5F5F5F5F5F5F5F5F5F5F5F5F5F5F5F5F5F5F5F5F5F5F5F5F5F5F5F5F5F5F5F5F5F5F5F5F5F5F5F5F5F5F5F5F5F5F5F5F5F5F5F5F5F5F5F5F5F5F5
310
F5F5F5F5F5F5F5F5F5F5F5F5F5F5F5F5F5F5F5F5F5F5F5F5F5F5F5F5F5F5F5F5F5F5F5F5F5F5F5F5F5F5F5F5F5F5F5F5F5F5F5F5F5F5F5F5F5F5E2E2F5F5F5F5F5F5F5F5F5F5F5E2E2E2E2E2E2E2E2E2F5F5F5F5F5F5F5F5F5E2E2E2E2E2E2E2E2E2E2E2E2E2E2E2E2E2F5F5F5F5F5F5F5F5F5E2E2E2E2E2E2E2E2E2E2E2E2
310
E2E2E2E2F5F5F5F5F5F5F5F5F5F5E2E2E2E2E2E2E2E2E2E2E2E2E2E2E2E2F5F5F5F5F5F5F5F5F5F5E2E2E2E2E2E2E2E2E2E2E2E2E2E2E2E2F5F5F5F5F5F5F5F5F5E2E2E2E2E2E2E2E2E2E2E2E2E2E2E2E2E2F5F5F5F5F5F5F5F5F5E2E2E2E2E2E2E2E2E2F5F5F5F5F5F5F5F5F5F5F5E2E2F5F5F5F5F5F5F5F5F5F5F5E2F5F5
310
F5F5F5F5F5F5F5F5F5F5F5F5F5F5F5F5F5F5F5F5F5F5F5F5F5F5F5F5F5F5F5F5F5F5F5F5F5F5F5F5F5F5F5F5F5F5F5F5F5F5F5F5F5F5F5F5F5F5F5F5F5F5F5F5F5F5F5F5F5F5F5F5F5F5F5F5F5F5F5F5F5F5F5F5F5F5F5F5F5F5F5F5F5F5F5F5F5F5F5F5F5F5F5F5F5F5F5F5F5F5F5F5F5F5F5F5F5F5F5F5F5F5F5F5F5F5F5
310
F5F5F5F5F5F5F5F5F5F5F5F5F5F5F5F5F5F5F5F5F5F5F5F5F5E2F5F5F5F5F5F5F5F5F5F5F5E2E2F5F5F5F5F5F5F5F5F5F5F5E2F5F5F5F5F5F5F5F5F5F5F5F5F5F5F5F5F5F5F5F5F5F5F5F5F5F5F5F5F5F5F5F5F5F5F5F5F5F5F5F5F5F5F5F5F5F5F5F5F5F5F5F5F5F5F5F5F5F5F5F5F5F5F5F5F5F5F5F5F5F5F5F5F5F5F5F5
310
F5F5F5F5F5F5F5F5F5F5F5F5F5F5F5F5F5F5F5F5F5F5F5F5F5F5F5F5F5F5F5F5F5F5F5F5F5F5F5F5F5F5F5F5F5F5F5F5F5F5F5F5F5F5F5F5F5F5F5F5F5F5F5F5F5F5F5F5F5F5F5F5F5F5F5F5F5F5E2F5F5F5F5F5F5F5F5F5F5F5E2E2F5F5F5F5F5F5F5F5F5F5F5E2F5F5F5F5F5F5F5F5F5F5F5F5F5F5F5F5F5F5F5F5F5F5F5
310
F5F5F5F5F5F5F5F5F5F5F5F5F5F5F5F5F5F5F5F5F5F5F5F5F5F5F5F5F5F5F5F5F5F5F5F5F5F5F5F5F5F5F5F5F5F5F5F5F5F5F5F5F5F5F5F5F5F5F5F5F5F5F5F5F5F5F5F5F5F5F5F5F5F5F5F5F5F5F5F5F5F5F5F5F5F5F5F5F5F5F5F5F5F5F5F5F5F5F5F5F5F5F5F5F5F5F5F5F5F5F5F5F5F5F5F5F5F5F5F5F5F5F5F5F5F5F5
310
F5F5F5F5E2F5F5F5F5F5F5F5F5F5F5F5E2E2F5F5F5F5F5F5F5F5F5F5F5E2F5F5F5F5F5F5F5F5F5F5F5F5F5F5F5F5F5F5F5F5F5F5F5F5F5F5F5F5F5F5F5F5F5F5F5F5F5F5F5F5F5F5F5F5F5F5F5F5F5F5F5F5F5F5F5F5F5F5F5F5F5F5F5F5F5F5F5F5F5F5F5F5F5F5F5F5F5F5F5F5F5F5F5F5F5F5F5F5F5F5F5F5F5F5F5F5F5
310
F5F5F5F5F5F5F5F5F5F5F5F5F5F5F5F5F5F5F5F5F5F5F5F5F5F5F5F5F5F5F5F5F5F5F5F5F5F5F5F5F5F5F5F5F5F5F5F5F5F5F5F5F5F5F5F5F5E2F5F5F5F5F5F5F5F5F5F5F5E2E2F5F5F5F5F5F5F5F5F5F5F5E2F5F5F5F5F5F5F5F5F5F5F5F5F5F5F5F5F5F5F5F5F5F5F5F5F5F5F5F5F5F5F5F5F5F5F5F5F5F5F5F5F5F5F5F5
310
F5F5F5F5F5F5F5F5F5F5F5F5F5F5F5F5F5F5F5F5F5F5F5F5F5F5F5F5F5F5F5F5F5F5F5F5F5F5F5F5F5F5F5F5F5F5F5F5F5F5F5F5F5F5F5F5F5F5F5F5F5F5F5F5F5F5F5F5F5F5F5F5F5F5F5F5F5F5F5F5F5F5F5F5F5F5F5F5F5F5F5F5F5F5F5F5F5F5F5F5F5F5F5F5F5F5F5F5F5F5E2F5F5F5F5F5F5F5F5F5F5F5E2E2F5F5F5
310
F5F5F5F5F5F5F5F5E2F5F5F5F5F5F5F5F5F5F5F5F5F5F5F5F5F5F5F5F5F5F5F5F5F5F5F5F5F5F5F5F5F5F5F5F5F5F5F5F5F5F5F5F5F5F5F5F5F5F5F5F5F5F5F5F5F5F5F5F5F5F5F5F5F5F5F5F5F5F5F5F5F5F5F5F5F5F5F5F5F5F5F5F5F5F5F5F5F5F5F5F5F5F5F5F5F5F5F5F5F5F5F5F5F5F5F5F5F5F5F5F5F5F5F5F5F5F5
310
F5F5F5F5F5F5F5F5F5F5F5F5F5F5F5F5F5F5F5F5F5F5F5F5F5F5F5F5F5F5F5F5F5F5F5F5E2F5F5F5F5F5F5F5F5F5F5F5E2E2F5F5F5F5F5F5F5F5F5F5F5E2F5F5F5F5F5F5F5F5F5F5F5F5F5F5F5F5F5F5F5F5F5F5F5F5F5F5F5F5F5F5F5F5F5F5F5F5F5F5F5F5F5F5F5F5F5F5F5F5F5F5F5F5F5F5F5F5F5F5F5F5F5F5F5F5F5
310
F5F5F5F5F5F5F5F5F5F5F5F5F5F5F5F5F5F5F5F5F5F5F5F5F5F5F5F5F5F5F5F5F5F5F5F5F5F5F5F5F5F5F5F5F5F5F5F5F5F5F5F5F5F5F5F5F5F5F5F5F5F5F5F5F5F5F5F5F5F5F5F5F5F5F5F5F5F5F5F5F5F5F5F5F5F5F5F5F5E2F5F5F5F5F5F5F5F5F5F5F5E2E2F5F5F5F5F5F5F5F5F5F5F5F5F5F5F5F5F5F5F5F5F5F5F5F5
310
F5F5F5F5F5F5F5F5F5F5F5F5F5F5F5F5F5F5F5F5F5F5F5F5F5F5F5F5F5F5F5F5F5F5F5F5F5F5F5F5F5F5F5F5F5F5F5F5F5F5F5F5F5F5F5F5F5F5F5F5F5F5F5F5F5F5F5F5F5F5F5F5F5F5F5F5F5F5F5F5F5F5F5F5F5F5F5F5F5F5F5F5F5F5F5F5F5F5F5F5F5F5F5F5F5F5F5F5F5F5F5F5F5F5F5F5F5F5F5F5F5F5F5F5F5F5F5
310
F5F5F5F5F5F5F5F5F5F5F5F5F5F5F5F5F5F5F5F5F5F5F5F5F5F5F5E2E2F5F5F5F5F5F5F5F5F5F5F5F5F5F5F5F5F5F5F5F5F5F5F5F5F5F5F5F5F5F5F5F5F5F5F5F5F5F5F5F5F5F5F5F5F5F5F5F5F5F5F5F5F5F5F5F5F5F5F5F5F5F5F5F5F5F5F5F5F5F5F5F5F5F5F5F5F5F5F5F5F5F5F5F5F5F5F5F5F5F5F5F5F5F5F5F5F5F5
310
F5F5F5F5F5F5F5F5F5F5F5F5F5F5F5F5F5F5F5F5F5F5F5F5F5F5F5F5F5F5F5F5F5F5F5F5F5F5F5F5F5F5F5F5F5F5F5F5F5F5F5F5F5F5F5F5F5F5F5F5F5F5F5F5F5F5F5F5F5F5F5F5F5F5F5F5F5F5F5F5E2E2F5F5F5F5F5F5F5F5F5F5F5F5F5F5F5F5F5F5F5F5F5F5F5F5F5F5F5F5F5F5F5F5F5F5F5F5F5F5F5F5F5F5F5F5F5
310
F5F5F5F5F5F5F5F5F5F5F5F5F5F5F5F5F5F5F5F5F5F5F5F5F5F5F5F5F5F5F5F5F5F5F5F5F5F5F5F5F5F5F5F5F5F5F5F5F5F5F5F5F5F5F5F5F5F5F5F5F5F5F5F5F5F5F5F5F5F5F5F5F5F5F5F5F5F5F5F5F5F5F5F5F5F5F5F5F5F5F5F5F5F5F5F5F5F5F5F5F5F5F5F5F5F5F5F5F5F5F5F5F5F5F5F5F5F5F5F5F5F5F5F5F5F5F5
310
F5F5F5F5F5F5E2E2F5F5F5F5F5F5F5F5F5F5F5F5F5F5F5F5F5F5F5F5F5F5F5F5F5F5F5F5F5F5F5F5F5F5F5F5F5F5F5F5F5F5F5F5F5F5F5F5F5F5F5F5F5F5F5F5F5F5F5F5F5F5F5F5F5F5F5F5F5F5F5F5F5F5F5F5F5F5F5F5F5F5F5F5F5F5F5F5F5F5F5F5F5F5F5F5F5F5F5F5F5F5F5F5F5F5F5F5F5F5F5F5F5F5F5F5F5F5F5
310
F5F5F5F5F5F5F5F5F5F5F5F5F5F5F5F5F5F5F5F5F5F5F5F5F5F5F5F5F5F5F5F5F5F5F5F5F5F5F5F5F5F5F5F5F5F5F5F5F5F5F5F5F5F5F5F5F5F5F5E2E2F5F5F5F5F5F5F5F5F5F5F5F5F5F5F5F5F5F5F5F5F5F5F5F5F5F5F5F5F5F5F5F5F5F5F5F5F5F5F5F5F5F5F5F5F5F5F5F5F5F5F5F5F5F5F5F5F5F5F5F5F5F5F5F5F5F5
310
F5F5F5F5F5F5F5F5F5F5F5F5F5F5F5F5F5F5F5F5F5F5F5F5F5F5F5F5F5F5F5F5F5F5F5F5F5F5F5F5F5F5F5F5F5F5F5F5F5F5F5F5F5F5F5F5F5F5F5F5F5F5F5F5F5F5F5F5F5F5F5F5F5F5F5F5F5F5F5F5F5F5F5F5F5F5F5F5F5F5F5F5F5F5F5F5F5F5F5F5F5F5F5F5F5F5F5F5F5F5F5F5E2E2F5F5F5F5F5F5F5F5F5F5F5F5F5
310
F5F5F5F5F5F5F5F5F5F5F5F5F5F5F5F5F5F5F5F5F5F5F5F5F5F5F5F5F5F5F5F5F5F5F5F5F5F5F5F5F5F5F5F5F5F5F5F5F5F5F5F5F5F5F5F5F5F5F5F5F5F5F5F5F5F5F5F5F5F5F5F5F5F5F5F5F5F5F5F5F5F5F5F5F5F5F5F5F5F5F5F5F5F5F5F5F5F5F5F5F5F5F5F5F5F5F5F5F5F5F5F5F5F5F5F5F5F5F5F5F5F5F5F5F5F5F5
310
F5F5F5F5F5F5F5F5F5F5F5F5F5F5F5F5F5F5F5F5F5F5F5F5F5F5F5F5F5F5F5F5F5F5F5F5F5F5E2E2F5F5F5F5F5F5F5F5F5F5F5F5F5F5F5F5F5F5F5F5F5F5F5F5F5F5F5F5F5F5F5F5F5F5F5F5F5F5F5F5F5F5F5F5F5F5F5F5F5F5F5F5F5F5F5F5F5F5F5F5F5F5F5F5F5F5F5F5F5F5F5F5F5F5F5F5F5F5F5F5F5F5F5F5F5F5F5
310
F5F5F5F5F5F5F5F5F5F5F5F5F5F5F5F5F5F5F5F5F5F5F5F5F5F5F5F5F5F5F5F5F5F5F5F5F5F5F5F5F5F5F5F5F5F5F5F5F5F5F5F5F5F5F5F5F5F5F5F5F5F5F5F5F5F5F5F5F5F5F5F5F5F5F5F5F5F5F5F5F5F5F5F5F5F5F5F5F5F5F5E2E2F5F5F5F5F5F5F5F5F5F5F5F5F5F5F5F5F5F5F5F5F5F5F5F5F5F5F5F5F5F5F5F5F5F5
310
F5F5F5F5F5F5F5F5F5F5F5F5F5F5F5F5F5F5F5F5F5F5F5F5F5F5F5F5F5F5F5F5F5F5F5F5F5F5F5F5F5F5F5F5F5F5F5F5F5F5F5F5F5F5F5F5F5F5F5F5F5F5F5F5F5F5F5F5F5F5F5F5F5F5F5F5F5F5F5F5F5F5F5F5F5F5F5F5F5F5F5F5F5F5F5F5F5F5F5F5F5F5F5F5F5F5F5F5F5F5F5F5F5F5F5F5F5F5F5F5F5F5F5F5F5F5F5
310
F5F5F5F5F5F5F5F5F5F5F5F5F5F5F5F5F5E2E2F5F5F5F5F5F5F5F5F5F5F5E2F5F5F5F5F5F5F5F5F5F5F5F5F5F5F5F5F5F5F5F5F5F5F5F5F5F5F5F5F5F5F5F5F5F5F5F5F5F5F5F5F5F5F5F5F5F5F5F5F5F5F5F5F5F5F5F5F5F5F5F5F5F5F5F5F5F5F5F5F5F5F5F5F5F5F5F5F5F5F5F5F5F5F5F5F5F5F5F5F5F5F5F5F5F5F5F5
310
F5F5F5F5F5F5F5F5F5F5F5F5F5F5F5F5F5F5F5F5F5F5F5F5F5F5F5F5F5F5F5F5F5F5F5F5F5F5F5F5F5F5F5F5F5F5F5F5F5F5F5F5F5F5F5F5F5F5E2F5F5F5F5F5F5F5F5F5F5F5E2E2F5F5F5F5F5F5F5F5F5F5F5E2F5F5F5F5F5F5F5F5F5F5F5F5F5F5F5F5F5F5F5F5F5F5F5F5F5F5F5F5F5F5F5F5F5F5F5F5F5F5F5F5F5F5F5
310
F5F5F5F5F5F5F5F5F5F5F5F5F5F5F5F5F5F5F5F5F5F5F5F5F5F5F5F5F5F5F5F5F5F5F5F5F5F5F5F5F5F5F5F5F5F5F5F5F5F5F5F5F5F5F5F5F5F5F5F5F5F5F5F5F5F5F5F5F5F5F5F5F5F5F5F5F5F5F5F5F5F5F5F5F5F5F5F5F5F5F5F5F5F5F5F5F5F5F5F5F5F5F5F5F5F5F5F5F5F5F5E2F5F5F5F5F5F5F5F5F5F5F5E2E2F5F5
310
F5F5F5F5F5F5F5F5F5E2F5F5F5F5F5F5F5F5F5F5F5F5F5F5F5F5F5F5F5F5F5F5F5F5F5F5F5F5F5F5F5F5F5F5F5F5F5F5F5F5F5F5F5F5F5F5F5F5F5F5F5F5F5F5F5F5F5F5F5F5F5F5F5F5F5F5F5F5F5F5F5F5F5F5F5F5F5F5F5F5F5F5F5F5F5F5F5F5F5F5F5F5F5F5F5F5F5F5F5F5F5F5F5F5F5F5F5F5F5F5F5F5F5F5F5F5F5
310
F5F5F5F5F5F5F5F5F5F5F5F5F5F5F5F5F5F5F5F5F5F5F5F5F5F5F5F5F5F5F5F5F5F5F5F5F5E2F5F5F5F5F5F5F5F5F5F5F5E2E2F5F5F5F5F5F5F5F5F5F5F5E2F5F5F5F5F5F5F5F5F5F5F5F5F5F5F5F5F5F5F5F5F5F5F5F5F5F5F5F5F5F5F5F5F5F5F5F5F5F5F5F5F5F5F5F5F5F5F5F5F5F5F5F5F5F5F5F5F5F5F5F5F5F5F5F5
310
F5F5F5F5F5F5F5F5F5F5F5F5F5F5F5F5F5F5F5F5F5F5F5F5F5F5F5F5F5F5F5F5F5F5F5F5F5F5F5F5F5F5F5F5F5F5F5F5F5F5F5F5F5F5F5F5F5F5F5F5F5F5F5F5F5F5F5F5F5F5F5F5F5F5F5F5F5F5F5F5F5F5F5F5F5F5F5F5F5F5E2F5F5F5F5F5F5F5F5F5F5F5E2E2F5F5F5F5F5F5F5F5F5F5F5E2F5F5F5F5F5F5F5F5F5F5F5
310
F5F5F5F5F5F5F5F5F5F5F5F5F5F5F5F5F5F5F5F5F5F5F5F5F5F5F5F5F5F5F5F5F5F5F5F5F5F5F5F5F5F5F5F5F5F5F5F5F5F5F5F5F5F5F5F5F5F5F5F5F5F5F5F5F5F5F5F5F5F5F5F5F5F5F5F5F5F5F5F5F5F5F5F5F5F5F5F5F5F5F5F5F5F5F5F5F5F5F5F5F5F5F5F5F5F5F5F5F5F5F5F5F5F5F5F5F5F5F5F5F5F5F5F5F5F5F5
310
F5F5F5F5F5F5F5F5F5F5F5F5F5F5F5F5E2F5F5F5F5F5F5F5F5F5F5F5E2E2F5F5F5F5F5F5F5F5F5F5F5E2F5F5F5F5F5F5F5F5F5F5F5F5F5F5F5F5F5F5F5F5F5F5F5F5F5F5F5F5F5F5F5F5F5F5F5F5F5F5F5F5F5F5F5F5F5F5F5F5F5F5F5F5F5F5F5F5F5F5F5F5F5F5F5F5F5F5F5F5F5F5F5F5F5F5F5F5F5F5F5F5F5F5F5F5F5
310
F5F5F5F5F5F5F5F5F5F5F5F5F5F5F5F5F5F5F5F5F5F5F5F5F5F5F5F5F5F5F5F5F5F5F5F5F5F5F5F5F5F5F5F5F5F5F5F5F5F5F5F5F5F5F5F5F5F5F5F5F5F5F5F5F5F5F5F5F5E2F5F5F5F5F5F5F5F5F5F5F5E2E2F5F5F5F5F5F5F5F5F5F5F5E2F5F5F5F5F5F5F5F5F5F5F5F5F5F5F5F5F5F5F5F5F5F5F5F5F5F5F5F5F5F5F5F5
310
F5F5F5F5F5F5F5F5F5F5F5F5F5F5F5F5F5F5F5F5F5F5F5F5F5F5F5F5F5F5F5F5F5F5F5F5F5F5F5F5F5F5F5F5F5F5F5F5F5F5F5F5F5F5F5F5F5F5F5F5F5F5F5F5F5F5F5F5F5F5F5F5F5F5F5F5F5F5F5F5F5F5F5F5F5F5F5F5F5F5F5F5F5F5F5F5F5F5F5F5F5F5F5F5F5F5F5F5F5F5F5F5F5F5F5F5F5F5F5F5F5F5E2F5F5F5F5
310
F5F5F5F5F5F5F5E2E2F5F5F5F5F5F5F5F5F5F5F5E2F5F5F5F5F5F5F5F5F5F5F5F5F5F5F5F5F5F5F5F5F5F5F5F5F5F5F5F5F5F5F5F5F5F5F5F5F5F5F5F5F5F5F5F5F5F5F5F5F5F5F5F5F5F5F5F5F5F5F5F5F5F5F5F5F5F5F5F5F5F5F5F5F5F5F5F5F5F5F5F5F5F5F5F5F5F5F5F5F5F5F5F5F5F5F5F5F5F5F5F5F5F5F5F5F5F5
310
F5F5F5F5F5F5F5F5F5F5F5F5F5F5F5F5F5F5F5F5F5F5F5F5F5F5F5F5F5F5F5F5F5F5F5F5F5F5F5F5F5F5F5F5F5F5F5F5E2F5F5F5F5F5F5F5F5F5F5F5E2E2F5F5F5F5F5F5F5F5F5F5F5E2F5F5F5F5F5F5F5F5F5F5F5F5F5F5F5F5F5F5F5F5F5F5F5F5F5F5F5F5F5F5F5F5F5F5F5F5F5F5F5F5F5F5F5F5F5F5F5F5F5F5F5F5F5
310
F5F5F5F5F5F5F5F5F5F5F5F5F5F5F5F5F5F5F5F5F5F5F5F5F5F5F5F5F5F5F5F5F5F5F5F5F5F5F5F5F5F5F5F5F5F5F5F5F5F5F5F5F5F5F5F5F5F5F5F5F5F5F5F5F5F5F5F5F5F5F5F5F5F5F5F5F5F5F5F5F5F5F5F5F5F5F5F5F5F5F5F5F5F5F5F5F5F5F5F5F5E2F5F5F5F5F5F5F5F5F5F5F5E2E2F5F5F5F5F5F5F5F5F5F5F5E2
310
F5F5F5F5F5F5F5F5F5F5F5F5F5F5F5F5F5F5F5F5F5F5F5F5F5F5F5F5F5F5F5F5F5F5F5F5F5F5F5F5F5F5F5F5F5F5F5F5F5F5F5F5F5F5F5F5F5F5F5F5F5F5F5F5F5F5F5F5F5F5F5F5F5F5F5F5F5F5F5F5F5F5F5F5F5F5F5F5F5F5F5F5F5F5F5F5F5F5F5F5F5F5F5F5F5F5F5F5F5F5F5F5F5F5F5F5F5F5F5F5F5F5F5F5F5F5F5
310
F5F5F5F5F5F5F5F5F5F5F5F5F5F5F5F5F5F5F5F5F5F5F5F5F5F5F5E2F5F5F5F5F5F5F5F5F5F5F5E2E2F5F5F5F5F5F5F5F5F5F5F5E2F5F5F5F5F5F5F5F5F5F5F5F5F5F5F5F5F5F5F5F5F5F5F5F5F5F5F5F5F5F5F5F5F5F5F5F5F5F5F5F5F5F5F5F5F5F5F5F5F5F5F5F5F5F5F5F5F5F5F5F5F5F5F5F5F5F5F5F5F5F5F5F5F5F5
310
F5F5F5F5F5F5F5F5F5F5F5F5F5F5F5F5F5F5F5F5F5F5F5F5F5F5F5F5F5F5F5F5F5F5F5F5F5F5F5F5F5F5F5F5F5F5F5F5F5F5F5F5F5F5F5F5F5F5F5F5F5F5F5F5F5F5F5F5F5F5F5F5F5F5F5F5F5F5F5F5E2F5F5F5F5F5F5F5F5F5F5F5E2E2F5F5F5F5F5F5F5F5F5F5F5E2F5F5F5F5F5F5F5F5F5F5F5F5F5F5F5F5F5F5F5F5F5
310
F5F5F5F5F5F5F5F5F5F5F5F5F5F5F5F5F5F5F5F5F5F5F5F5F5F5F5F5F5F5F5F5F5F5F5F5F5F5F5F5F5F5F5F5F5F5F5F5F5F5F5F5F5F5F5F5F5F5F5F5F5F5F5F5F5F5F5F5F5F5F5F5F5F5F5F5F5F5F5F5F5F5F5F5F5F5F5F5F5F5F5F5F5F5F5F5F5F5F5F5F5F5F5F5F5F5F5F5F5F5F5F5F5F5F5F5F5F5F5F5F5F5F5F5F5F5F5
310
F5F5F5F5F5F5E2F5F5F5F5F5F5F5F5F5F5F5E2E2F5F5F5F5F5F5F5F5F5F5F5E2F5F5F5F5F5F5F5F5F5F5F5F5F5F5F5F5F5F5F5F5F5F5F5F5F5F5F5F5F5F5F5F5F5F5F5F5F5F5F5F5F5F5F5F5F5F5F5F5F5F5F5F5F5F5F5F5F5F5F5F5F5F5F5F5F5F5F5F5F5F5F5F5F5F5F5F5F5F5F5F5F5F5F5F5F5F5F5F5F5F5F5F5F5F5F5
310
F5F5F5F5F5F5F5F5F5F5F5F5F5F5F5F5F5F5F5F5F5F5F5F5F5F5F5F5F5F5F5F5F5F5F5F5F5F5F5F5F5F5F5F5F5F5F5F5F5F5F5F5F5F5F5F5F5F5F5E2F5F5F5F5F5F5F5F5F5F5F5E2E2F5F5F5F5F5F5F5F5F5F5F5E2F5F5F5F5F5F5F5F5F5F5F5F5F5F5F5F5F5F5F5F5F5F5F5F5F5F5F5F5F5F5F5F5F5F5F5F5F5F5F5F5F5F5
310
F5F5F5F5F5F5F5F5F5F5F5F5F5F5F5F5F5F5F5F5F5F5F5F5F5F5F5F5F5F5F5F5F5F5F5F5F5F5F5F5F5F5F5F5F5F5F5F5F5F5F5F5F5F5F5F5F5F5F5F5F5F5F5F5F5F5F5F5F5F5F5F5F5F5F5F5F5F5F5F5F5F5F5F5F5F5F5F5F5F5F5F5F5F5F5F5F5F5F5F5F5F5F5F5F5F5F5F5F5F5F5F5E2F5F5F5F5F5F5F5F5F5F5F5E2E2F5
310
F5F5F5F5F5F5F5F5F5F5E2F5F5F5F5F5F5F5F5F5F5F5F5F5F5F5F5F5F5F5F5F5F5F5F5F5F5F5F5F5F5F5F5F5F5F5F5F5F5F5F5F5F5F5F5F5F5F5F5F5F5F5F5F5F5F5F5F5F5F5F5F5F5F5F5F5F5F5F5F5F5F5F5F5F5F5F5F5F5F5F5F5F5F5F5F5F5F5F5F5F5F5F5F5F5F5F5F5F5F5F5F5F5F5F5F5F5F5F5F5F5F5F5F5F5F5F5
310
F5F5F5F5F5F5F5F5F5F5F5F5F5F5F5F5F5F5F5F5F5F5F5F5F5F5F5F5F5F5F5F5F5F5F5F5F5F5E2F5F5F5F5F5F5F5F5F5F5F5E2E2F5F5F5F5F5F5F5F5F5F5F5F5F5F5F5F5F5F5F5F5F5F5F5F5F5F5F5F5F5F5F5F5F5F5F5F5F5F5F5F5F5F5F5F5F5F5F5F5F5F5F5F5F5F5F5F5F5F5F5F5F5F5F5F5F5F5F5F5F5F5F5F5F5F5F5
310
F5F5F5F5F5F5F5F5F5F5F5F5F5F5F5F5F5F5F5F5F5F5F5F5F5F5F5F5F5F5F5F5F5F5F5F5F5F5F5F5F5F5F5F5F5F5F5F5F5F5F5F5F5F5F5F5F5F5F5F5F5F5F5F5F5F5F5F5F5F5F5F5F5F5F5F5F5F5F5F5F5F5F5F5F5F5F5F5F5F5F5F5F5F5F5F5F5F5F5F5F5F5F5E2E2F5F5F5F5F5F5F5F5F5F5F5F5F5F5F5F5F5F5F5F5F5F5
310
F5F5F5F5F5F5F5F5F5F5F5F5F5F5F5F5F5F5F5F5F5F5F5F5F5F5F5F5F5F5F5F5F5F5F5F5F5F5F5F5F5F5F5F5F5F5F5F5F5F5F5F5F5F5F5F5F5F5F5F5F5F5F5F5F5F5F5F5F5F5F5F5F5F5F5F5F5F5F5F5F5F5F5F5F5F5F5F5F5F5F5F5F5F5F5F5F5F5F5F5F5F5F5F5F5F5F5F5F5F5F5F5F5F5F5F5F5F5F5F5F5F5F5F5F5F5F5
310
F5F5F5F5F5F5F5F5F5F5F5F5F5F5F5F5F5F5F5F5F5F5F5F5F5F5F5F5F5E2E2F5F5F5F5F5F5F5F5F5F5F5F5F5F5F5F5F5F5F5F5F5F5F5F5F5F5F5F5F5F5F5F5F5F5F5F5F5F5F5F5F5F5F5F5F5F5F5F5F5F5F5F5F5F5F5F5F5F5F5F5F5F5F5F5F5F5F5F5F5F5F5F5F5F5F5F5F5F5F5F5F5F5F5F5F5F5F5F5F5F5F5F5F5F5F5F5
310
F5F5F5F5F5F5F5F5F5F5F5F5F5F5F5F5F5F5F5F5F5F5F5F5F5F5F5F5F5F5F5F5F5F5F5F5F5F5F5F5F5F5F5F5F5F5F5F5F5F5F5F5F5F5F5F5F5F5F5F5F5F5F5F5F5F5F5F5F5F5F5F5F5F5F5F5F5F5F5F5F5F5E2E2F5F5F5F5F5F5F5F5F5F5F5F5F5F5F5F5F5F5F5F5F5F5F5F5F5F5F5F5F5F5F5F5F5F5F5F5F5F5F5F5F5F5F5
310
F5F5F5F5F5F5F5F5F5F5F5F5F5F5F5F5F5F5F5F5F5F5F5F5F5F5F5F5F5F5F5F5F5F5F5F5F5F5F5F5F5F5F5F5F5F5F5F5F5F5F5F5F5F5F5F5F5F5F5F5F5F5F5F5F5F5F5F5F5F5F5F5F5F5F5F5F5F5F5F5F5F5F5F5F5F5F5F5F5F5F5F5F5F5F5F5F5F5F5F5F5F5F5F5F5F5F5F5F5F5F5F5F5F5F5F5F5F5F5F5F5F5F5F5F5F5F5
310
F5F5F5F5F5F5F5F5E2E2F5F5F5F5F5F5F5F5F5F5F5F5F5F5F5F5F5F5F5F5F5F5F5F5F5F5F5F5F5F5F5F5F5F5F5F5F5F5F5F5F5F5F5F5F5F5F5F5F5F5F5F5F5F5F5F5F5F5F5F5F5F5F5F5F5F5F5F5F5F5F5F5F5F5F5F5F5F5F5F5F5F5F5F5F5F5F5F5F5F5F5F5F5F5F5F5F5F5F5F5F5F5F5F5F5F5F5F5F5F5F5F5F5F5F5F5F5
310
F5F5F5F5F5F5F5F5F5F5F5F5F5F5F5F5F5F5F5F5F5F5F5F5F5F5F5F5F5F5F5F5F5F5F5F5F5F5F5F5F5F5F5F5F5F5F5F5F5F5F5F5F5F5F5F5F5F5F5F5F5E2E2F5F5F5F5F5F5F5F5F5F5F5F5F5F5F5F5F5F5F5F5F5F5F5F5F5F5F5F5F5F5F5F5F5F5F5F5F5F5F5F5F5F5F5F5F5F5F5F5F5F5F5F5F5F5F5F5F5F5F5F5F5F5F5F5
310
F5F5F5F5F5F5F5F5F5F5F5F5F5F5F5F5F5F5F5F5F5F5F5F5F5F5F5F5F5F5F5F5F5F5F5F5F5F5F5F5F5F5F5F5F5F5F5F5F5F5F5F5F5F5F5F5F5F5F5F5F5F5F5F5F5F5F5F5F5F5F5F5F5F5F5F5F5F5F5F5F5F5F5F5F5F5F5F5F5F5F5F5F5F5F5F5F5F5F5F5F5F5F5F5F5F5F5F5F5F5F5F5F5F5E2E2F5F5F5F5F5F5F5F5F5F5F5
310
F5F5F5F5F5F5F5F5F5F5F5F5F5F5F5F5F5F5F5F5F5F5F5F5F5F5F5F5F5F5F5F5F5F5F5F5F5F5F5F5F5F5F5F5F5F5F5F5F5F5F5F5F5F5F5F5F5F5F5F5F5F5F5F5F5F5F5F5F5F5F5F5F5F5F5F5F5F5F5F5F5F5F5F5F5F5F5F5F5F5F5F5F5F5F5F5F5F5F5F5F5F5F5F5F5F5F5F5F5F5F5F5F5F5F5F5F5F5F5F5F5F5F5F5F5F5F5
310
F5F5F5F5F5F5F5F5F5F5F5F5F5F5F5F5F5F5F5F5F5F5F5F5F5F5F5F5F5F5F5F5F5F5F5F5F5F5F5F5E2E2F5F5F5F5F5F5F5F5F5F5F5F5F5F5F5F5F5F5F5F5F5F5F5F5F5F5F5F5F5F5F5F5F5F5F5F5F5F5F5F5F5F5F5F5F5F5F5F5F5F5F5F5F5F5F5F5F5F5F5F5F5F5F5F5F5F5F5F5F5F5F5F5F5F5F5F5F5F5F5F5F5F5F5F5F5
310
F5F5F5F5F5F5F5F5F5F5F5F5F5F5F5F5F5F5F5F5F5F5F5F5F5F5F5F5F5F5F5F5F5F5F5F5F5F5F5F5F5F5F5F5F5F5F5F5F5F5F5F5F5F5F5F5F5F5F5F5F5F5F5F5F5F5F5F5F5F5F5F5F5F5F5F5F5F5F5F5F5F5F5F5F5F5F5F5F5F5F5F5F5E2E2F5F5F5F5F5F5F5F5F5F5F5E2F5F5F5F5F5F5F5F5F5F5F5F5F5F5F5F5F5F5F5F5
310
F5F5F5F5F5F5F5F5F5F5F5F5F5F5F5F5F5F5F5F5F5F5F5F5F5F5F5F5F5F5F5F5F5F5F5F5F5F5F5F5F5F5F5F5F5F5F5F5F5F5F5F5F5F5F5F5F5F5F5F5F5F5F5F5F5F5F5F5F5F5F5F5F5F5F5F5F5F5F5F5F5F5F5F5F5F5F5F5F5F5F5F5F5F5F5F5F5F5F5F5F5F5F5F5F5F5F5F5F5F5F5F5F5F5F5F5F5F5F5F5F5F5F5F5F5F5F5
310
F5F5F5F5F5F5F5E2F5F5F5F5F5F5F5F5F5F5F5E2E2F5F5F5F5F5F5F5F5F5F5F5E2F5F5F5F5F5F5F5F5F5F5F5F5F5F5F5F5F5F5F5F5F5F5F5F5F5F5F5F5F5F5F5F5F5F5F5F5F5F5F5F5F5F5F5F5F5F5F5F5F5F5F5F5F5F5F5F5F5F5F5F5F5F5F5F5F5F5F5F5F5F5F5F5F5F5F5F5F5F5F5F5F5F5F5F5F5F5F5F5F5F5F5F5F5F5
310
F5F5F5F5F5F5F5F5F5F5F5F5F5F5F5F5F5F5F5F5F5F5F5F5F5F5F5F5F5F5F5F5F5F5F5F5F5F5F5F5F5F5F5F5F5F5F5F5F5F5F5F5F5F5F5F5F5F5F5F5E2F5F5F5F5F5F5F5F5F5F5F5E2E2F5F5F5F5F5F5F5F5F5F5F5E2F5F5F5F5F5F5F5F5F5F5F5F5F5F5F5F5F5F5F5F5F5F5F5F5F5F5F5F5F5F5F5F5F5F5F5F5F5F5F5F5F5
310
F5F5F5F5F5F5F5F5F5F5F5F5F5F5F5F5F5F5F5F5F5F5F5F5F5F5F5F5F5F5F5F5F5F5F5F5F5F5F5F5F5F5F5F5F5F5F5F5F5F5F5F5F5F5F5F5F5F5F5F5F5F5F5F5F5F5F5F5F5F5F5F5F5F5F5F5F5F5F5F5F5F5F5F5F5F5F5F5F5F5F5F5F5F5F5F5F5F5F5F5F5F5F5F5F5F5F5F5F5F5F5F5F5E2F5F5F5F5F5F5F5F5F5F5F5E2E2
310
F5F5F5F5F5F5F5F5F5F5F5E2F5F5F5F5F5F5F5F5F5F5F5F5F5F5F5F5F5F5F5F5F5F5F5F5F5F5F5F5F5F5F5F5F5F5F5F5F5F5F5F5F5F5F5F5F5F5F5F5F5F5F5F5F5F5F5F5F5F5F5F5F5F5F5F5F5F5F5F5F5F5F5F5F5F5F5F5F5F5F5F5F5F5F5F5F5F5F5F5F5F5F5F5F5F5F5F5F5F5F5F5F5F5F5F5F5F5F5F5F5F5F5F5F5F5F5
310
F5F5F5F5F5F5F5F5F5F5F5F5F5F5F5F5F5F5F5F5F5F5F5F5F5F5F5F5F5F5F5F5F5F5F5F5F5F5F5E2F5F5F5F5F5F5F5F5F5F5F5E2E2F5F5F5F5F5F5F5F5F5F5F5E2F5F5F5F5F5F5F5F5F5F5F5F5F5F5F5F5F5F5F5F5F5F5F5F5F5F5F5F5F5F5F5F5F5F5F5F5F5F5F5F5F5F5F5F5F5F5F5F5F5F5F5F5F5F5F5F5F5F5F5F5F5F5
310
F5F5F5F5F5F5F5F5F5F5F5F5F5F5F5F5F5F5F5F5F5F5F5F5F5F5F5F5F5F5F5F5F5F5F5F5F5F5F5F5F5F5F5F5F5F5F5F5F5F5F5F5F5F5F5F5F5F5F5F5F5F5F5F5F5F5F5F5F5F5F5F5F5F5F5F5F5F5F5F5F5F5F5F5F5F5F5F5F5F5F5F5E2F5F5F5F5F5F5F5F5F5F5F5E2E2F5F5F5F5F5F5F5F5F5F5F5E2F5F5F5F5F5F5F5F5F5
310
F5F5F5F5F5F5F5F5F5F5F5F5F5F5F5F5F5F5F5F5F5F5F5F5F5F5F5F5F5F5F5F5F5F5F5F5F5F5F5F5F5F5F5F5F5F5F5F5F5F5F5F5F5F5F5F5F5F5F5F5F5F5F5F5F5F5F5F5F5F5F5F5F5F5F5F5F5F5F5F5F5F5F5F5F5F5F5F5F5F5F5F5F5F5F5F5F5F5F5F5F5F5F5F5F5F5F5F5F5F5F5F5F5F5F5F5F5F5F5F5F5F5F5F5F5F5F5
310
F5F5F5F5F5F5F5F5F5F5F5F5F5F5F5F5F5F5E2F5F5F5F5F5F5F5F5F5F5F5E2E2F5F5F5F5F5F5F5F5F5F5F5E2F5F5F5F5F5F5F5F5F5F5F5F5F5F5F5F5F5F5F5F5F5F5F5F5F5F5F5F5F5F5F5F5F5F5F5F5F5F5F5F5F5F5F5F5F5F5F5F5F5F5F5F5F5F5F5F5F5F5F5F5F5F5F5F5F5F5F5F5F5F5F5F5F5F5F5F5F5F5F5F5F5F5F5
310
F5F5F5F5F5F5F5F5F5F5F5F5F5F5F5F5F5F5F5F5F5F5F5F5F5F5F5F5F5F5F5F5F5F5F5F5F5F5F5F5F5F5F5F5F5F5F5F5F5F5F5F5F5F5F5F5F5F5F5F5F5F5F5F5F5F5F5F5F5F5F5E2F5F5F5F5F5F5F5F5F5F5F5E2E2F5F5F5F5F5F5F5F5F5F5F5E2F5F5F5F5F5F5F5F5F5F5F5F5F5F5F5F5F5F5F5F5F5F5F5F5F5F5F5F5F5F5
310
F5F5F5F5F5F5F5F5F5F5F5F5F5F5F5F5F5F5F5F5F5F5F5F5F5F5F5F5F5F5F5F5F5F5F5F5F5F5F5F5F5F5F5F5F5F5F5F5F5F5F5F5F5F5F5F5F5F5F5F5F5F5F5F5F5F5F5F5F5F5F5F5F5F5F5F5F5F5F5F5F5F5F5F5F5F5F5F5F5F5F5F5F5F5F5F5F5F5F5F5F5F5F5F5F5F5F5F5F5F5F5F5F5F5F5F5F5F5F5F5F5F5F5F5E2F5F5
310
F5F5F5F5F5F5F5F5F5E2E2F5F5F5F5F5F5F5F5F5F5F5E2F5F5F5F5F5F5F5F5F5F5F5F5F5F5F5F5F5F5F5F5F5F5F5F5F5F5F5F5F5F5F5F5F5F5F5F5F5F5F5F5F5F5F5F5F5F5F5F5F5F5F5F5F5F5F5F5F5F5F5F5F5F5F5F5F5F5F5F5F5F5F5F5F5F5F5F5F5F5F5F5F5F5F5F5F5F5F5F5F5F5F5F5F5F5F5F5F5F5F5F5F5F5F5F5
310
F5F5F5F5F5F5F5F5F5F5F5F5F5F5F5F5F5F5F5F5F5F5F5F5F5F5F5F5F5F5F5F5F5F5F5F5F5F5F5F5F5F5F5F5F5F5F5F5F5F5E2F5F5F5F5F5F5F5F5F5F5F5E2E2F5F5F5F5F5F5F5F5F5F5F5E2F5F5F5F5F5F5F5F5F5F5F5F5F5F5F5F5F5F5F5F5F5F5F5F5F5F5F5F5F5F5F5F5F5F5F5F5F5F5F5F5F5F5F5F5F5F5F5F5F5F5F5
310
F5F5F5F5F5F5F5F5F5F5F5F5F5F5F5F5F5F5F5F5F5F5F5F5F5F5F5F5F5F5F5F5F5F5F5F5F5F5F5F5F5F5F5F5F5F5F5F5F5F5F5F5F5F5F5F5F5F5F5F5F5F5F5F5F5F5F5F5F5F5F5F5F5F5F5F5F5F5F5F5F5F5F5F5F5F5F5F5F5F5F5F5F5F5F5F5F5F5F5F5F5F5F5E2F5F5F5F5F5F5F5F5F5F5F5E2E2F5F5F5F5F5F5F5F5F5F5
310
F5E2F5F5F5F5F5F5F5F5F5F5F5F5F5F5F5F5F5F5F5F5F5F5F5F5F5F5F5F5F5F5F5F5F5F5F5F5F5F5F5F5F5F5F5F5F5F5F5F5F5F5F5F5F5F5F5F5F5F5F5F5F5F5F5F5F5F5F5F5F5F5F5F5F5F5F5F5F5F5F5F5F5F5F5F5F5F5F5F5F5F5F5F5F5F5F5F5F5F5F5F5F5F5F5F5F5F5F5F5F5F5F5F5F5F5F5F5F5F5F5F5F5F5F5F5F5
310
F5F5F5F5F5F5F5F5F5F5F5F5F5F5F5F5F5F5F5F5F5F5F5F5F5F5F5F5F5E2F5F5F5F5F5F5F5F5F5F5F5E2E2F5F5F5F5F5F5F5F5F5F5F5E2F5F5F5F5F5F5F5F5F5F5F5F5F5F5F5F5F5F5F5F5F5F5F5F5F5F5F5F5F5F5F5F5F5F5F5F5F5F5F5F5F5F5F5F5F5F5F5F5F5F5F5F5F5F5F5F5F5F5F5F5F5F5F5F5F5F5F5F5F5F5F5F5
310
F5F5F5F5F5F5F5F5F5F5F5F5F5F5F5F5F5F5F5F5F5F5F5F5F5F5F5F5F5F5F5F5F5F5F5F5F5F5F5F5F5F5F5F5F5F5F5F5F5F5F5F5F5F5F5F5F5F5F5F5F5F5F5F5F5F5F5F5F5F5F5F5F5F5F5F5F5F5F5F5F5F5E2F5F5F5F5F5F5F5F5F5F5F5E2E2F5F5F5F5F5F5F5F5F5F5F5E2F5F5F5F5F5F5F5F5F5F5F5F5F5F5F5F5F5F5F5
310
F5F5F5F5F5F5F5F5F5F5F5F5F5F5F5F5F5F5F5F5F5F5F5F5F5F5F5F5F5F5F5F5F5F5F5F5F5F5F5F5F5F5F5F5F5F5F5F5F5F5F5F5F5F5F5F5F5F5F5F5F5F5F5F5F5F5F5F5F5F5F5F5F5F5F5F5F5F5F5F5F5F5F5F5F5F5F5F5F5F5F5F5F5F5F5F5F5F5F5F5F5F5F5F5F5F5F5F5F5F5F5F5F5F5F5F5F5F5F5F5F5F5F5F5F5F5F5
310
F5F5F5F5F5F5F5F5E2F5F5F5F5F5F5F5F5F5F5F5E2E2F5F5F5F5F5F5F5F5F5F5F5E2F5F5F5F5F5F5F5F5F5F5F5F5F5F5F5F5F5F5F5F5F5F5F5F5F5F5F5F5F5F5F5F5F5F5F5F5F5F5F5F5F5F5F5F5F5F5F5F5F5F5F5F5F5F5F5F5F5F5F5F5F5F5F5F5F5F5F5F5F5F5F5F5F5F5F5F5F5F5F5F5F5F5F5F5F5F5F5F5F5F5F5F5F5
310
F5F5F5F5F5F5F5F5F5F5F5F5F5F5F5F5F5F5F5F5F5F5F5F5F5F5F5F5F5F5F5F5F5F5F5F5F5F5F5F5F5F5F5F5F5F5F5F5F5F5F5F5F5F5F5F5F5F5F5F5F5E2F5F5F5F5F5F5F5F5F5F5F5E2E2F5F5F5F5F5F5F5F5F5F5F5E2F5F5F5F5F5F5F5F5F5F5F5F5F5F5F5F5F5F5F5F5F5F5F5F5F5F5F5F5F5F5F5F5F5F5F5F5F5F5F5F5
310
F5F5F5F5F5F5F5F5F5F5F5F5F5F5F5F5F5F5F5F5F5F5F5F5F5F5F5F5F5F5F5F5F5F5F5F5F5F5F5F5F5F5F5F5F5F5F5F5F5F5F5F5F5F5F5F5F5F5F5F5F5F5F5F5F5F5F5F5F5F5F5F5F5F5F5F5F5F5F5F5F5F5F5F5F5F5F5F5F5F5F5F5F5F5F5F5F5F5F5F5F5F5F5F5F5F5F5F5F5F5F5F5F5F5E2F5F5F5F5F5F5F5F5F5F5F5E2
310
E2F5F5F5F5F5F5F5F5F5F5F5F5F5F5F5F5F5F5F5F5F5F5F5F5F5F5F5F5F5F5F5F5F5F5F5F5F5F5F5F5F5F5F5F5F5F5F5F5F5F5F5F5F5F5F5F5F5F5F5F5F5F5F5F5F5F5F5F5F5F5F5F5F5F5F5F5F5F5F5F5F5F5F5F5F5F5F5F5F5F5F5F5F5F5F5F5F5F5F5F5F5F5F5F5F5F5F5F5F5F5F5F5F5F5F5F5F5F5F5F5F5F5F5F5F5F5
310
F5F5F5F5F5F5F5F5F5F5F5F5F5F5F5F5F5F5F5F5F5F5F5F5F5F5F5F5F5F5F5F5F5F5F5F5F5F5F5F5F5F5F5F5F5F5F5F5F5F5F5F5E2E2F5F5F5F5F5F5F5F5F5F5F5F5F5F5F5F5F5F5F5F5F5F5F5F5F5F5F5F5F5F5F5F5F5F5F5F5F5F5F5F5F5F5F5F5F5F5F5F5F5F5F5F5F5F5F5F5F5F5F5F5F5F5F5F5F5F5F5F5F5F5F5F5F5
310
F5F5F5F5F5F5F5F5F5F5F5F5F5F5F5F5F5F5F5F5F5F5F5F5F5F5F5F5F5F5F5F5F5F5F5F5F5F5F5F5F5F5F5F5F5F5F5F5F5F5F5F5F5F5F5F5F5F5F5F5F5F5F5F5F5F5F5F5F5F5F5F5F5F5F5F5F5F5F5F5F5F5F5F5F5F5F5F5F5F5F5F5F5F5F5F5F5F5F5F5F5F5F5F5F5E2E2F5F5F5F5F5F5F5F5F5F5F5F5F5F5F5F5F5F5F5F5
310
F5F5F5F5F5F5F5F5F5F5F5F5F5F5F5F5F5F5F5F5F5F5F5F5F5F5F5F5F5F5F5F5F5F5F5F5F5F5F5F5F5F5F5F5F5F5F5F5F5F5F5F5F5F5F5F5F5F5F5F5F5F5F5F5F5F5F5F5F5F5F5F5F5F5F5F5F5F5F5F5F5F5F5F5F5F5F5F5F5F5F5F5F5F5F5F5F5F5F5F5F5F5F5F5F5F5F5F5F5F5F5F5F5F5F5F5F5F5F5F5F5F5F5F5F5F5F5
310
F5F5F5F5F5F5F5F5F5F5F5F5F5F5F5F5F5F5F5F5F5F5F5F5F5F5F5F5F5F5F5E2E2F5F5F5F5F5F5F5F5F5F5F5F5F5F5F5F5F5F5F5F5F5F5F5F5F5F5F5F5F5F5F5F5F5F5F5F5F5F5F5F5F5F5F5F5F5F5F5F5F5F5F5F5F5F5F5F5F5F5F5F5F5F5F5F5F5F5F5F5F5F5F5F5F5F5F5F5F5F5F5F5F5F5F5F5F5F5F5F5F5F5F5F5F5F5
310
F5F5F5F5F5F5F5F5F5F5F5F5F5F5F5F5F5F5F5F5F5F5F5F5F5F5F5F5F5F5F5F5F5F5F5F5F5F5F5F5F5F5F5F5F5F5F5F5F5F5F5F5F5F5F5F5F5F5F5F5F5F5F5F5F5F5F5F5F5F5F5F5F5F5F5F5F5F5F5F5F5F5F5F5E2E2F5F5F5F5F5F5F5F5F5F5F5F5F5F5F5F5F5F5F5F5F5F5F5F5F5F5F5F5F5F5F5F5F5F5F5F5F5F5F5F5F5
310
F5F5F5F5F5F5F5F5F5F5F5F5F5F5F5F5F5F5F5F5F5F5F5F5F5F5F5F5F5F5F5F5F5F5F5F5F5F5F5F5F5F5F5F5F5F5F5F5F5F5F5F5F5F5F5F5F5F5F5F5F5F5F5F5F5F5F5F5F5F5F5F5F5F5F5F5F5F5F5F5F5F5F5F5F5F5F5F5F5F5F5F5F5F5F5F5F5F5F5F5F5F5F5F5F5F5F5F5F5F5F5F5F5F5F5F5F5F5F5F5F5F5F5F5F5F5F5
310
F5F5F5F5F5F5F5F5F5F5E2E2F5F5F5F5F5F5F5F5F5F5F5F5F5F5F5F5F5F5F5F5F5F5F5F5F5F5F5F5F5F5F5F5F5F5F5F5F5F5F5F5F5F5F5F5F5F5F5F5F5F5F5F5F5F5F5F5F5F5F5F5F5F5F5F5F5F5F5F5F5F5F5F5F5F5F5F5F5F5F5F5F5F5F5F5F5F5F5F5F5F5F5F5F5F5F5F5F5F5F5F5F5F5F5F5F5F5F5F5F5F5F5F5F5F5F5
310
F5F5F5F5F5F5F5F5F5F5F5F5F5F5F5F5F5F5F5F5F5F5F5F5F5F5F5F5F5F5F5F5F5F5F5F5F5F5F5F5F5F5F5F5F5F5F5F5F5F5F5F5F5F5F5F5F5F5F5F5F5F5F5E2E2F5F5F5F5F5F5F5F5F5F5F5F5F5F5F5F5F5F5F5F5F5F5F5F5F5F5F5F5F5F5F5F5F5F5F5F5F5F5F5F5F5F5F5F5F5F5F5F5F5F5F5F5F5F5F5F5F5F5F5F5F5F5
310
F5F5F5F5F5F5F5F5F5F5F5F5F5F5F5F5F5F5F5F5F5F5F5F5F5F5F5F5F5F5F5F5F5F5F5F5F5F5F5F5F5F5F5F5F5F5F5F5F5F5F5F5F5F5F5F5F5F5F5F5F5F5F5F5F5F5F5F5F5F5F5F5F5F5F5F5F5F5F5F5F5F5F5F5F5F5F5F5F5F5F5F5F5F5F5F5F5F5F5F5F5F5F5F5F5F5F5F5F5F5F5F5F5F5F5F5E2E2F5F5F5F5F5F5F5F5F5
310
F5F5F5F5F5F5F5F5F5F5F5F5F5F5F5F5F5F5F5F5F5F5F5F5F5F5F5F5F5F5F5F5F5F5F5F5F5F5F5F5F5F5F5F5F5F5F5F5F5F5F5F5F5F5F5F5F5F5F5F5F5F5F5F5F5F5F5F5F5F5F5F5F5F5F5F5F5F5F5F5F5F5F5F5F5F5F5F5F5F5F5F5F5F5F5F5F5F5F5F5F5F5F5F5F5F5F5F5F5F5F5F5F5F5F5F5F5F5F5F5F5F5F5F5F5F5F5
310
F5F5F5F5F5F5F5F5F5F5F5F5F5F5F5F5F5F5F5F5F5F5F5F5F5F5F5F5F5F5F5F5F5F5F5F5F5F5F5F5F5F5E2E2F5F5F5F5F5F5F5F5F5F5F5F5F5F5F5F5F5F5F5F5F5F5F5F5F5F5F5F5F5F5F5F5F5F5F5F5F5F5F5F5F5F5F5F5F5F5F5F5F5F5F5F5F5F5F5F5F5F5F5F5F5F5F5F5F5F5F5F5F5F5F5F5F5F5F5F5F5F5F5F5F5F5F5
310
F5F5F5F5F5F5F5F5F5F5F5F5F5F5F5F5F5F5F5F5F5F5F5F5F5F5F5F5F5F5F5F5F5F5F5F5F5F5F5F5F5F5F5F5F5F5F5F5F5F5F5F5F5F5F5F5F5F5F5F5F5F5F5F5F5F5F5F5F5F5F5F5F5F5F5F5F5F5F5F5F5F5F5F5F5F5F5F5F5F5F5F5F5F5F5E2E2F5F5F5F5F5F5F5F5F5F5F5E2F5F5F5F5F5F5F5F5F5F5F5F5F5F5F5F5F5F5
310
F5F5F5F5F5F5F5F5F5F5F5F5F5F5F5F5F5F5F5F5F5F5F5F5F5F5F5F5F5F5F5F5F5F5F5F5F5F5F5F5F5F5F5F5F5F5F5F5F5F5F5F5F5F5F5F5F5F5F5F5F5F5F5F5F5F5F5F5F5F5F5F5F5F5F5F5F5F5F5F5F5F5F5F5F5F5F5F5F5F5F5F5F5F5F5F5F5F5F5F5F5F5F5F5F5F5F5F5F5F5F5F5F5F5F5F5F5F5F5F5F5F5F5F5F5F5F5
310
F5F5F5F5F5F5F5F5F5E2F5F5F5F5F5F5F5F5F5F5F5E2E2F5F5F5F5F5F5F5F5F5F5F5E2F5F5F5F5F5F5F5F5F5F5F5F5F5F5F5F5F5F5F5F5F5F5F5F5F5F5F5F5F5F5F5F5F5F5F5F5F5F5F5F5F5F5F5F5F5F5F5F5F5F5F5F5F5F5F5F5F5F5F5F5F5F5F5F5F5F5F5F5F5F5F5F5F5F5F5F5F5F5F5F5F5F5F5F5F5F5F5F5F5F5F5F5
310
F5F5F5F5F5F5F5F5F5F5F5F5F5F5F5F5F5F5F5F5F5F5F5F5F5F5F5F5F5F5F5F5F5F5F5F5F5F5F5F5F5F5F5F5F5F5F5F5F5F5F5F5F5F5F5F5F5F5F5F5F5F5E2F5F5F5F5F5F5F5F5F5F5F5E2E2F5F5F5F5F5F5F5F5F5F5F5E2F5F5F5F5F5F5F5F5F5F5F5F5F5F5F5F5F5F5F5F5F5F5F5F5F5F5F5F5F5F5F5F5F5F5F5F5F5F5F5
310
F5F5F5F5F5F5F5F5F5F5F5F5F5F5F5F5F5F5F5F5F5F5F5F5F5F5F5F5F5F5F5F5F5F5F5F5F5F5F5F5F5F5F5F5F5F5F5F5F5F5F5F5F5F5F5F5F5F5F5F5F5F5F5F5F5F5F5F5F5F5F5F5F5F5F5F5F5F5F5F5F5F5F5F5F5F5F5F5F5F5F5F5F5F5F5F5F5F5F5F5F5F5F5F5F5F5F5F5F5F5F5F5F5F5F5E2F5F5F5F5F5F5F5F5F5F5F5
310
E2E2F5F5F5F5F5F5F5F5F5F5F5E2F5F5F5F5F5F5F5F5F5F5F5F5F5F5F5F5F5F5F5F5F5F5F5F5F5F5F5F5F5F5F5F5F5F5F5F5F5F5F5F5F5F5F5F5F5F5F5F5F5F5F5F5F5F5F5F5F5F5F5F5F5F5F5F5F5F5F5F5F5F5F5F5F5F5F5F5F5F5F5F5F5F5F5F5F5F5F5F5F5F5F5F5F5F5F5F5F5F5F5F5F5F5F5F5F5F5F5F5F5F5F5F5F5
310
F5F5F5F5F5F5F5F5F5F5F5F5F5F5F5F5F5F5F5F5F5F5F5F5F5F5F5F5F5F5F5F5F5F5F5F5F5F5F5F5F5E2F5F5F5F5F5F5F5F5F5F5F5E2E2F5F5F5F5F5F5F5F5F5F5F5E2F5F5F5F5F5F5F5F5F5F5F5F5F5F5F5F5F5F5F5F5F5F5F5F5F5F5F5F5F5F5F5F5F5F5F5F5F5F5F5F5F5F5F5F5F5F5F5F5F5F5F5F5F5F5F5F5F5F5F5F5
310
F5F5F5F5F5F5F5F5F5F5F5F5F5F5F5F5F5F5F5F5F5F5F5F5F5F5F5F5F5F5F5F5F5F5F5F5F5F5F5F5F5F5F5F5F5F5F5F5F5F5F5F5F5F5F5F5F5F5F5F5F5F5F5F5F5F5F5F5F5F5F5F5F5F5F5F5F5F5F5F5F5F5F5F5F5F5F5F5F5F5F5F5F5F5E2F5F5F5F5F5F5F5F5F5F5F5E2E2F5F5F5F5F5F5F5F5F5F5F5E2F5F5F5F5F5F5F5
310
F5F5F5F5F5F5F5F5F5F5F5F5F5F5F5F5F5F5F5F5F5F5F5F5F5F5F5F5F5F5F5F5F5F5F5F5F5F5F5F5F5F5F5F5F5F5F5F5F5F5F5F5F5F5F5F5F5F5F5F5F5F5F5F5F5F5F5F5F5F5F5F5F5F5F5F5F5F5F5F5F5F5F5F5F5F5F5F5F5F5F5F5F5F5F5F5F5F5F5F5F5F5F5F5F5F5F5F5F5F5F5F5F5F5F5F5F5F5F5F5F5F5F5F5F5F5F5
310
F5F5F5F5F5F5F5F5F5F5F5F5F5F5F5F5F5F5F5F5E2F5F5F5F5F5F5F5F5F5F5F5E2E2F5F5F5F5F5F5F5F5F5F5F5E2F5F5F5F5F5F5F5F5F5F5F5F5F5F5F5F5F5F5F5F5F5F5F5F5F5F5F5F5F5F5F5F5F5F5F5F5F5F5F5F5F5F5F5F5F5F5F5F5F5F5F5F5F5F5F5F5F5F5F5F5F5F5F5F5F5F5F5F5F5F5F5F5F5F5F5F5F5F5F5F5F5
310
F5F5F5F5F5F5F5F5F5F5F5F5F5F5F5F5F5F5F5F5F5F5F5F5F5F5F5F5F5F5F5F5F5F5F5F5F5F5F5F5F5F5F5F5F5F5F5F5F5F5F5F5F5F5F5F5F5F5F5F5F5F5F5F5F5F5F5F5F5F5F5F5F5E2F5F5F5F5F5F5F5F5F5F5F5E2E2F5F5F5F5F5F5F5F5F5F5F5E2F5F5F5F5F5F5F5F5F5F5F5F5F5F5F5F5F5F5F5F5F5F5F5F5F5F5F5F5
310
F5F5F5F5F5F5F5F5F5F5F5F5F5F5F5F5F5F5F5F5F5F5F5F5F5F5F5F5F5F5F5F5F5F5F5F5F5F5F5F5F5F5F5F5F5F5F5F5F5F5F5F5F5F5F5F5F5F5F5F5F5F5F5F5F5F5F5F5F5F5F5F5F5F5F5F5F5F5F5F5F5F5F5F5F5F5F5F5F5F5F5F5F5F5F5F5F5F5F5F5F5F5F5F5F5F5F5F5F5F5F5F5F5F5F5F5F5F5F5F5F5F5F5F5F5F5E2
310
F5F5F5F5F5F5F5F5F5F5F5E2E2F5F5F5F5F5F5F5F5F5F5F5E2F5F5F5F5F5F5F5F5F5F5F5F5F5F5F5F5F5F5F5F5F5F5F5F5F5F5F5F5F5F5F5F5F5F5F5F5F5F5F5F5F5F5F5F5F5F5F5F5F5F5F5F5F5F5F5F5F5F5F5F5F5F5F5F5F5F5F5F5F5F5F5F5F5F5F5F5F5F5F5F5F5F5F5F5F5F5F5F5F5F5F5F5F5F5F5F5F5F5F5F5F5F5
310
F5F5F5F5F5F5F5F5F5F5F5F5F5F5F5F5F5F5F5F5F5F5F5F5F5F5F5F5F5F5F5F5F5F5F5F5F5F5F5F5F5F5F5F5F5F5F5F5F5F5F5F5E2F5F5F5F5F5F5F5F5F5F5F5E2E2F5F5F5F5F5F5F5F5F5F5F5E2F5F5F5F5F5F5F5F5F5F5F5F5F5F5F5F5F5F5F5F5F5F5F5F5F5F5F5F5F5F5F5F5F5F5F5F5F5F5F5F5F5F5F5F5F5F5F5F5F5
310
F5F5F5F5F5F5F5F5F5F5F5F5F5F5F5F5F5F5F5F5F5F5F5F5F5F5F5F5F5F5F5F5F5F5F5F5F5F5F5F5F5F5F5F5F5F5F5F5F5F5F5F5F5F5F5F5F5F5F5F5F5F5F5F5F5F5F5F5F5F5F5F5F5F5F5F5F5F5F5F5F5F5F5F5F5F5F5F5F5F5F5F5F5F5F5F5F5F5F5F5F5F5F5F5F5E2F5F5F5F5F5F5F5F5F5F5F5E2E2F5F5F5F5F5F5F5F5
310
F5F5F5E2F5F5F5F5F5F5F5F5F5F5F5F5F5F5F5F5F5F5F5F5F5F5F5F5F5F5F5F5F5F5F5F5F5F5F5F5F5F5F5F5F5F5F5F5F5F5F5F5F5F5F5F5F5F5F5F5F5F5F5F5F5F5F5F5F5F5F5F5F5F5F5F5F5F5F5F5F5F5F5F5F5F5F5F5F5F5F5F5F5F5F5F5F5F5F5F5F5F5F5F5F5F5F5F5F5F5F5F5F5F5F5F5F5F5F5F5F5F5F5F5F5F5F5
310
F5F5F5F5F5F5F5F5F5F5F5F5F5F5F5F5F5F5F5F5F5F5F5F5F5F5F5F5F5F5F5E2F5F5F5F5F5F5F5F5F5F5F5E2E2F5F5F5F5F5F5F5F5F5F5F5E2F5F5F5F5F5F5F5F5F5F5F5F5F5F5F5F5F5F5F5F5F5F5F5F5F5F5F5F5F5F5F5F5F5F5F5F5F5F5F5F5F5F5F5F5F5F5F5F5F5F5F5F5F5F5F5F5F5F5F5F5F5F5F5F5F5F5F5F5F5F5
310
F5F5F5F5F5F5F5F5F5F5F5F5F5F5F5F5F5F5F5F5F5F5F5F5F5F5F5F5F5F5F5F5F5F5F5F5F5F5F5F5F5F5F5F5F5F5F5F5F5F5F5F5F5F5F5F5F5F5F5F5F5F5F5F5F5F5F5F5F5F5F5F5F5F5F5F5F5F5F5F5F5F5F5F5E2F5F5F5F5F5F5F5F5F5F5F5E2E2F5F5F5F5F5F5F5F5F5F5F5E2F5F5F5F5F5F5F5F5F5F5F5F5F5F5F5F5F5
310
F5F5F5F5F5F5F5F5F5F5F5F5F5F5F5F5F5F5F5F5F5F5F5F5F5F5F5F5F5F5F5F5F5F5F5F5F5F5F5F5F5F5F5F5F5F5F5F5F5F5F5F5F5F5F5F5F5F5F5F5F5F5F5F5F5F5F5F5F5F5F5F5F5F5F5F5F5F5F5F5F5F5F5F5F5F5F5F5F5F5F5F5F5F5F5F5F5F5F5F5F5F5F5F5F5F5F5F5F5F5F5F5F5F5F5F5F5F5F5F5F5F5F5F5F5F5F5
310
F5F5F5F5F5F5F5F5F5F5E2F5F5F5F5F5F5F5F5F5F5F5E2E2F5F5F5F5F5F5F5F5F5F5F5E2F5F5F5F5F5F5F5F5F5F5F5F5F5F5F5F5F5F5F5F5F5F5F5F5F5F5F5F5F5F5F5F5F5F5F5F5F5F5F5F5F5F5F5F5F5F5F5F5F5F5F5F5F5F5F5F5F5F5F5F5F5F5F5F5F5F5F5F5F5F5F5F5F5F5F5F5F5F5F5F5F5F5F5F5F5F5F5F5F5F5F5
310
F5F5F5F5F5F5F5F5F5F5F5F5F5F5F5F5F5F5F5F5F5F5F5F5F5F5F5F5F5F5F5F5F5F5F5F5F5F5F5F5F5F5F5F5F5F5F5F5F5F5F5F5F5F5F5F5F5F5F5F5F5F5F5E2F5F5F5F5F5F5F5F5F5F5F5E2E2F5F5F5F5F5F5F5F5F5F5F5E2F5F5F5F5F5F5F5F5F5F5F5F5F5F5F5F5F5F5F5F5F5F5F5F5F5F5F5F5F5F5F5F5F5F5F5F5F5F5
310
F5F5F5F5F5F5F5F5F5F5F5F5F5F5F5F5F5F5F5F5F5F5F5F5F5F5F5F5F5F5F5F5F5F5F5F5F5F5F5F5F5F5F5F5F5F5F5F5F5F5F5F5F5F5F5F5F5F5F5F5F5F5F5F5F5F5F5F5F5F5F5F5F5F5F5F5F5F5F5F5F5F5F5F5F5F5F5F5F5F5F5F5F5F5F5F5F5F5F5F5F5F5F5F5F5F5F5F5F5F5F5F5F5F5F5F5E2F5F5F5F5F5F5F5F5F5F5
310
F5E2E2F5F5F5F5F5F5F5F5F5F5F5F5F5F5F5F5F5F5F5F5F5F5F5F5F5F5F5F5F5F5F5F5F5F5F5F5F5F5F5F5F5F5F5F5F5F5F5F5F5F5F5F5F5F5F5F5F5F5F5F5F5F5F5F5F5F5F5F5F5F5F5F5F5F5F5F5F5F5F5F5F5F5F5F5F5F5F5F5F5F5F5F5F5F5F5F5F5F5F5F5F5F5F5F5F5F5F5F5F5F5F5F5F5F5F5F5F5F5F5F5F5F5F5F5
310
F5F5F5F5F5F5F5F5F5F5F5F5F5F5F5F5F5F5F5F5F5F5F5F5F5F5F5F5F5F5F5F5F5F5F5F5F5F5F5F5F5F5F5F5F5F5F5F5F5F5F5F5F5F5E2E2F5F5F5F5F5F5F5F5F5F5F5F5F5F5F5F5F5F5F5F5F5F5F5F5F5F5F5F5F5F5F5F5F5F5F5F5F5F5F5F5F5F5F5F5F5F5F5F5F5F5F5F5F5F5F5F5F5F5F5F5F5F5F5F5F5F5F5F5F5F5F5
310
F5F5F5F5F5F5F5F5F5F5F5F5F5F5F5F5F5F5F5F5F5F5F5F5F5F5F5F5F5F5F5F5F5F5F5F5F5F5F5F5F5F5F5F5F5F5F5F5F5F5F5F5F5F5F5F5F5F5F5F5F5F5F5F5F5F5F5F5F5F5F5F5F5F5F5F5F5F5F5F5F5F5F5F5F5F5F5F5F5F5F5F5F5F5F5F5F5F5F5F5F5F5F5F5F5F5F5E2E2F5F5F5F5F5F5F5F5F5F5F5F5F5F5F5F5F5F5
310
F5F5F5F5F5F5F5F5F5F5F5F5F5F5F5F5F5F5F5F5F5F5F5F5F5F5F5F5F5F5F5F5F5F5F5F5F5F5F5F5F5F5F5F5F5F5F5F5F5F5F5F5F5F5F5F5F5F5F5F5F5F5F5F5F5F5F5F5F5F5F5F5F5F5F5F5F5F5F5F5F5F5F5F5F5F5F5F5F5F5F5F5F5F5F5F5F5F5F5F5F5F5F5F5F5F5F5F5F5F5F5F5F5F5F5F5F5F5F5F5F5F5F5F5F5F5F5
310
F5F5F5F5F5F5F5F5F5F5F5F5F5F5F5F5F5F5F5F5F5F5F5F5F5F5F5F5F5F5F5F5F5E2E2F5F5F5F5F5F5F5F5F5F5F5F5F5F5F5F5F5F5F5F5F5F5F5F5F5F5F5F5F5F5F5F5F5F5F5F5F5F5F5F5F5F5F5F5F5F5F5F5F5F5F5F5F5F5F5F5F5F5F5F5F5F5F5F5F5F5F5F5F5F5F5F5F5F5F5F5F5F5F5F5F5F5F5F5F5F5F5F5F5F5F5F5
310
F5F5F5F5F5F5F5F5F5F5F5F5F5F5F5F5F5F5F5F5F5F5F5F5F5F5F5F5F5F5F5F5F5F5F5F5F5F5F5F5F5F5F5F5F5F5F5F5F5F5F5F5F5F5F5F5F5F5F5F5F5F5F5F5F5F5F5F5F5F5F5F5F5F5F5F5F5F5F5F5F5F5F5F5F5F5E2E2F5F5F5F5F5F5F5F5F5F5F5F5F5F5F5F5F5F5F5F5F5F5F5F5F5F5F5F5F5F5F5F5F5F5F5F5F5F5F5
310
F5F5F5F5F5F5F5F5F5F5F5F5F5F5F5F5F5F5F5F5F5F5F5F5F5F5F5F5F5F5F5F5F5F5F5F5F5F5F5F5F5F5F5F5F5F5F5F5F5F5F5F5F5F5F5F5F5F5F5F5F5F5F5F5F5F5F5F5F5F5F5F5F5F5F5F5F5F5F5F5F5F5F5F5F5F5F5F5F5F5F5F5F5F5F5F5F5F5F5F5F5F5F5F5F5F5F5F5F5F5F5F5F5F5F5F5F5F5F5F5F5F5F5F5F5F5F5
310
F5F5F5F5F5F5F5F5F5F5F5F5E2E2F5F5F5F5F5F5F5F5F5F5F5F5F5F5F5F5F5F5F5F5F5F5F5F5F5F5F5F5F5F5F5F5F5F5F5F5F5F5F5F5F5F5F5F5F5F5F5F5F5F5F5F5F5F5F5F5F5F5F5F5F5F5F5F5F5F5F5F5F5F5F5F5F5F5F5F5F5F5F5F5F5F5F5F5F5F5F5F5F5F5F5F5F5F5F5F5F5F5F5F5F5F5F5F5F5F5F5F5F5F5F5F5F5
310
F5F5F5F5F5F5F5F5F5F5F5F5F5F5F5F5F5F5F5F5F5F5F5F5F5F5F5F5F5F5F5F5F5F5F5F5F5F5F5F5F5F5F5F5F5F5F5F5F5F5F5F5F5F5F5F5F5F5F5F5F5F5F5F5F5E2E2F5F5F5F5F5F5F5F5F5F5F5F5F5F5F5F5F5F5F5F5F5F5F5F5F5F5F5F5F5F5F5F5F5F5F5F5F5F5F5F5F5F5F5F5F5F5F5F5F5F5F5F5F5F5F5F5F5F5F5F5
310
F5F5F5F5F5F5F5F5F5F5F5F5F5F5F5F5F5F5F5F5F5F5F5F5F5F5F5F5F5F5F5F5F5F5F5F5F5F5F5F5F5F5F5F5F5F5F5F5F5F5F5F5F5F5F5F5F5F5F5F5F5F5F5F5F5F5F5F5F5F5F5F5F5F5F5F5F5F5F5F5F5F5F5F5F5F5F5F5F5F5F5F5F5F5F5F5F5F5F5F5F5F5F5F5F5F5F5F5F5F5F5F5F5F5F5F5F5F5E2E2F5F5F5F5F5F5F5
310
F5F5F5F5F5F5F5F5F5F5F5F5F5F5F5F5F5F5F5F5F5F5F5F5F5F5F5F5F5F5F5F5F5F5F5F5F5F5F5F5F5F5F5F5F5F5F5F5F5F5F5F5F5F5F5F5F5F5F5F5F5F5F5F5F5F5F5F5F5F5F5F5F5F5F5F5F5F5F5F5F5F5F5F5F5F5F5F5F5F5F5F5F5F5F5F5F5F5F5F5F5F5F5F5F5F5F5F5F5F5F5F5F5F5F5F5F5F5F5F5F5F5F5F5F5F5F5
310
F5F5F5F5F5F5F5F5F5F5F5F5F5F5F5F5F5F5F5F5F5F5F5F5F5F5F5F5F5F5F5F5F5F5F5F5F5F5F5F5F5F5F5F5E2E2F5F5F5F5F5F5F5F5F5F5F5E2F5F5F5F5F5F5F5F5F5F5F5F5F5F5F5F5F5F5F5F5F5F5F5F5F5F5F5F5F5F5F5F5F5F5F5F5F5F5F5F5F5F5F5F5F5F5F5F5F5F5F5F5F5F5F5F5F5F5F5F5F5F5F5F5F5F5F5F5F5
310
F5F5F5F5F5F5F5F5F5F5F5F5F5F5F5F5F5F5F5F5F5F5F5F5F5F5F5F5F5F5F5F5F5F5F5F5F5F5F5F5F5F5F5F5F5F5F5F5F5F5F5F5F5F5F5F5F5F5F5F5F5F5F5F5F5F5F5F5F5F5F5F5F5F5F5F5F5F5F5F5F5F5F5F5F5E2F5F5F5F5F5F5F5F5F5F5F5E2E2F5F5F5F5F5F5F5F5F5F5F5E2F5F5F5F5F5F5F5F5F5F5F5F5F5F5F5F5
310
F5F5F5F5F5F5F5F5F5F5F5F5F5F5F5F5F5F5F5F5F5F5F5F5F5F5F5F5F5F5F5F5F5F5F5F5F5F5F5F5F5F5F5F5F5F5F5F5F5F5F5F5F5F5F5F5F5F5F5F5F5F5F5F5F5F5F5F5F5F5F5F5F5F5F5F5F5F5F5F5F5F5F5F5F5F5F5F5F5F5F5F5F5F5F5F5F5F5F5F5F5F5F5F5F5F5F5F5F5F5F5F5F5F5F5F5F5F5F5F5F5F5F5F5F5F5F5
310
F5F5F5F5F5F5F5F5F5F5F5E2F5F5F5F5F5F5F5F5F5F5F5E2E2F5F5F5F5F5F5F5F5F5F5F5E2F5F5F5F5F5F5F5F5F5F5F5F5F5F5F5F5F5F5F5F5F5F5F5F5F5F5F5F5F5F5F5F5F5F5F5F5F5F5F5F5F5F5F5F5F5F5F5F5F5F5F5F5F5F5F5F5F5F5F5F5F5F5F5F5F5F5F5F5F5F5F5F5F5F5F5F5F5F5F5F5F5F5F5F5F5F5F5F5F5F5
310
F5F5F5F5F5F5F5F5F5F5F5F5F5F5F5F5F5F5F5F5F5F5F5F5F5F5F5F5F5F5F5F5F5F5F5F5F5F5F5F5F5F5F5F5F5F5F5F5F5F5F5F5F5F5F5F5F5F5F5F5F5F5F5F5E2F5F5F5F5F5F5F5F5F5F5F5E2E2F5F5F5F5F5F5F5F5F5F5F5E2F5F5F5F5F5F5F5F5F5F5F5F5F5F5F5F5F5F5F5F5F5F5F5F5F5F5F5F5F5F5F5F5F5F5F5F5F5
310
F5F5F5F5F5F5F5F5F5F5F5F5F5F5F5F5F5F5F5F5F5F5F5F5F5F5F5F5F5F5F5F5F5F5F5F5F5F5F5F5F5F5F5F5F5F5F5F5F5F5F5F5F5F5F5F5F5F5F5F5F5F5F5F5F5F5F5F5F5F5F5F5F5F5F5F5F5F5F5F5F5F5F5F5F5F5F5F5F5F5F5F5F5F5F5F5F5F5F5F5F5F5F5F5F5F5F5F5F5F5F5F5F5F5F5F5F5E2F5F5F5F5F5F5F5F5F5
310
F5F5E2E2F5F5F5F5F5F5F5F5F5F5F5E2F5F5F5F5F5F5F5F5F5F5F5F5F5F5F5F5F5F5F5F5F5F5F5F5F5F5F5F5F5F5F5F5F5F5F5F5F5F5F5F5F5F5F5F5F5F5F5F5F5F5F5F5F5F5F5F5F5F5F5F5F5F5F5F5F5F5F5F5F5F5F5F5F5F5F5F5F5F5F5F5F5F5F5F5F5F5F5F5F5F5F5F5F5F5F5F5F5F5F5F5F5F5F5F5F5F5F5F5F5F5F5
310
F5F5F5F5F5F5F5F5F5F5F5F5F5F5F5F5F5F5F5F5F5F5F5F5F5F5F5F5F5F5F5F5F5F5F5F5F5F5F5F5F5F5F5E2F5F5F5F5F5F5F5F5F5F5F5E2E2F5F5F5F5F5F5F5F5F5F5F5E2F5F5F5F5F5F5F5F5F5F5F5F5F5F5F5F5F5F5F5F5F5F5F5F5F5F5F5F5F5F5F5F5F5F5F5F5F5F5F5F5F5F5F5F5F5F5F5F5F5F5F5F5F5F5F5F5F5F5
310
F5F5F5F5F5F5F5F5F5F5F5F5F5F5F5F5F5F5F5F5F5F5F5F5F5F5F5F5F5F5F5F5F5F5F5F5F5F5F5F5F5F5F5F5F5F5F5F5F5F5F5F5F5F5F5F5F5F5F5F5F5F5F5F5F5F5F5F5F5F5F5F5F5F5F5F5F5F5F5F5F5F5F5F5F5F5F5F5F5F5F5F5F5F5F5F5E2F5F5F5F5F5F5F5F5F5F5F5E2E2F5F5F5F5F5F5F5F5F5F5F5E2F5F5F5F5F5
310
F5F5F5F5F5F5F5F5F5F5F5F5F5F5F5F5F5F5F5F5F5F5F5F5F5F5F5F5F5F5F5F5F5F5F5F5F5F5F5F5F5F5F5F5F5F5F5F5F5F5F5F5F5F5F5F5F5F5F5F5F5F5F5F5F5F5F5F5F5F5F5F5F5F5F5F5F5F5F5F5F5F5F5F5F5F5F5F5F5F5F5F5F5F5F5F5F5F5F5F5F5F5F5F5F5F5F5F5F5F5F5F5F5F5F5F5F5F5F5F5F5F5F5F5F5F5F5
310
F5F5F5F5F5F5F5F5F5F5F5F5F5F5F5F5F5F5F5F5F5F5E2F5F5F5F5F5F5F5F5F5F5F5E2E2F5F5F5F5F5F5F5F5F5F5F5E2F5F5F5F5F5F5F5F5F5F5F5F5F5F5F5F5F5F5F5F5F5F5F5F5F5F5F5F5F5F5F5F5F5F5F5F5F5F5F5F5F5F5F5F5F5F5F5F5F5F5F5F5F5F5F5F5F5F5F5F5F5F5F5F5F5F5F5F5F5F5F5F5F5F5F5F5F5F5F5
310
F5F5F5F5F5F5F5F5F5F5F5F5F5F5F5F5F5F5F5F5F5F5F5F5F5F5F5F5F5F5F5F5F5F5F5F5F5F5F5F5F5F5F5F5F5F5F5F5F5F5F5F5F5F5F5F5F5F5F5F5F5F5F5F5F5F5F5F5F5F5F5F5F5F5F5E2F5F5F5F5F5F5F5F5F5F5F5E2E2F5F5F5F5F5F5F5F5F5F5F5E2F5F5F5F5F5F5F5F5F5F5F5F5F5F5F5F5F5F5F5F5F5F5F5F5F5F5
310
F5F5F5F5F5F5F5F5F5F5F5F5F5F5F5F5F5F5F5F5F5F5F5F5F5F5F5F5F5F5F5F5F5F5F5F5F5F5F5F5F5F5F5F5F5F5F5F5F5F5F5F5F5F5F5F5F5F5F5F5F5F5F5F5F5F5F5F5F5F5F5F5F5F5F5F5F5F5F5F5F5F5F5F5F5F5F5F5F5F5F5F5F5F5F5F5F5F5F5F5F5F5F5F5F5F5F5F5F5F5F5F5F5F5F5F5F5F5F5F5F5F5F5F5F5F5F5
310
F5E2F5F5F5F5F5F5F5F5F5F5F5E2E2F5F5F5F5F5F5F5F5F5F5F5E2F5F5F5F5F5F5F5F5F5F5F5F5F5F5F5F5F5F5F5F5F5F5F5F5F5F5F5F5F5F5F5F5F5F5F5F5F5F5F5F5F5F5F5F5F5F5F5F5F5F5F5F5F5F5F5F5F5F5F5F5F5F5F5F5F5F5F5F5F5F5F5F5F5F5F5F5F5F5F5F5F5F5F5F5F5F5F5F5F5F5F5F5F5F5F5F5F5F5F5F5
310
F5F5F5F5F5F5F5F5F5F5F5F5F5F5F5F5F5F5F5F5F5F5F5F5F5F5F5F5F5F5F5F5F5F5F5F5F5F5F5F5F5F5F5F5F5F5F5F5F5F5F5F5F5F5E2F5F5F5F5F5F5F5F5F5F5F5E2E2F5F5F5F5F5F5F5F5F5F5F5E2F5F5F5F5F5F5F5F5F5F5F5F5F5F5F5F5F5F5F5F5F5F5F5F5F5F5F5F5F5F5F5F5F5F5F5F5F5F5F5F5F5F5F5F5F5F5F5
310
F5F5F5F5F5F5F5F5F5F5F5F5F5F5F5F5F5F5F5F5F5F5F5F5F5F5F5F5F5F5F5F5F5F5F5F5F5F5F5F5F5F5F5F5F5F5F5F5F5F5F5F5F5F5F5F5F5F5F5F5F5F5F5F5F5F5F5F5F5F5F5F5F5F5F5F5F5F5F5F5F5F5F5F5F5F5F5F5F5F5F5F5F5F5F5F5F5F5F5F5F5F5F5F5F5F5F5E2F5F5F5F5F5F5F5F5F5F5F5E2E2F5F5F5F5F5F5
310
F5F5F5F5F5E2F5F5F5F5F5F5F5F5F5F5F5F5F5F5F5F5F5F5F5F5F5F5F5F5F5F5F5F5F5F5F5F5F5F5F5F5F5F5F5F5F5F5F5F5F5F5F5F5F5F5F5F5F5F5F5F5F5F5F5F5F5F5F5F5F5F5F5F5F5F5F5F5F5F5F5F5F5F5F5F5F5F5F5F5F5F5F5F5F5F5F5F5F5F5F5F5F5F5F5F5F5F5F5F5F5F5F5F5F5F5F5F5F5F5F5F5F5F5F5F5F5
310
F5F5F5F5F5F5F5F5F5F5F5F5F5F5F5F5F5F5F5F5F5F5F5F5F5F5F5F5F5F5F5F5F5E2F5F5F5F5F5F5F5F5F5F5F5E2E2F5F5F5F5F5F5F5F5F5F5F5E2F5F5F5F5F5F5F5F5F5F5F5F5F5F5F5F5F5F5F5F5F5F5F5F5F5F5F5F5F5F5F5F5F5F5F5F5F5F5F5F5F5F5F5F5F5F5F5F5F5F5F5F5F5F5F5F5F5F5F5F5F5F5F5F5F5F5F5F5
310
F5F5F5F5F5F5F5F5F5F5F5F5F5F5F5F5F5F5F5F5F5F5F5F5F5F5F5F5F5F5F5F5F5F5F5F5F5F5F5F5F5F5F5F5F5F5F5F5F5F5F5F5F5F5F5F5F5F5F5F5F5F5F5F5F5F5F5F5F5F5F5F5F5F5F5F5F5F5F5F5F5F5F5F5F5F5E2F5F5F5F5F5F5F5F5F5F5F5E2E2F5F5F5F5F5F5F5F5F5F5F5E2F5F5F5F5F5F5F5F5F5F5F5F5F5F5F5
310
F5F5F5F5F5F5F5F5F5F5F5F5F5F5F5F5F5F5F5F5F5F5F5F5F5F5F5F5F5F5F5F5F5F5F5F5F5F5F5F5F5F5F5F5F5F5F5F5F5F5F5F5F5F5F5F5F5F5F5F5F5F5F5F5F5F5F5F5F5F5F5F5F5F5F5F5F5F5F5F5F5F5F5F5F5F5F5F5F5F5F5F5F5F5F5F5F5F5F5F5F5F5F5F5F5F5F5F5F5F5F5F5F5F5F5F5F5F5F5F5F5F5F5F5F5F5F5
310
F5F5F5F5F5F5F5F5F5F5F5F5E2F5F5F5F5F5F5F5F5F5F5F5E2E2F5F5F5F5F5F5F5F5F5F5F5E2F5F5F5F5F5F5F5F5F5F5F5F5F5F5F5F5F5F5F5F5F5F5F5F5F5F5F5F5F5F5F5F5F5F5F5F5F5F5F5F5F5F5F5F5F5F5F5F5F5F5F5F5F5F5F5F5F5F5F5F5F5F5F5F5F5F5F5F5F5F5F5F5F5F5F5F5F5F5F5F5F5F5F5F5F5F5F5F5F5
310
F5F5F5F5F5F5F5F5F5F5F5F5F5F5F5F5F5F5F5F5F5F5F5F5F5F5F5F5F5F5F5F5F5F5F5F5F5F5F5F5F5F5F5F5F5F5F5F5F5F5F5F5F5F5F5F5F5F5F5F5F5F5F5F5F5E2F5F5F5F5F5F5F5F5F5F5F5E2E2F5F5F5F5F5F5F5F5F5F5F5F5F5F5F5F5F5F5F5F5F5F5F5F5F5F5F5F5F5F5F5F5F5F5F5F5F5F5F5F5F5F5F5F5F5F5F5F5
310
F5F5F5F5F5F5F5F5F5F5F5F5F5F5F5F5F5F5F5F5F5F5F5F5F5F5F5F5F5F5F5F5F5F5F5F5F5F5F5F5F5F5F5F5F5F5F5F5F5F5F5F5F5F5F5F5F5F5F5F5F5F5F5F5F5F5F5F5F5F5F5F5F5F5F5F5F5F5F5F5F5F5F5F5F5F5F5F5F5F5F5F5F5F5F5F5F5F5F5F5F5F5F5F5F5F5F5F5F5F5F5F5F5F5F5F5F5F5F5F5F5F5F5F5F5F5F5
310
F5F5F5E2E2F5F5F5F5F5F5F5F5F5F5F5F5F5F5F5F5F5F5F5F5F5F5F5F5F5F5F5F5F5F5F5F5F5F5F5F5F5F5F5F5F5F5F5F5F5F5F5F5F5F5F5F5F5F5F5F5F5F5F5F5F5F5F5F5F5F5F5F5F5F5F5F5F5F5F5F5F5F5F5F5F5F5F5F5F5F5F5F5F5F5F5F5F5F5F5F5F5F5F5F5F5F5F5F5F5F5F5F5F5F5F5F5F5F5F5F5F5F5F5F5F5F5
310
F5F5F5F5F5F5F5F5F5F5F5F5F5F5F5F5F5F5F5F5F5F5F5F5F5F5F5F5F5F5F5F5F5F5F5F5F5F5F5F5F5F5F5F5F5F5F5F5F5F5F5F5F5F5F5F5E2E2F5F5F5F5F5F5F5F5F5F5F5F5F5F5F5F5F5F5F5F5F5F5F5F5F5F5F5F5F5F5F5F5F5F5F5F5F5F5F5F5F5F5F5F5F5F5F5F5F5F5F5F5F5F5F5F5F5F5F5F5F5F5F5F5F5F5F5F5F5
310
F5F5F5F5F5F5F5F5F5F5F5F5F5F5F5F5F5F5F5F5F5F5F5F5F5F5F5F5F5F5F5F5F5F5F5F5F5F5F5F5F5F5F5F5F5F5F5F5F5F5F5F5F5F5F5F5F5F5F5F5F5F5F5F5F5F5F5F5F5F5F5F5F5F5F5F5F5F5F5F5F5F5F5F5F5F5F5F5F5F5F5F5F5F5F5F5F5F5F5F5F5F5F5F5F5F5F5F5F5E2E2F5F5F5F5F5F5F5F5F5F5F5F5F5F5F5F5
310
F5F5F5F5F5F5F5F5F5F5F5F5F5F5F5F5F5F5F5F5F5F5F5F5F5F5F5F5F5F5F5F5F5F5F5F5F5F5F5F5F5F5F5F5F5F5F5F5F5F5F5F5F5F5F5F5F5F5F5F5F5F5F5F5F5F5F5F5F5F5F5F5F5F5F5F5F5F5F5F5F5F5F5F5F5F5F5F5F5F5F5F5F5F5F5F5F5F5F5F5F5F5F5F5F5F5F5F5F5F5F5F5F5F5F5F5F5F5F5F5F5F5F5F5F5F5F5
310
F5F5F5F5F5F5F5F5F5F5F5F5F5F5F5F5F5F5F5F5F5F5F5F5F5F5F5F5F5F5F5F5F5F5F5E2E2F5F5F5F5F5F5F5F5F5F5F5F5F5F5F5F5F5F5F5F5F5F5F5F5F5F5F5F5F5F5F5F5F5F5F5F5F5F5F5F5F5F5F5F5F5F5F5F5F5F5F5F5F5F5F5F5F5F5F5F5F5F5F5F5F5F5F5F5F5F5F5F5F5F5F5F5F5F5F5F5F5F5F5F5F5F5F5F5F5F5
310
F5F5F5F5F5F5F5F5F5F5F5F5F5F5F5F5F5F5F5F5F5F5F5F5F5F5F5F5F5F5F5F5F5F5F5F5F5F5F5F5F5F5F5F5F5F5F5F5F5F5F5F5F5F5F5F5F5F5F5F5F5F5F5F5F5F5F5F5F5F5F5F5F5F5F5F5F5F5F5F5F5F5F5F5F5F5F5F5E2E2F5F5F5F5F5F5F5F5F5F5F5F5F5F5F5F5F5F5F5F5F5F5F5F5F5F5F5F5F5F5F5F5F5F5F5F5F5
310
F5F5F5F5F5F5F5F5F5F5F5F5F5F5F5F5F5F5F5F5F5F5F5F5F5F5F5F5F5F5F5F5F5F5F5F5F5F5F5F5F5F5F5F5F5F5F5F5F5F5F5F5F5F5F5F5F5F5F5F5F5F5F5F5F5F5F5F5F5F5F5F5F5F5F5F5F5F5F5F5F5F5F5F5F5F5F5F5F5F5F5F5F5F5F5F5F5F5F5F5F5F5F5F5F5F5F5F5F5F5F5F5F5F5F5F5F5F5F5F5F5F5F5F5F5F5F5
310
F5F5F5F5F5F5F5F5F5F5F5F5F5F5E2E2F5F5F5F5F5F5F5F5F5F5F5F5F5F5F5F5F5F5F5F5F5F5F5F5F5F5F5F5F5F5F5F5F5F5F5F5F5F5F5F5F5F5F5F5F5F5F5F5F5F5F5F5F5F5F5F5F5F5F5F5F5F5F5F5F5F5F5F5F5F5F5F5F5F5F5F5F5F5F5F5F5F5F5F5F5F5F5F5F5F5F5F5F5F5F5F5F5F5F5F5F5F5F5F5F5F5F5F5F5F5F5
310
F5F5F5F5F5F5F5F5F5F5F5F5F5F5F5F5F5F5F5F5F5F5F5F5F5F5F5F5F5F5F5F5F5F5F5F5F5F5F5F5F5F5F5F5F5F5F5F5F5F5F5F5F5F5F5F5F5F5F5F5F5F5F5F5F5F5F5E2E2F5F5F5F5F5F5F5F5F5F5F5F5F5F5F5F5F5F5F5F5F5F5F5F5F5F5F5F5F5F5F5F5F5F5F5F5F5F5F5F5F5F5F5F5F5F5F5F5F5F5F5F5F5F5F5F5F5F5
310
F5F5F5F5F5F5F5F5F5F5F5F5F5F5F5F5F5F5F5F5F5F5F5F5F5F5F5F5F5F5F5F5F5F5F5F5F5F5F5F5F5F5F5F5F5F5F5F5F5F5F5F5F5F5F5F5F5F5F5F5F5F5F5F5F5F5F5F5F5F5F5F5F5F5F5F5F5F5F5F5F5F5F5F5F5F5F5F5F5F5F5F5F5F5F5F5F5F5F5F5F5F5F5F5F5F5F5F5F5F5F5F5F5F5F5F5F5F5F5F5E2E2F5F5F5F5F5
310
F5F5F5F5F5F5E2F5F5F5F5F5F5F5F5F5F5F5F5F5F5F5F5F5F5F5F5F5F5F5F5F5F5F5F5F5F5F5F5F5F5F5F5F5F5F5F5F5F5F5F5F5F5F5F5F5F5F5F5F5F5F5F5F5F5F5F5F5F5F5F5F5F5F5F5F5F5F5F5F5F5F5F5F5F5F5F5F5F5F5F5F5F5F5F5F5F5F5F5F5F5F5F5F5F5F5F5F5F5F5F5F5F5F5F5F5F5F5F5F5F5F5F5F5F5F5F5
310
F5F5F5F5F5F5F5F5F5F5F5F5F5F5F5F5F5F5F5F5F5F5F5F5F5F5F5F5F5F5F5F5F5F5E2F5F5F5F5F5F5F5F5F5F5F5E2E2F5F5F5F5F5F5F5F5F5F5F5E2F5F5F5F5F5F5F5F5F5F5F5F5F5F5F5F5F5F5F5F5F5F5F5F5F5F5F5F5F5F5F5F5F5F5F5F5F5F5F5F5F5F5F5F5F5F5F5F5F5F5F5F5F5F5F5F5F5F5F5F5F5F5F5F5F5F5F5
310
F5F5F5F5F5F5F5F5F5F5F5F5F5F5F5F5F5F5F5F5F5F5F5F5F5F5F5F5F5F5F5F5F5F5F5F5F5F5F5F5F5F5F5F5F5F5F5F5F5F5F5F5F5F5F5F5F5F5F5F5F5F5F5F5F5F5F5F5F5F5F5F5F5F5F5F5F5F5F5F5F5F5F5F5F5F5F5E2F5F5F5F5F5F5F5F5F5F5F5E2E2F5F5F5F5F5F5F5F5F5F5F5E2F5F5F5F5F5F5F5F5F5F5F5F5F5F5
310
F5F5F5F5F5F5F5F5F5F5F5F5F5F5F5F5F5F5F5F5F5F5F5F5F5F5F5F5F5F5F5F5F5F5F5F5F5F5F5F5F5F5F5F5F5F5F5F5F5F5F5F5F5F5F5F5F5F5F5F5F5F5F5F5F5F5F5F5F5F5F5F5F5F5F5F5F5F5F5F5F5F5F5F5F5F5F5F5F5F5F5F5F5F5F5F5F5F5F5F5F5F5F5F5F5F5F5F5F5F5F5F5F5F5F5F5F5F5F5F5F5F5F5F5F5F5F5
310
F5F5F5F5F5F5F5F5F5F5F5F5F5E2F5F5F5F5F5F5F5F5F5F5F5E2E2F5F5F5F5F5F5F5F5F5F5F5E2F5F5F5F5F5F5F5F5F5F5F5F5F5F5F5F5F5F5F5F5F5F5F5F5F5F5F5F5F5F5F5F5F5F5F5F5F5F5F5F5F5F5F5F5F5F5F5F5F5F5F5F5F5F5F5F5F5F5F5F5F5F5F5F5F5F5F5F5F5F5F5F5F5F5F5F5F5F5F5F5F5F5F5F5F5F5F5F5
310
F5F5F5F5F5F5F5F5F5F5F5F5F5F5F5F5F5F5F5F5F5F5F5F5F5F5F5F5F5F5F5F5F5F5F5F5F5F5F5F5F5F5F5F5F5F5F5F5F5F5F5F5F5F5F5F5F5F5F5F5F5F5F5F5F5F5E2F5F5F5F5F5F5F5F5F5F5F5E2E2F5F5F5F5F5F5F5F5F5F5F5E2F5F5F5F5F5F5F5F5F5F5F5F5F5F5F5F5F5F5F5F5F5F5F5F5F5F5F5F5F5F5F5F5F5F5F5
310
F5F5F5F5F5F5F5F5F5F5F5F5F5F5F5F5F5F5F5F5F5F5F5F5F5F5F5F5F5F5F5F5F5F5F5F5F5F5F5F5F5F5F5F5F5F5F5F5F5F5F5F5F5F5F5F5F5F5F5F5F5F5F5F5F5F5F5F5F5F5F5F5F5F5F5F5F5F5F5F5F5F5F5F5F5F5F5F5F5F5F5F5F5F5F5F5F5F5F5F5F5F5F5F5F5F5F5F5F5F5F5F5F5F5F5F5F5F5F5E2F5F5F5F5F5F5F5
310
F5F5F5F5E2E2F5F5F5F5F5F5F5F5F5F5F5E2F5F5F5F5F5F5F5F5F5F5F5F5F5F5F5F5F5F5F5F5F5F5F5F5F5F5F5F5F5F5F5F5F5F5F5F5F5F5F5F5F5F5F5F5F5F5F5F5F5F5F5F5F5F5F5F5F5F5F5F5F5F5F5F5F5F5F5F5F5F5F5F5F5F5F5F5F5F5F5F5F5F5F5F5F5F5F5F5F5F5F5F5F5F5F5F5F5F5F5F5F5F5F5F5F5F5F5F5F5
310
F5F5F5F5F5F5F5F5F5F5F5F5F5F5F5F5F5F5F5F5F5F5F5F5F5F5F5F5F5F5F5F5F5F5F5F5F5F5F5F5F5F5F5F5F5E2F5F5F5F5F5F5F5F5F5F5F5E2E2F5F5F5F5F5F5F5F5F5F5F5E2F5F5F5F5F5F5F5F5F5F5F5F5F5F5F5F5F5F5F5F5F5F5F5F5F5F5F5F5F5F5F5F5F5F5F5F5F5F5F5F5F5F5F5F5F5F5F5F5F5F5F5F5F5F5F5F5
310
F5F5F5F5F5F5F5F5F5F5F5F5F5F5F5F5F5F5F5F5F5F5F5F5F5F5F5F5F5F5F5F5F5F5F5F5F5F5F5F5F5F5F5F5F5F5F5F5F5F5F5F5F5F5F5F5F5F5F5F5F5F5F5F5F5F5F5F5F5F5F5F5F5F5F5F5F5F5F5F5F5F5F5F5F5F5F5F5F5F5F5F5F5F5F5F5F5F5E2F5F5F5F5F5F5F5F5F5F5F5E2E2F5F5F5F5F5F5F5F5F5F5F5E2E2E2E2
310
E2E2E2E2E2F5F5F5F5F5F5F5F5F5E2E2E2E2E2E2E2E2E2E2E2E2E2E2E2E2E2F5F5F5F5F5F5F5F5F5E2E2E2E2E2E2E2E2E2E2E2E2E2E2E2E2F5F5F5F5F5F5F5F5F5F5E2E2E2E2E2E2E2E2E2E2E2E2E2E2E2E2F5F5F5F5F5F5F5F5F5F5E2E2E2E2E2E2E2E2E2E2E2E2E2E2E2E2F5F5F5F5F5F5F5F5F5E2E2E2E2E2E2E2E2E2E2
310
E2E2E2E2E2E2E2F5F5F5F5F5F5F5F5F5E2E2E2E2E2E2E2E2E2F5F5F5F5F5F5F5F5F5F5F5E2E2F5F5F5F5F5F5F5F5F5F5F5F5F5F5F5F5F5F5F5F5F5F5F5F5F5F5F5F5F5F5F5F5F5F5F5F5F5F5F5F5F5F5F5F5F5F5F5F5F5F5F5F5F5F5F5F5F5F5F5F5F5F5F5F5F5F5F5F5F5F5F5F5F5F5F5F5F5F5F5F5F5F5F5F5F5F5F5F5F5
310
F5F5F5F5F5F5F5F5F5F5F5F5F5F5F5F5F5F5F5F5F5F5F5F5F5F5F5F5F5F5F5F5F5F5F5F5F5F5F5F5F5F5F5F5F5F5F5F5F5F5F5F5F5F5F5F5F5F5F5F5F5F5F5F5F5F5F5F5F5F5F5F5F5F5F5F5F5F5F5F5F5F5F5F5F5F5F5F5F5E2E2F5F5F5F5F5F5F5F5F5F5F5F5F5F5F5F5F5F5F5F5F5F5F5F5F5F5F5F5F5F5F5F5F5F5F5F5
310
F5F5F5F5F5F5F5F5F5F5F5F5F5F5F5F5F5F5F5F5F5F5F5F5F5F5F5F5F5F5F5F5F5F5F5F5F5F5F5F5F5F5F5F5F5F5F5F5F5F5F5F5F5F5F5F5F5F5F5F5F5F5F5F5F5F5F5F5F5F5F5F5F5F5F5F5F5F5F5F5F5F5F5F5F5F5F5F5F5F5F5F5F5F5F5F5F5F5F5F5F5F5F5F5F5F5F5F5F5F5F5F5F5F5F5F5F5F5F5F5F5F5F5F5F5F5F5
310
F5F5F5F5F5F5F5F5F5F5F5F5F5F5F5E2E2F5F5F5F5F5F5F5F5F5F5F5F5F5F5F5F5F5F5F5F5F5F5F5F5F5F5F5F5F5F5F5F5F5F5F5F5F5F5F5F5F5F5F5F5F5F5F5F5F5F5F5F5F5F5F5F5F5F5F5F5F5F5F5F5F5F5F5F5F5F5F5F5F5F5F5F5F5F5F5F5F5F5F5F5F5F5F5F5F5F5F5F5F5F5F5F5F5F5F5F5F5F5F5F5F5F5F5F5F5F5
310
F5F5F5F5F5F5F5F5F5F5F5F5F5F5F5F5F5F5F5F5F5F5F5F5F5F5F5F5F5F5F5F5F5F5F5F5F5F5F5F5F5F5F5F5F5F5F5F5F5F5F5F5F5F5F5F5F5F5F5F5F5F5F5F5F5F5F5F5E2E2F5F5F5F5F5F5F5F5F5F5F5F5F5F5F5F5F5F5F5F5F5F5F5F5F5F5F5F5F5F5F5F5F5F5F5F5F5F5F5F5F5F5F5F5F5F5F5F5F5F5F5F5F5F5F5F5F5
310
F5F5F5F5F5F5F5F5F5F5F5F5F5F5F5F5F5F5F5F5F5F5F5F5F5F5F5F5F5F5F5F5F5F5F5F5F5F5F5F5F5F5F5F5F5F5F5F5F5F5F5F5F5F5F5F5F5F5F5F5F5F5F5F5F5F5F5F5F5F5F5F5F5F5F5F5F5F5F5F5F5F5F5F5F5F5F5F5F5F5F5F5F5F5F5F5F5F5F5F5F5F5F5F5F5F5F5F5F5F5F5F5F5F5F5F5F5F5F5F5F5E2E2E2E2E2E2
310
E2E2E2E2E2E2E2E2E2E2E2E2E2E2E2E2E2E2E2E2E2E2E2E2E2E2E2E2E2E2E2E2E2E2E2E2E2E2E2E2E2E2E2E2E2E2E2E2E2E2E2E2E2E2E2E2E2E2E2E2E2E2E2E2E2E2E2E2E2E2E2E2E2E2E2E2E2E2E2E2E2E2E2E2E2E2E2E2E2E2E2E2E2E2E2E2E2E2E2E2E2E2E2E2E2E2E2E2E2E2E2E2E2E2E2E2E2E2E2E2E2E2E2E2E2E2E2
310
E2E2E2E2E2E2E2E2E2E2E2E2E2E2E2E2E2E2E2E2E2E2E2E2E2E2E2E2E2E2E2E2E2E2E2E2E2E2E2E2E2E2E2E2E2E2E2E2
  0
ENDSEC
  0
EOF
