  0
SECTION
  2
HEADER
  9
$ACADVER
  1
AC1021
  9
$ACADMAINTVER
 70
     1
  9
$DWGCODEPAGE
  3
ANSI_932
  9
$LASTSAVEDBY
  1
damet
  9
$INSBASE
 10
0.0
 20
0.0
 30
0.0
  9
$EXTMIN
 10
-13200.62614566132
 20
1628.658486807453
 30
0.0
  9
$EXTMAX
 10
-8676.404139708365
 20
3068.421581229216
 30
0.0
  9
$LIMMIN
 10
0.0
 20
0.0
  9
$LIMMAX
 10
0.0
 20
0.0
  9
$ORTHOMODE
 70
     1
  9
$REGENMODE
 70
     1
  9
$FILLMODE
 70
     1
  9
$QTEXTMODE
 70
     0
  9
$MIRRTEXT
 70
     1
  9
$LTSCALE
 40
5.08
  9
$ATTMODE
 70
     1
  9
$TEXTSIZE
 40
0.2
  9
$TRACEWID
 40
1.0
  9
$TEXTSTYLE
  7
Standard
  9
$CLAYER
  8
寸法
  9
$CELTYPE
  6
ByLayer
  9
$CECOLOR
 62
   256
  9
$CELTSCALE
 40
1.0
  9
$DISPSILH
 70
     0
  9
$DIMSCALE
 40
1.0
  9
$DIMASZ
 40
1.5
  9
$DIMEXO
 40
3.0
  9
$DIMDLI
 40
10.16
  9
$DIMRND
 40
0.0
  9
$DIMDLE
 40
1.59
  9
$DIMEXE
 40
3.18
  9
$DIMTP
 40
0.0
  9
$DIMTM
 40
0.0
  9
$DIMTXT
 40
3.0
  9
$DIMCEN
 40
0.0
  9
$DIMTSZ
 40
0.0
  9
$DIMTOL
 70
     0
  9
$DIMLIM
 70
     0
  9
$DIMTIH
 70
     0
  9
$DIMTOH
 70
     0
  9
$DIMSE1
 70
     0
  9
$DIMSE2
 70
     0
  9
$DIMTAD
 70
     1
  9
$DIMZIN
 70
    11
  9
$DIMBLK
  1
DOT
  9
$DIMASO
 70
     1
  9
$DIMSHO
 70
     1
  9
$DIMPOST
  1
<>
  9
$DIMAPOST
  1
[]
  9
$DIMALT
 70
     0
  9
$DIMALTD
 70
     3
  9
$DIMALTF
 40
0.0393700787401575
  9
$DIMLFAC
 40
1.0
  9
$DIMTOFL
 70
     1
  9
$DIMTVP
 40
0.0
  9
$DIMTIX
 70
     1
  9
$DIMSOXD
 70
     0
  9
$DIMSAH
 70
     0
  9
$DIMBLK1
  1

  9
$DIMBLK2
  1

  9
$DIMSTYLE
  2
Yamatoya Detail
  9
$DIMCLRD
 70
     0
  9
$DIMCLRE
 70
     0
  9
$DIMCLRT
 70
     0
  9
$DIMTFAC
 40
1.0
  9
$DIMGAP
 40
1.0
  9
$DIMJUST
 70
     0
  9
$DIMSD1
 70
     0
  9
$DIMSD2
 70
     0
  9
$DIMTOLJ
 70
     1
  9
$DIMTZIN
 70
    11
  9
$DIMALTZ
 70
    15
  9
$DIMALTTZ
 70
    15
  9
$DIMUPT
 70
     0
  9
$DIMDEC
 70
     0
  9
$DIMTDEC
 70
     0
  9
$DIMALTU
 70
     4
  9
$DIMALTTD
 70
     3
  9
$DIMTXSTY
  7
ヒラギノ角ゴ Pro W3
  9
$DIMAUNIT
 70
     0
  9
$DIMADEC
 70
     2
  9
$DIMALTRND
 40
0.0
  9
$DIMAZIN
 70
     0
  9
$DIMDSEP
 70
    46
  9
$DIMATFIT
 70
     0
  9
$DIMFRAC
 70
     2
  9
$DIMLDRBLK
  1
DOT
  9
$DIMLUNIT
 70
     2
  9
$DIMLWD
 70
    -2
  9
$DIMLWE
 70
    -2
  9
$DIMTMOVE
 70
     0
  9
$DIMFXL
 40
1.0
  9
$DIMFXLON
 70
     0
  9
$DIMJOGANG
 40
0.7853981633974483
  9
$DIMTFILL
 70
     0
  9
$DIMTFILLCLR
 70
     0
  9
$DIMARCSYM
 70
     0
  9
$DIMLTYPE
  6

  9
$DIMLTEX1
  6

  9
$DIMLTEX2
  6

  9
$LUNITS
 70
     2
  9
$LUPREC
 70
     4
  9
$SKETCHINC
 40
0.1
  9
$FILLETRAD
 40
2.0
  9
$AUNITS
 70
     0
  9
$AUPREC
 70
     0
  9
$MENU
  1
acad
  9
$ELEVATION
 40
0.0
  9
$PELEVATION
 40
0.0
  9
$THICKNESS
 40
0.0
  9
$LIMCHECK
 70
     0
  9
$CHAMFERA
 40
1.0
  9
$CHAMFERB
 40
1.0
  9
$CHAMFERC
 40
0.0
  9
$CHAMFERD
 40
0.0
  9
$SKPOLY
 70
     0
  9
$TDCREATE
 40
2455276.758078704
  9
$TDUCREATE
 40
2455276.383078704
  9
$TDUPDATE
 40
2458611.699137141
  9
$TDUUPDATE
 40
2458611.324137141
  9
$TDINDWG
 40
3.0814058102
  9
$TDUSRTIMER
 40
3.0814053819
  9
$USRTIMER
 70
     1
  9
$ANGBASE
 50
0.0
  9
$ANGDIR
 70
     0
  9
$PDMODE
 70
     1
  9
$PDSIZE
 40
-2.0
  9
$PLINEWID
 40
0.0
  9
$SPLFRAME
 70
     0
  9
$SPLINETYPE
 70
     6
  9
$SPLINESEGS
 70
     8
  9
$HANDSEED
  5
23991
  9
$SURFTAB1
 70
     6
  9
$SURFTAB2
 70
     6
  9
$SURFTYPE
 70
     6
  9
$SURFU
 70
     6
  9
$SURFV
 70
     6
  9
$UCSBASE
  2

  9
$UCSNAME
  2

  9
$UCSORG
 10
0.0
 20
0.0
 30
0.0
  9
$UCSXDIR
 10
1.0
 20
0.0
 30
0.0
  9
$UCSYDIR
 10
0.0
 20
1.0
 30
0.0
  9
$UCSORTHOREF
  2

  9
$UCSORTHOVIEW
 70
     0
  9
$UCSORGTOP
 10
0.0
 20
0.0
 30
0.0
  9
$UCSORGBOTTOM
 10
0.0
 20
0.0
 30
0.0
  9
$UCSORGLEFT
 10
0.0
 20
0.0
 30
0.0
  9
$UCSORGRIGHT
 10
0.0
 20
0.0
 30
0.0
  9
$UCSORGFRONT
 10
0.0
 20
0.0
 30
0.0
  9
$UCSORGBACK
 10
0.0
 20
0.0
 30
0.0
  9
$PUCSBASE
  2

  9
$PUCSNAME
  2

  9
$PUCSORG
 10
0.0
 20
0.0
 30
0.0
  9
$PUCSXDIR
 10
1.0
 20
0.0
 30
0.0
  9
$PUCSYDIR
 10
0.0
 20
1.0
 30
0.0
  9
$PUCSORTHOREF
  2

  9
$PUCSORTHOVIEW
 70
     0
  9
$PUCSORGTOP
 10
0.0
 20
0.0
 30
0.0
  9
$PUCSORGBOTTOM
 10
0.0
 20
0.0
 30
0.0
  9
$PUCSORGLEFT
 10
0.0
 20
0.0
 30
0.0
  9
$PUCSORGRIGHT
 10
0.0
 20
0.0
 30
0.0
  9
$PUCSORGFRONT
 10
0.0
 20
0.0
 30
0.0
  9
$PUCSORGBACK
 10
0.0
 20
0.0
 30
0.0
  9
$USERI1
 70
     0
  9
$USERI2
 70
     0
  9
$USERI3
 70
     0
  9
$USERI4
 70
     0
  9
$USERI5
 70
     0
  9
$USERR1
 40
0.0
  9
$USERR2
 40
0.0
  9
$USERR3
 40
0.0
  9
$USERR4
 40
0.0
  9
$USERR5
 40
0.0
  9
$WORLDVIEW
 70
     1
  9
$SHADEDGE
 70
     3
  9
$SHADEDIF
 70
    70
  9
$TILEMODE
 70
     1
  9
$MAXACTVP
 70
    64
  9
$PINSBASE
 10
0.0
 20
0.0
 30
0.0
  9
$PLIMCHECK
 70
     0
  9
$PEXTMIN
 10
25.69999999999999
 20
19.5
 30
0.0
  9
$PEXTMAX
 10
231.3
 20
175.5
 30
0.0
  9
$PLIMMIN
 10
-20.0
 20
-7.5
  9
$PLIMMAX
 10
277.0
 20
202.5
  9
$UNITMODE
 70
     0
  9
$VISRETAIN
 70
     0
  9
$PLINEGEN
 70
     1
  9
$PSLTSCALE
 70
     1
  9
$TREEDEPTH
 70
  3020
  9
$CMLSTYLE
  2
Standard
  9
$CMLJUST
 70
     0
  9
$CMLSCALE
 40
1.0
  9
$PROXYGRAPHICS
 70
     0
  9
$MEASUREMENT
 70
     1
  9
$CELWEIGHT
370
     5
  9
$ENDCAPS
280
     0
  9
$JOINSTYLE
280
     0
  9
$LWDISPLAY
290
     1
  9
$INSUNITS
 70
     4
  9
$HYPERLINKBASE
  1

  9
$STYLESHEET
  1

  9
$XEDIT
290
     1
  9
$CEPSNTYPE
380
     0
  9
$PSTYLEMODE
290
     1
  9
$FINGERPRINTGUID
  2

  9
$VERSIONGUID
  2
{C64497FD-0F26-45F6-9508-75DCE0A93A4B}
  9
$EXTNAMES
290
     1
  9
$PSVPSCALE
 40
0.0
  9
$OLESTARTUP
290
     0
  9
$SORTENTS
280
   127
  9
$INDEXCTL
280
     0
  9
$HIDETEXT
280
     0
  9
$XCLIPFRAME
290
     0
  9
$HALOGAP
280
     0
  9
$OBSCOLOR
 70
   257
  9
$OBSLTYPE
280
     0
  9
$INTERSECTIONDISPLAY
280
     0
  9
$INTERSECTIONCOLOR
 70
   257
  9
$DIMASSOC
280
     1
  9
$PROJECTNAME
  1

  9
$CAMERADISPLAY
290
     0
  9
$LENSLENGTH
 40
50.0
  9
$CAMERAHEIGHT
 40
0.0
  9
$STEPSPERSEC
 40
2.0
  9
$STEPSIZE
 40
6.0
  9
$3DDWFPREC
 40
2.0
  9
$PSOLWIDTH
 40
0.25
  9
$PSOLHEIGHT
 40
4.0
  9
$LOFTANG1
 40
1.570796326794896
  9
$LOFTANG2
 40
1.570796326794896
  9
$LOFTMAG1
 40
0.0
  9
$LOFTMAG2
 40
0.0
  9
$LOFTPARAM
 70
     7
  9
$LOFTNORMALS
280
     1
  9
$LATITUDE
 40
37.795
  9
$LONGITUDE
 40
-122.394
  9
$NORTHDIRECTION
 40
0.0
  9
$TIMEZONE
 70
 -8000
  9
$LIGHTGLYPHDISPLAY
280
     1
  9
$TILEMODELIGHTSYNCH
280
     1
  9
$CMATERIAL
347
96E
  9
$SOLIDHIST
280
     1
  9
$SHOWHIST
280
     1
  9
$DWFFRAME
280
     2
  9
$DGNFRAME
280
     0
  9
$REALWORLDSCALE
290
     1
  9
$INTERFERECOLOR
 62
     1
  9
$INTERFEREOBJVS
345
97B
  9
$INTERFEREVPVS
346
978
  9
$CSHADOW
280
     0
  9
$SHADOWPLANELOCATION
 40
0.0
  0
ENDSEC
  0
SECTION
  2
CLASSES
  0
CLASS
  1
IMAGE
  2
AcDbRasterImage
  3
ISM
 90
     2175
 91
        0
280
     0
281
     1
  0
CLASS
  1
DICTIONARYVAR
  2
AcDbDictionaryVar
  3
ObjectDBX Classes
 90
        0
 91
        2
280
     0
281
     0
  0
CLASS
  1
RASTERVARIABLES
  2
AcDbRasterVariables
  3
ISM
 90
        0
 91
        0
280
     0
281
     0
  0
CLASS
  1
IMAGEDEF
  2
AcDbRasterImageDef
  3
ISM
 90
        0
 91
        0
280
     0
281
     0
  0
CLASS
  1
IMAGEDEF_REACTOR
  2
AcDbRasterImageDefReactor
  3
ISM
 90
        1
 91
        0
280
     0
281
     0
  0
CLASS
  1
IDBUFFER
  2
AcDbIdBuffer
  3
ObjectDBX Classes
 90
        0
 91
        0
280
     0
281
     0
  0
CLASS
  1
SPATIAL_FILTER
  2
AcDbSpatialFilter
  3
ObjectDBX Classes
 90
        0
 91
        0
280
     0
281
     0
  0
CLASS
  1
SORTENTSTABLE
  2
AcDbSortentsTable
  3
ObjectDBX Classes
 90
        0
 91
       10
280
     0
281
     0
  0
CLASS
  1
LAYER_INDEX
  2
AcDbLayerIndex
  3
ObjectDBX Classes
 90
        0
 91
        0
280
     0
281
     0
  0
CLASS
  1
SPATIAL_INDEX
  2
AcDbSpatialIndex
  3
ObjectDBX Classes
 90
        0
 91
        0
280
     0
281
     0
  0
CLASS
  1
OBJECT_PTR
  2
CAseDLPNTableRecord
  3
ASE-LPNTableRecord
 90
        1
 91
        0
280
     0
281
     0
  0
CLASS
  1
PLOTSETTINGS
  2
AcDbPlotSettings
  3
ObjectDBX Classes
 90
        0
 91
        0
280
     0
281
     0
  0
CLASS
  1
ACDBDICTIONARYWDFLT
  2
AcDbDictionaryWithDefault
  3
ObjectDBX Classes
 90
        0
 91
        1
280
     0
281
     0
  0
CLASS
  1
WIPEOUT
  2
AcDbWipeout
  3
"WipeOut|Product Desc: Object Enabler for WipeOut entity                        |Company: Autodesk, Inc.                        |WEB Address: www.autodesk.com"
 90
     2175
 91
        0
280
     0
281
     1
  0
CLASS
  1
WIPEOUTVARIABLES
  2
AcDbWipeoutVariables
  3
"WipeOut|Product Desc:     WipeOut Dbx Application|Company:          Autodesk, Inc.|WEB Address:      www.autodesk.com"
 90
        0
 91
        1
280
     0
281
     0
  0
CLASS
  1
RTEXT
  2
RText
  3
RText|AutoCAD Express Tool|expresstools@autodesk.com
 90
        0
 91
        0
280
     0
281
     1
  0
CLASS
  1
ARCALIGNEDTEXT
  2
AcDbArcAlignedText
  3
ATEXT|AutoCAD Express Tool|expresstools@autodesk.com
 90
        0
 91
        0
280
     0
281
     1
  0
CLASS
  1
MATERIAL
  2
AcDbMaterial
  3
ObjectDBX Classes
 90
     1024
 91
        3
280
     0
281
     0
  0
CLASS
  1
VISUALSTYLE
  2
AcDbVisualStyle
  3
ObjectDBX Classes
 90
     4095
 91
       16
280
     0
281
     0
  0
CLASS
  1
TABLESTYLE
  2
AcDbTableStyle
  3
ObjectDBX Classes
 90
     4095
 91
        1
280
     0
281
     0
  0
CLASS
  1
LARGE_RADIAL_DIMENSION
  2
AcDbRadialDimensionLarge
  3
ObjectDBX Classes
 90
     1025
 91
        0
280
     0
281
     1
  0
CLASS
  1
ACAD_EVALUATION_GRAPH
  2
AcDbEvalGraph
  3
ObjectDBX Classes
 90
     1153
 91
        0
280
     0
281
     0
  0
CLASS
  1
ACAECUSTOBJ
  2
AcAeEditorObj
  3
AcAeEditorObj
 90
     1024
 91
        0
280
     0
281
     0
  0
CLASS
  1
ACDB_DYNAMICBLOCKPURGEPREVENTER_VERSION
  2
AcDbDynamicBlockPurgePreventer
  3
ObjectDBX Classes
 90
     1153
 91
        0
280
     0
281
     0
  0
ENDSEC
  0
SECTION
  2
TABLES
  0
TABLE
  2
VPORT
  5
7
102
{ACAD_XDICTIONARY
360
3A0F
102
}
330
0
100
AcDbSymbolTable
 70
     1
  0
VPORT
  5
15
330
7
100
AcDbSymbolTableRecord
100
AcDbViewportTableRecord
  2
*ACTIVE
 70
     0
 10
0.0
 20
0.0
 11
1.0
 21
1.0
 12
-11835.24339911605
 22
2155.042815807811
 13
0.0
 23
0.0
 14
1.0
 24
1.0
 15
0.0
 25
0.0
 16
0.0
 26
0.0
 36
1.0
 17
0.0
 27
0.0
 37
0.0
 40
3001.07699553728
 41
1.95631067961165
 42
50.0
 43
0.0
 44
0.0
 50
0.0
 51
0.0
 71
     0
 72
  2000
 73
     1
 74
     1
 75
     0
 76
     0
 77
     0
 78
     1
281
     0
 65
     0
110
0.0
120
0.0
130
0.0
111
1.0
121
0.0
131
0.0
112
0.0
122
1.0
132
0.0
 79
     0
146
0.0
348
977
 60
     3
 61
     5
292
     1
282
     1
141
0.0
142
0.0
 63
   250
421
  3355443
  0
ENDTAB
  0
TABLE
  2
LTYPE
  5
4
330
0
100
AcDbSymbolTable
 70
     4
  0
LTYPE
  5
11
330
4
100
AcDbSymbolTableRecord
100
AcDbLinetypeTableRecord
  2
ByBlock
 70
     0
  3

 72
    65
 73
     0
 40
0.0
  0
LTYPE
  5
12
330
4
100
AcDbSymbolTableRecord
100
AcDbLinetypeTableRecord
  2
ByLayer
 70
     0
  3

 72
    65
 73
     0
 40
0.0
  0
LTYPE
  5
13
330
4
100
AcDbSymbolTableRecord
100
AcDbLinetypeTableRecord
  2
Continuous
 70
     0
  3
Solid line
 72
    65
 73
     0
 40
0.0
  0
LTYPE
  5
89
330
4
100
AcDbSymbolTableRecord
100
AcDbLinetypeTableRecord
  2
STYLE_08
 70
     0
  3

 72
    65
 73
     6
 40
1.25
 49
0.625
 74
     0
 49
-0.20828
 74
     0
 49
0.0694300000000001
 74
     0
 49
-0.13893
 74
     0
 49
0.0694299999999999
 74
     0
 49
-0.13893
 74
     0
  0
LTYPE
  5
23680
330
4
100
AcDbSymbolTableRecord
100
AcDbLinetypeTableRecord
  2
STYLE_05
 70
     0
  3

 72
    65
 73
     2
 40
0.20828
 49
0.069425
 74
     0
 49
-0.138855
 74
     0
  0
LTYPE
  5
23681
330
4
100
AcDbSymbolTableRecord
100
AcDbLinetypeTableRecord
  2
Center
 70
     0
  3

 72
    65
 73
     4
 40
1.04164
 49
0.625
 74
     0
 49
-0.20828
 74
     0
 49
0.0694300000000001
 74
     0
 49
-0.13893
 74
     0
  0
ENDTAB
  0
TABLE
  2
LAYER
  5
2
102
{ACAD_XDICTIONARY
360
C1E
102
}
330
0
100
AcDbSymbolTable
 70
    14
  0
LAYER
  5
14
330
2
100
AcDbSymbolTableRecord
100
AcDbLayerTableRecord
  2
0
 70
     0
 62
     7
  6
Continuous
370
    -3
390
1D
347
970
  0
LAYER
  5
8C
330
2
100
AcDbSymbolTableRecord
100
AcDbLayerTableRecord
  2
脚
 70
     0
 62
   174
  6
Continuous
370
    25
390
1D
347
970
  0
LAYER
  5
8D
330
2
100
AcDbSymbolTableRecord
100
AcDbLayerTableRecord
  2
寸法
 70
     0
 62
     7
  6
Continuous
370
     5
390
1D
347
970
  0
LAYER
  5
8E
330
2
100
AcDbSymbolTableRecord
100
AcDbLayerTableRecord
  2
Defpoints
 70
     0
 62
    31
  6
Continuous
290
     0
370
    -3
390
1D
347
970
  0
LAYER
  5
14CDE
330
2
100
AcDbSymbolTableRecord
100
AcDbLayerTableRecord
  2
貫
 70
     0
 62
    14
  6
Continuous
370
    25
390
1D
347
970
1001
AcAecLayerStandard
1000

1000

  0
LAYER
  5
14CE1
330
2
100
AcDbSymbolTableRecord
100
AcDbLayerTableRecord
  2
天板
 70
     0
 62
   114
  6
Continuous
370
    25
390
1D
347
970
1001
AcAecLayerStandard
1000

1000

  0
LAYER
  5
14CE7
330
2
100
AcDbSymbolTableRecord
100
AcDbLayerTableRecord
  2
ボルト
 70
     0
 62
   152
  6
Continuous
370
    25
390
1D
347
970
1001
AcAecLayerStandard
1000

1000

  0
LAYER
  5
14CED
330
2
100
AcDbSymbolTableRecord
100
AcDbLayerTableRecord
  2
木ネジ、ダボ
 70
     0
 62
    44
  6
Continuous
370
    25
390
1D
347
970
1001
AcAecLayerStandard
1000

1000

  0
LAYER
  5
1FA61
330
2
100
AcDbSymbolTableRecord
100
AcDbLayerTableRecord
  2
レイヤー1
 70
     0
 62
     7
  6
Continuous
370
    -3
390
1D
347
970
  0
LAYER
  5
2058F
330
2
100
AcDbSymbolTableRecord
100
AcDbLayerTableRecord
  2
bolt
 70
     0
 62
   152
  6
Continuous
370
    25
390
1D
347
970
1001
AcAecLayerStandard
1000

1000

  0
LAYER
  5
23275
330
2
100
AcDbSymbolTableRecord
100
AcDbLayerTableRecord
  2
木ネジ・ダボ
 70
     0
 62
    44
  6
Continuous
370
    25
390
1D
347
970
1001
AcAecLayerStandard
1000

1000

  0
LAYER
  5
23682
330
2
100
AcDbSymbolTableRecord
100
AcDbLayerTableRecord
  2
ナット
 70
     0
 62
   224
  6
Continuous
370
    25
390
1D
347
970
1001
AcAecLayerStandard
1000

1000

  0
LAYER
  5
23683
330
2
100
AcDbSymbolTableRecord
100
AcDbLayerTableRecord
  2
一般
 70
     0
 62
     7
  6
Continuous
370
     5
390
1D
347
970
  0
LAYER
  5
23684
330
2
100
AcDbSymbolTableRecord
100
AcDbLayerTableRecord
  2
screw dowel
 70
     0
 62
    44
  6
Continuous
370
    25
390
1D
347
970
1001
AcAecLayerStandard
1000

1000

  0
ENDTAB
  0
TABLE
  2
STYLE
  5
3
330
0
100
AcDbSymbolTable
 70
     2
  0
STYLE
  5
17
330
3
100
AcDbSymbolTableRecord
100
AcDbTextStyleTableRecord
  2
Standard
 70
     0
 40
0.0
 41
1.0
 50
0.0
 71
     0
 42
0.2
  3

  4

1001
ACAD
1000
MS Gothic
1071
    32817
  0
STYLE
  5
81
330
3
100
AcDbSymbolTableRecord
100
AcDbTextStyleTableRecord
  2
ヒラギノ角ゴ Pro W3
 70
     0
 40
0.0
 41
1.0
 50
0.0
 71
     0
 42
0.0
  3

  4

1001
ACAD
1000
MS Gothic
1071
    32817
  0
ENDTAB
  0
TABLE
  2
VIEW
  5
5
330
0
100
AcDbSymbolTable
 70
     0
  0
ENDTAB
  0
TABLE
  2
UCS
  5
6
330
0
100
AcDbSymbolTable
 70
     0
  0
ENDTAB
  0
TABLE
  2
APPID
  5
8
330
0
100
AcDbSymbolTable
 70
    12
  0
APPID
  5
16
330
8
100
AcDbSymbolTableRecord
100
AcDbRegAppTableRecord
  2
ACAD
 70
     0
  0
APPID
  5
98C
330
8
100
AcDbSymbolTableRecord
100
AcDbRegAppTableRecord
  2
DCO15
 70
     0
  0
APPID
  5
991
330
8
100
AcDbSymbolTableRecord
100
AcDbRegAppTableRecord
  2
ACAD_EXEMPT_FROM_CAD_STANDARDS
 70
     0
  0
APPID
  5
C1D
330
8
100
AcDbSymbolTableRecord
100
AcDbRegAppTableRecord
  2
ACAD_PSEXT
 70
     0
  0
APPID
  5
93A3
330
8
100
AcDbSymbolTableRecord
100
AcDbRegAppTableRecord
  2
ACAD_DSTYLE_DIMJOGGED_JOGANGLE_SYMBOL
 70
     0
  0
APPID
  5
93A4
330
8
100
AcDbSymbolTableRecord
100
AcDbRegAppTableRecord
  2
AcAecLayerStandard
 70
     0
  0
APPID
  5
D99E
330
8
100
AcDbSymbolTableRecord
100
AcDbRegAppTableRecord
  2
ACAD_DSTYLE_DIMEXT_ENABLED
 70
     0
  0
APPID
  5
D99F
330
8
100
AcDbSymbolTableRecord
100
AcDbRegAppTableRecord
  2
ACAD_DSTYLE_DIMEXT_LENGTH
 70
     0
  0
APPID
  5
1102C
330
8
100
AcDbSymbolTableRecord
100
AcDbRegAppTableRecord
  2
AcDbDynamicBlockGUID
 70
     0
  0
APPID
  5
1102D
330
8
100
AcDbSymbolTableRecord
100
AcDbRegAppTableRecord
  2
AcDbBlockRepETag
 70
     0
  0
APPID
  5
21A5F
330
8
100
AcDbSymbolTableRecord
100
AcDbRegAppTableRecord
  2
ACAUTHENVIRON
 70
     0
  0
APPID
  5
21A62
330
8
100
AcDbSymbolTableRecord
100
AcDbRegAppTableRecord
  2
AcDbDynamicBlockTrueName
 70
     0
  0
ENDTAB
  0
TABLE
  2
DIMSTYLE
  5
9
330
0
100
AcDbSymbolTable
 70
     3
100
AcDbDimStyleTable
 71
     1
340
97
  0
DIMSTYLE
105
97
330
9
100
AcDbSymbolTableRecord
100
AcDbDimStyleTableRecord
  2
Yamatoya Detail
 70
     0
  3
<>
  4
[]
 41
1.5
 42
3.0
 43
10.16
 44
3.18
 46
1.59
 73
     0
 74
     0
 77
     1
 78
    11
140
3.0
141
0.0
143
0.0393700787401575
147
1.0
171
     3
172
     1
174
     1
179
     2
271
     0
272
     0
273
     4
274
     3
276
     2
284
    11
285
    15
286
    15
289
     0
340
81
341
8F
342
8F
  0
DIMSTYLE
105
10565
330
9
100
AcDbSymbolTableRecord
100
AcDbDimStyleTableRecord
  2
Standard
 70
     0
340
17
  0
DIMSTYLE
105
23685
102
{ACAD_REACTORS
330
23738
330
23750
330
23751
330
23752
330
23753
330
23727
330
23728
330
23758
102
}
330
9
100
AcDbSymbolTableRecord
100
AcDbDimStyleTableRecord
  2
Yamatoya
 70
     0
  3
<>
  4
[]
 41
1.500683593749999
 42
8.0
 43
10.16
 44
3.18
 46
1.59
 73
     0
 74
     0
 77
     1
 78
    11
140
24.0
141
0.0
143
0.0393700787401575
147
1.587499999999999
171
     3
172
     1
174
     1
179
     2
271
     0
272
     0
273
     4
274
     3
276
     2
284
    11
285
    15
286
    15
289
     0
340
81
341
8F
342
8F
  0
ENDTAB
  0
TABLE
  2
BLOCK_RECORD
  5
1
330
0
100
AcDbSymbolTable
 70
    27
  0
BLOCK_RECORD
  5
A
102
{ACAD_XDICTIONARY
360
9CE
102
}
330
1
100
AcDbSymbolTableRecord
100
AcDbBlockTableRecord
  2
*MODEL_SPACE
340
20
 70
     0
280
     1
281
     0
  0
BLOCK_RECORD
  5
23352
330
1
100
AcDbSymbolTableRecord
100
AcDbBlockTableRecord
  2
*Paper_Space
340
23353
 70
     0
280
     1
281
     0
  0
BLOCK_RECORD
  5
8F
330
1
100
AcDbSymbolTableRecord
100
AcDbBlockTableRecord
  2
_DOT
340
0
102
{BLKREFS
331
233AE
331
233AF
331
235FC
331
235FD
331
23608
331
23609
331
2362E
331
2362F
331
2363A
331
2363B
331
23646
331
23647
331
23652
331
23653
331
2365E
331
2365F
331
23679
331
2367A
331
2394C
331
2394D
331
23955
331
23956
331
2395E
331
2395F
331
23967
331
23968
331
23970
331
23971
331
23979
331
2397A
331
23982
331
23983
331
2398B
331
2398C
102
}
 70
     0
280
     1
281
     0
  0
BLOCK_RECORD
  5
20FB6
102
{ACAD_XDICTIONARY
360
20FBF
102
}
330
1
100
AcDbSymbolTableRecord
100
AcDbBlockTableRecord
  2
A$C153C7E87
340
0
102
{BLKREFS
331
20FC3
331
20FC8
331
23398
331
2339A
331
236D7
331
236D9
102
}
 70
     4
280
     1
281
     0
  0
BLOCK_RECORD
  5
23269
102
{ACAD_XDICTIONARY
360
2326A
102
}
330
1
100
AcDbSymbolTableRecord
100
AcDbBlockTableRecord
  2
A$C73231E16
340
0
102
{BLKREFS
331
23282
331
23288
331
23294
331
23298
331
23390
331
23394
331
23759
331
2375F
331
23763
331
23767
331
2376B
331
2376F
102
}
 70
     4
280
     1
281
     0
  0
BLOCK_RECORD
  5
233AA
330
1
100
AcDbSymbolTableRecord
100
AcDbBlockTableRecord
  2
*D3
340
0
 70
     0
280
     1
281
     0
  0
BLOCK_RECORD
  5
233B6
102
{ACAD_XDICTIONARY
360
233B7
102
}
330
1
100
AcDbSymbolTableRecord
100
AcDbBlockTableRecord
  2
A$C4AE13D6C
340
0
102
{BLKREFS
331
2372A
331
2372B
102
}
 70
     4
280
     1
281
     0
  0
BLOCK_RECORD
  5
233CC
102
{ACAD_XDICTIONARY
360
233CD
102
}
330
1
100
AcDbSymbolTableRecord
100
AcDbBlockTableRecord
  2
A$C41BB26E9
340
0
102
{BLKREFS
331
236DB
331
236E1
102
}
 70
     4
280
     1
281
     0
  0
BLOCK_RECORD
  5
23509
102
{ACAD_XDICTIONARY
360
2350A
102
}
330
1
100
AcDbSymbolTableRecord
100
AcDbBlockTableRecord
  2
A$C00990124
340
0
102
{BLKREFS
331
23784
102
}
 70
     4
280
     1
281
     0
  0
BLOCK_RECORD
  5
235F5
330
1
100
AcDbSymbolTableRecord
100
AcDbBlockTableRecord
  2
*D7
340
0
 70
     0
280
     1
281
     0
  0
BLOCK_RECORD
  5
23603
330
1
100
AcDbSymbolTableRecord
100
AcDbBlockTableRecord
  2
*D8
340
0
 70
     0
280
     1
281
     0
  0
BLOCK_RECORD
  5
2360F
102
{ACAD_XDICTIONARY
360
23610
102
}
330
1
100
AcDbSymbolTableRecord
100
AcDbBlockTableRecord
  2
A$C4D064DB7
340
0
102
{BLKREFS
331
23729
102
}
 70
     4
280
     1
281
     0
1001
AcDbDynamicBlockGUID
1000
{CC9CA2E1-FD73-4225-83D3-CE7D96E209EA}
1001
AcDbBlockRepETag
1070
     1
1071
        6
  0
BLOCK_RECORD
  5
2361A
102
{ACAD_XDICTIONARY
360
2361B
102
}
330
1
100
AcDbSymbolTableRecord
100
AcDbBlockTableRecord
  2
A$C12383B25
340
0
102
{BLKREFS
331
2372E
331
2372F
102
}
 70
     4
280
     1
281
     0
1001
AcDbDynamicBlockGUID
1000
{6D0B621E-836A-4C52-A8C2-D742D50848A3}
1001
AcDbBlockRepETag
1070
     1
1071
       10
  0
BLOCK_RECORD
  5
23629
330
1
100
AcDbSymbolTableRecord
100
AcDbBlockTableRecord
  2
*D11
340
0
 70
     0
280
     1
281
     0
  0
BLOCK_RECORD
  5
23635
330
1
100
AcDbSymbolTableRecord
100
AcDbBlockTableRecord
  2
*D12
340
0
 70
     0
280
     1
281
     0
  0
BLOCK_RECORD
  5
23641
330
1
100
AcDbSymbolTableRecord
100
AcDbBlockTableRecord
  2
*D13
340
0
 70
     0
280
     1
281
     0
  0
BLOCK_RECORD
  5
2364D
330
1
100
AcDbSymbolTableRecord
100
AcDbBlockTableRecord
  2
*D14
340
0
 70
     0
280
     1
281
     0
  0
BLOCK_RECORD
  5
23659
330
1
100
AcDbSymbolTableRecord
100
AcDbBlockTableRecord
  2
*D15
340
0
 70
     0
280
     1
281
     0
  0
BLOCK_RECORD
  5
23665
102
{ACAD_XDICTIONARY
360
23666
102
}
330
1
100
AcDbSymbolTableRecord
100
AcDbBlockTableRecord
  2
A$C6B89030A
340
0
102
{BLKREFS
331
23754
331
23755
102
}
 70
     4
280
     1
281
     0
  0
BLOCK_RECORD
  5
23674
330
1
100
AcDbSymbolTableRecord
100
AcDbBlockTableRecord
  2
*D17
340
0
 70
     0
280
     1
281
     0
  0
BLOCK_RECORD
  5
2389A
330
1
100
AcDbSymbolTableRecord
100
AcDbBlockTableRecord
  2
*D19
340
0
 70
     0
280
     1
281
     0
  0
BLOCK_RECORD
  5
238A8
330
1
100
AcDbSymbolTableRecord
100
AcDbBlockTableRecord
  2
*D20
340
0
 70
     0
280
     1
281
     0
  0
BLOCK_RECORD
  5
238B4
330
1
100
AcDbSymbolTableRecord
100
AcDbBlockTableRecord
  2
*D21
340
0
 70
     0
280
     1
281
     0
  0
BLOCK_RECORD
  5
238C0
330
1
100
AcDbSymbolTableRecord
100
AcDbBlockTableRecord
  2
*D22
340
0
 70
     0
280
     1
281
     0
  0
BLOCK_RECORD
  5
238CC
330
1
100
AcDbSymbolTableRecord
100
AcDbBlockTableRecord
  2
*D23
340
0
 70
     0
280
     1
281
     0
  0
BLOCK_RECORD
  5
238D8
330
1
100
AcDbSymbolTableRecord
100
AcDbBlockTableRecord
  2
*D24
340
0
 70
     0
280
     1
281
     0
  0
BLOCK_RECORD
  5
238E4
330
1
100
AcDbSymbolTableRecord
100
AcDbBlockTableRecord
  2
*D25
340
0
 70
     0
280
     1
281
     0
  0
BLOCK_RECORD
  5
238F0
330
1
100
AcDbSymbolTableRecord
100
AcDbBlockTableRecord
  2
*D26
340
0
 70
     0
280
     1
281
     0
  0
ENDTAB
  0
ENDSEC
  0
SECTION
  2
BLOCKS
  0
BLOCK
  5
D
330
A
100
AcDbEntity
  8
0
100
AcDbBlockBegin
  2
*MODEL_SPACE
 70
     0
 10
0.0
 20
0.0
 30
0.0
  3
*MODEL_SPACE
  1

  0
ENDBLK
  5
E
330
A
100
AcDbEntity
  8
0
100
AcDbBlockEnd
  0
BLOCK
  5
23354
330
23352
100
AcDbEntity
 67
     1
  8
0
370
     5
100
AcDbBlockBegin
  2
*Paper_Space
 70
     0
 10
0.0
 20
0.0
 30
0.0
  3
*Paper_Space
  1

  0
ENDBLK
  5
23355
330
23352
100
AcDbEntity
 67
     1
  8
0
370
     5
100
AcDbBlockEnd
  0
BLOCK
  5
90
330
8F
100
AcDbEntity
  8
0
370
     5
100
AcDbBlockBegin
  2
_DOT
 70
     0
 10
0.0
 20
0.0
 30
0.0
  3
_DOT
  1

  0
POLYLINE
  5
91
330
8F
100
AcDbEntity
  8
0
  6
ByBlock
 62
     0
370
    -2
100
AcDb2dPolyline
 66
     1
 10
0.0
 20
0.0
 30
0.0
 70
     1
 40
0.5
 41
0.5
  0
VERTEX
  5
92
330
91
100
AcDbEntity
  8
0
  6
ByBlock
 62
     0
370
    -2
100
AcDbVertex
100
AcDb2dVertex
 10
-0.25
 20
0.0
 30
0.0
 42
1.0
  0
VERTEX
  5
93
330
91
100
AcDbEntity
  8
0
  6
ByBlock
 62
     0
370
    -2
100
AcDbVertex
100
AcDb2dVertex
 10
0.25
 20
0.0
 30
0.0
 42
1.0
  0
SEQEND
  5
94
330
91
100
AcDbEntity
  8
0
  0
LINE
  5
95
330
8F
100
AcDbEntity
  8
0
  6
ByBlock
 62
     0
370
    -2
100
AcDbLine
 10
-0.5
 20
0.0
 30
0.0
 11
-1.0
 21
0.0
 31
0.0
  0
ENDBLK
  5
96
330
8F
100
AcDbEntity
  8
0
100
AcDbBlockEnd
  0
BLOCK
  5
20FC1
330
20FB6
100
AcDbEntity
  8
0
370
    25
100
AcDbBlockBegin
  2
A$C153C7E87
 70
     0
 10
0.0
 20
0.0
 30
0.0
  3
A$C153C7E87
  1

  0
CIRCLE
  5
20FB7
330
20FB6
100
AcDbEntity
  8
bolt
  6
Continuous
370
     5
100
AcDbCircle
 10
6.500016386497009
 20
6.500001344672909
 30
0.0
 40
6.5
  0
CIRCLE
  5
20FB8
330
20FB6
100
AcDbEntity
  8
bolt
  6
Continuous
370
     5
100
AcDbCircle
 10
6.500016386497009
 20
6.500001344672909
 30
0.0
 40
5.7
  0
LINE
  5
20FB9
330
20FB6
100
AcDbEntity
  8
bolt
  6
Continuous
370
     5
100
AcDbLine
 10
5.500016386497009
 20
8.23200134467288
 30
0.0
 11
7.500016386497009
 21
8.23200134467288
 31
0.0
  0
LINE
  5
20FBA
330
20FB6
100
AcDbEntity
  8
bolt
  6
Continuous
370
     5
100
AcDbLine
 10
4.500016386497009
 20
6.500001344672909
 30
0.0
 11
5.500016386497009
 21
8.23200134467288
 31
0.0
  0
LINE
  5
20FBB
330
20FB6
100
AcDbEntity
  8
bolt
  6
Continuous
370
     5
100
AcDbLine
 10
4.500016386497009
 20
6.500001344672909
 30
0.0
 11
5.500016386497009
 21
4.767901344672736
 31
0.0
  0
LINE
  5
20FBC
330
20FB6
100
AcDbEntity
  8
bolt
  6
Continuous
370
     5
100
AcDbLine
 10
5.500016386497009
 20
4.767901344672736
 30
0.0
 11
7.500016386497009
 21
4.767901344672736
 31
0.0
  0
LINE
  5
20FBD
330
20FB6
100
AcDbEntity
  8
bolt
  6
Continuous
370
     5
100
AcDbLine
 10
7.500016386497009
 20
4.767901344672736
 30
0.0
 11
8.500016386497009
 21
6.500001344672909
 31
0.0
  0
LINE
  5
20FBE
330
20FB6
100
AcDbEntity
  8
bolt
  6
Continuous
370
     5
100
AcDbLine
 10
7.500016386497009
 20
8.23200134467288
 30
0.0
 11
8.500016386497009
 21
6.500001344672909
 31
0.0
  0
ENDBLK
  5
20FC2
330
20FB6
100
AcDbEntity
  8
0
370
    25
100
AcDbBlockEnd
  0
BLOCK
  5
2326C
330
23269
100
AcDbEntity
  8
0
100
AcDbBlockBegin
  2
A$C73231E16
 70
     0
 10
0.0
 20
0.0
 30
0.0
  3
A$C73231E16
  1

  0
LINE
  5
2326D
330
23269
100
AcDbEntity
  8
木ネジ・ダボ
100
AcDbLine
 10
0.0
 20
1.999996000417013
 30
0.0
 11
10.0
 21
1.999996000417013
 31
0.0
  0
LINE
  5
2326E
330
23269
100
AcDbEntity
  8
木ネジ・ダボ
100
AcDbLine
 10
10.0
 20
1.999996000417013
 30
0.0
 11
10.00000000000182
 21
0.9999960004170134
 31
0.0
  0
LINE
  5
2326F
330
23269
100
AcDbEntity
  8
木ネジ・ダボ
100
AcDbLine
 10
9.0
 20
-0.0000039995829866
 30
0.0
 11
1.000000000001817
 21
-0.0000039995829866
 31
0.0
  0
LINE
  5
23270
330
23269
100
AcDbEntity
  8
木ネジ・ダボ
100
AcDbLine
 10
-0.000000000001819
 20
0.9999960004170134
 30
0.0
 11
0.0
 21
1.999996000416785
 31
0.0
  0
LINE
  5
23271
330
23269
100
AcDbEntity
  8
木ネジ・ダボ
100
AcDbLine
 10
0.0
 20
0.9999960004170134
 30
0.0
 11
10.0
 21
0.9999960004170134
 31
0.0
  0
LINE
  5
23272
330
23269
100
AcDbEntity
  8
木ネジ・ダボ
100
AcDbLine
 10
0.0
 20
0.9999960004170134
 30
0.0
 11
1.0
 21
-0.0000039995829866
 31
0.0
  0
LINE
  5
23273
330
23269
100
AcDbEntity
  8
木ネジ・ダボ
100
AcDbLine
 10
10.0
 20
0.9999960004170134
 30
0.0
 11
9.0
 21
-0.0000039995829866
 31
0.0
  0
ENDBLK
  5
23274
330
23269
100
AcDbEntity
  8
0
100
AcDbBlockEnd
  0
BLOCK
  5
233B4
330
233AA
100
AcDbEntity
  8
0
370
     5
100
AcDbBlockBegin
  2
*D3
 70
     1
 10
0.0
 20
0.0
 30
0.0
  3
*D3
  1

  0
LINE
  5
233AB
330
233AA
100
AcDbEntity
  8
寸法
 62
     0
370
    -2
100
AcDbLine
 10
-13000.49381872773
 20
2221.292102425416
 30
0.0
 11
-13199.45589185422
 21
2221.292102425416
 31
0.0
  0
LINE
  5
233AC
330
233AA
100
AcDbEntity
  8
寸法
 62
     0
370
    -2
100
AcDbLine
 10
-13037.99381872773
 20
1759.29210242542
 30
0.0
 11
-13199.45589185422
 21
1759.29210242542
 31
0.0
  0
LINE
  5
233AD
330
233AA
100
AcDbEntity
  8
寸法
 62
     0
370
    -2
100
AcDbLine
 10
-13196.27589185422
 20
2219.792102425416
 30
0.0
 11
-13196.27589185422
 21
1760.79210242542
 31
0.0
  0
INSERT
  5
233AE
330
233AA
100
AcDbEntity
  8
寸法
 62
     0
370
    -2
100
AcDbBlockReference
  2
_DOT
 10
-13196.27589185422
 20
2221.292102425416
 30
0.0
 41
1.5
 42
1.5
 43
1.5
 50
90.0
  0
INSERT
  5
233AF
330
233AA
100
AcDbEntity
  8
寸法
 62
     0
370
    -2
100
AcDbBlockReference
  2
_DOT
 10
-13196.27589185422
 20
1759.29210242542
 30
0.0
 41
1.5
 42
1.5
 43
1.5
 50
270.0
  0
MTEXT
  5
233B0
330
233AA
100
AcDbEntity
  8
寸法
 62
     0
370
     5
100
AcDbMText
 10
-13198.77589185422
 20
1990.292102425416
 30
0.0
 40
3.0
 41
0.0
 46
0.0
 71
     5
 72
     1
  1
\A1;462
  7
ヒラギノ角ゴ Pro W3
 11
0.0000000000000001
 21
1.0
 31
0.0
 73
     1
 44
1.0
  0
POINT
  5
233B1
330
233AA
100
AcDbEntity
  8
Defpoints
 62
     0
370
     5
100
AcDbPoint
 10
-12997.49381872773
 20
2221.292102425416
 30
0.0
  0
POINT
  5
233B2
330
233AA
100
AcDbEntity
  8
Defpoints
 62
     0
370
     5
100
AcDbPoint
 10
-13034.99381872773
 20
1759.29210242542
 30
0.0
  0
POINT
  5
233B3
330
233AA
100
AcDbEntity
  8
Defpoints
 62
     0
370
     5
100
AcDbPoint
 10
-13196.27589185422
 20
1759.29210242542
 30
0.0
  0
ENDBLK
  5
233B5
330
233AA
100
AcDbEntity
  8
0
370
     5
100
AcDbBlockEnd
  0
BLOCK
  5
233B9
330
233B6
100
AcDbEntity
  8
0
370
    25
100
AcDbBlockBegin
  2
A$C4AE13D6C
 70
     0
 10
0.0
 20
0.0
 30
0.0
  3
A$C4AE13D6C
  1

  0
CIRCLE
  5
233BA
330
233B6
100
AcDbEntity
  8
0
  6
Continuous
 62
   252
100
AcDbCircle
 10
4.000000138047198
 20
4.000009729057637
 30
0.0
 40
4.0
  0
LINE
  5
233BB
330
233B6
100
AcDbEntity
  8
0
  6
Continuous
 62
   252
100
AcDbLine
 10
3.600000138047107
 20
5.850009729057774
 30
0.0
 11
4.400000138047289
 21
5.850009729057774
 31
0.0
  0
LINE
  5
233BC
330
233B6
100
AcDbEntity
  8
0
  6
Continuous
 62
   252
100
AcDbLine
 10
3.600000138047107
 20
5.850009729057774
 30
0.0
 11
3.600000138047107
 21
4.900009729057728
 31
0.0
  0
LINE
  5
233BD
330
233B6
100
AcDbEntity
  8
0
  6
Continuous
 62
   252
100
AcDbLine
 10
2.150000138047289
 20
4.400009729057728
 30
0.0
 11
3.100000138047107
 21
4.400009729057728
 31
0.0
  0
LINE
  5
233BE
330
233B6
100
AcDbEntity
  8
0
  6
Continuous
 62
   252
100
AcDbLine
 10
2.150000138047289
 20
4.400009729057728
 30
0.0
 11
2.150000138047289
 21
3.600009729057774
 31
0.0
  0
LINE
  5
233BF
330
233B6
100
AcDbEntity
  8
0
  6
Continuous
 62
   252
100
AcDbLine
 10
2.150000138047289
 20
3.600009729057774
 30
0.0
 11
3.100000138047107
 21
3.600009729057774
 31
0.0
  0
LINE
  5
233C0
330
233B6
100
AcDbEntity
  8
0
  6
Continuous
 62
   252
100
AcDbLine
 10
3.600000138047107
 20
3.100009729057774
 30
0.0
 11
3.600000138047107
 21
2.150009729057728
 31
0.0
  0
LINE
  5
233C1
330
233B6
100
AcDbEntity
  8
0
  6
Continuous
 62
   252
100
AcDbLine
 10
3.600000138047107
 20
2.150009729057728
 30
0.0
 11
4.400000138047289
 21
2.150009729057728
 31
0.0
  0
LINE
  5
233C2
330
233B6
100
AcDbEntity
  8
0
  6
Continuous
 62
   252
100
AcDbLine
 10
4.400000138047289
 20
2.150009729057728
 30
0.0
 11
4.400000138047289
 21
3.100009729057774
 31
0.0
  0
LINE
  5
233C3
330
233B6
100
AcDbEntity
  8
0
  6
Continuous
 62
   252
100
AcDbLine
 10
4.900000138047289
 20
3.600009729057774
 30
0.0
 11
5.850000138047107
 21
3.600009729057774
 31
0.0
  0
LINE
  5
233C4
330
233B6
100
AcDbEntity
  8
0
  6
Continuous
 62
   252
100
AcDbLine
 10
5.850000138047107
 20
3.600009729057774
 30
0.0
 11
5.850000138047107
 21
4.400009729057728
 31
0.0
  0
LINE
  5
233C5
330
233B6
100
AcDbEntity
  8
0
  6
Continuous
 62
   252
100
AcDbLine
 10
4.900000138047289
 20
4.400009729057728
 30
0.0
 11
5.850000138047107
 21
4.400009729057728
 31
0.0
  0
LINE
  5
233C6
330
233B6
100
AcDbEntity
  8
0
  6
Continuous
 62
   252
100
AcDbLine
 10
4.400000138047289
 20
4.900009729057728
 30
0.0
 11
4.400000138047289
 21
5.850009729057774
 31
0.0
  0
ARC
  5
233C7
330
233B6
100
AcDbEntity
  8
0
  6
Continuous
 62
   252
100
AcDbCircle
 10
3.100000138047107
 20
4.900009729057728
 30
0.0
 40
0.5
100
AcDbArc
 50
270.0
 51
0.0
  0
ARC
  5
233C8
330
233B6
100
AcDbEntity
  8
0
  6
Continuous
 62
   252
100
AcDbCircle
 10
3.100000138047107
 20
3.100009729057774
 30
0.0
 40
0.5
100
AcDbArc
 50
0.0
 51
90.0
  0
ARC
  5
233C9
330
233B6
100
AcDbEntity
  8
0
  6
Continuous
 62
   252
100
AcDbCircle
 10
4.900000138047289
 20
3.100009729057774
 30
0.0
 40
0.5
100
AcDbArc
 50
90.0
 51
180.0
  0
ARC
  5
233CA
330
233B6
100
AcDbEntity
  8
0
  6
Continuous
 62
   252
100
AcDbCircle
 10
4.900000138047289
 20
4.900009729057728
 30
0.0
 40
0.5
100
AcDbArc
 50
180.0
 51
270.0
  0
ENDBLK
  5
233CB
330
233B6
100
AcDbEntity
  8
0
370
    25
100
AcDbBlockEnd
  0
BLOCK
  5
233CF
330
233CC
100
AcDbEntity
  8
0
370
    25
100
AcDbBlockBegin
  2
A$C41BB26E9
 70
     0
 10
0.0
 20
0.0
 30
0.0
  3
A$C41BB26E9
  1

  0
LINE
  5
233D0
330
233CC
100
AcDbEntity
  8
bolt
  6
Continuous
370
     5
100
AcDbLine
 10
2.10000254816623
 20
13.00000025982581
 30
0.0
 11
2.10000254816623
 21
0.0000002598258106
 31
0.0
  0
LINE
  5
233D1
330
233CC
100
AcDbEntity
  8
bolt
  6
Continuous
370
     5
100
AcDbLine
 10
0.8000025481669581
 20
0.0000002598258106
 30
0.0
 11
2.10000254816623
 21
0.0000002598258106
 31
0.0
  0
LINE
  5
233D2
330
233CC
100
AcDbEntity
  8
bolt
  6
Continuous
370
     5
100
AcDbLine
 10
0.0000025481676857
 20
1.50000025982581
 30
0.0
 11
0.8000025481669581
 21
0.0000002598258106
 31
0.0
  0
LINE
  5
233D3
330
233CC
100
AcDbEntity
  8
bolt
  6
Continuous
370
     5
100
AcDbLine
 10
0.0000025481676857
 20
11.50000025982581
 30
0.0
 11
0.8000025481669581
 21
13.00000025982581
 31
0.0
  0
LINE
  5
233D4
330
233CC
100
AcDbEntity
  8
bolt
  6
Continuous
370
     5
100
AcDbLine
 10
1.300002548166958
 20
13.00000025982581
 30
0.0
 11
1.300002548166958
 21
0.0000002598258106
 31
0.0
  0
LINE
  5
233D5
330
233CC
100
AcDbEntity
  8
bolt
  6
Continuous
370
     5
100
AcDbLine
 10
0.8000025481669581
 20
13.00000025982581
 30
0.0
 11
0.8000025481669581
 21
0.0000002598258106
 31
0.0
  0
LINE
  5
233D6
330
233CC
100
AcDbEntity
  8
bolt
  6
Continuous
370
     5
100
AcDbLine
 10
0.0000025481676857
 20
11.50000025982581
 30
0.0
 11
0.0000025481676857
 21
1.50000025982581
 31
0.0
  0
LINE
  5
233D7
330
233CC
100
AcDbEntity
  8
bolt
  6
Continuous
370
     5
100
AcDbLine
 10
2.10000254816623
 20
9.50000025982581
 30
0.0
 11
2.10000254816623
 21
3.50000025982581
 31
0.0
  0
LINE
  5
233D8
330
233CC
100
AcDbEntity
  8
bolt
  6
Continuous
370
     5
100
AcDbLine
 10
2.10000254816623
 20
4.25000025982581
 30
0.0
 11
2.715902548166923
 21
4.25000025982581
 31
0.0
  0
LINE
  5
233D9
330
233CC
100
AcDbEntity
  8
bolt
  6
Continuous
370
     5
100
AcDbLine
 10
2.715902548166923
 20
4.25000025982581
 30
0.0
 11
3.354002548167045
 21
3.600000259825719
 31
0.0
  0
LINE
  5
233DA
330
233CC
100
AcDbEntity
  8
bolt
  6
Continuous
370
     5
100
AcDbLine
 10
3.354002548167045
 20
3.600000259825719
 30
0.0
 11
3.738302548166757
 21
4.25000025982581
 31
0.0
  0
LINE
  5
233DB
330
233CC
100
AcDbEntity
  8
bolt
  6
Continuous
370
     5
100
AcDbLine
 10
3.738302548166757
 20
4.25000025982581
 30
0.0
 11
4.376402548166879
 21
3.600000259825719
 31
0.0
  0
LINE
  5
233DC
330
233CC
100
AcDbEntity
  8
bolt
  6
Continuous
370
     5
100
AcDbLine
 10
4.376402548166879
 20
3.600000259825719
 30
0.0
 11
4.760602548167298
 21
4.25000025982581
 31
0.0
  0
LINE
  5
233DD
330
233CC
100
AcDbEntity
  8
bolt
  6
Continuous
370
     5
100
AcDbLine
 10
4.760602548167298
 20
4.25000025982581
 30
0.0
 11
5.398702548165601
 21
3.600000259825719
 31
0.0
  0
LINE
  5
233DE
330
233CC
100
AcDbEntity
  8
bolt
  6
Continuous
370
     5
100
AcDbLine
 10
5.398702548165601
 20
3.600000259825719
 30
0.0
 11
5.782902548166021
 21
4.25000025982581
 31
0.0
  0
LINE
  5
233DF
330
233CC
100
AcDbEntity
  8
bolt
  6
Continuous
370
     5
100
AcDbLine
 10
5.782902548166021
 20
4.25000025982581
 30
0.0
 11
6.421102548167255
 21
3.600000259825719
 31
0.0
  0
LINE
  5
233E0
330
233CC
100
AcDbEntity
  8
bolt
  6
Continuous
370
     5
100
AcDbLine
 10
6.421102548167255
 20
3.600000259825719
 30
0.0
 11
6.805302548167674
 21
4.25000025982581
 31
0.0
  0
LINE
  5
233E1
330
233CC
100
AcDbEntity
  8
bolt
  6
Continuous
370
     5
100
AcDbLine
 10
6.805302548167674
 20
4.25000025982581
 30
0.0
 11
7.443402548167796
 21
3.600000259825719
 31
0.0
  0
LINE
  5
233E2
330
233CC
100
AcDbEntity
  8
bolt
  6
Continuous
370
     5
100
AcDbLine
 10
7.443402548167796
 20
3.600000259825719
 30
0.0
 11
7.827602548166396
 21
4.25000025982581
 31
0.0
  0
LINE
  5
233E3
330
233CC
100
AcDbEntity
  8
bolt
  6
Continuous
370
     5
100
AcDbLine
 10
7.827602548166396
 20
4.25000025982581
 30
0.0
 11
8.465702548166518
 21
3.600000259825719
 31
0.0
  0
LINE
  5
233E4
330
233CC
100
AcDbEntity
  8
bolt
  6
Continuous
370
     5
100
AcDbLine
 10
8.465702548166518
 20
3.600000259825719
 30
0.0
 11
8.85000254816623
 21
4.25000025982581
 31
0.0
  0
LINE
  5
233E5
330
233CC
100
AcDbEntity
  8
bolt
  6
Continuous
370
     5
100
AcDbLine
 10
8.85000254816623
 20
4.25000025982581
 30
0.0
 11
9.488102548166352
 21
3.600000259825719
 31
0.0
  0
LINE
  5
233E6
330
233CC
100
AcDbEntity
  8
bolt
  6
Continuous
370
     5
100
AcDbLine
 10
9.488102548166352
 20
3.600000259825719
 30
0.0
 11
9.872302548166771
 21
4.25000025982581
 31
0.0
  0
LINE
  5
233E7
330
233CC
100
AcDbEntity
  8
bolt
  6
Continuous
370
     5
100
AcDbLine
 10
2.25940254816669
 20
8.75000025982581
 30
0.0
 11
2.621202548167275
 21
9.400000259825901
 31
0.0
  0
LINE
  5
233E8
330
233CC
100
AcDbEntity
  8
bolt
  6
Continuous
370
     5
100
AcDbLine
 10
2.621202548167275
 20
9.400000259825901
 30
0.0
 11
3.281802548166524
 21
8.75000025982581
 31
0.0
  0
LINE
  5
233E9
330
233CC
100
AcDbEntity
  8
bolt
  6
Continuous
370
     5
100
AcDbLine
 10
3.281802548166524
 20
8.75000025982581
 30
0.0
 11
3.643602548167109
 21
9.400000259825901
 31
0.0
  0
LINE
  5
233EA
330
233CC
100
AcDbEntity
  8
bolt
  6
Continuous
370
     5
100
AcDbLine
 10
3.643602548167109
 20
9.400000259825901
 30
0.0
 11
4.304102548167065
 21
8.75000025982581
 31
0.0
  0
LINE
  5
233EB
330
233CC
100
AcDbEntity
  8
bolt
  6
Continuous
370
     5
100
AcDbLine
 10
4.304102548167065
 20
8.75000025982581
 30
0.0
 11
4.66590254816765
 21
9.400000259825901
 31
0.0
  0
LINE
  5
233EC
330
233CC
100
AcDbEntity
  8
bolt
  6
Continuous
370
     5
100
AcDbLine
 10
4.66590254816765
 20
9.400000259825901
 30
0.0
 11
5.326402548165788
 21
8.75000025982581
 31
0.0
  0
LINE
  5
233ED
330
233CC
100
AcDbEntity
  8
bolt
  6
Continuous
370
     5
100
AcDbLine
 10
5.326402548165788
 20
8.75000025982581
 30
0.0
 11
5.688202548166373
 21
9.400000259825901
 31
0.0
  0
LINE
  5
233EE
330
233CC
100
AcDbEntity
  8
bolt
  6
Continuous
370
     5
100
AcDbLine
 10
5.688202548166373
 20
9.400000259825901
 30
0.0
 11
6.348802548167441
 21
8.75000025982581
 31
0.0
  0
LINE
  5
233EF
330
233CC
100
AcDbEntity
  8
bolt
  6
Continuous
370
     5
100
AcDbLine
 10
6.348802548167441
 20
8.75000025982581
 30
0.0
 11
6.710602548166207
 21
9.400000259825901
 31
0.0
  0
LINE
  5
233F0
330
233CC
100
AcDbEntity
  8
bolt
  6
Continuous
370
     5
100
AcDbLine
 10
6.710602548166207
 20
9.400000259825901
 30
0.0
 11
7.371102548167982
 21
8.75000025982581
 31
0.0
  0
LINE
  5
233F1
330
233CC
100
AcDbEntity
  8
bolt
  6
Continuous
370
     5
100
AcDbLine
 10
7.371102548167982
 20
8.75000025982581
 30
0.0
 11
7.732902548166748
 21
9.400000259825901
 31
0.0
  0
LINE
  5
233F2
330
233CC
100
AcDbEntity
  8
bolt
  6
Continuous
370
     5
100
AcDbLine
 10
7.732902548166748
 20
9.400000259825901
 30
0.0
 11
8.393502548165997
 21
8.75000025982581
 31
0.0
  0
LINE
  5
233F3
330
233CC
100
AcDbEntity
  8
bolt
  6
Continuous
370
     5
100
AcDbLine
 10
8.393502548165997
 20
8.75000025982581
 30
0.0
 11
8.755302548166582
 21
9.400000259825901
 31
0.0
  0
LINE
  5
233F4
330
233CC
100
AcDbEntity
  8
bolt
  6
Continuous
370
     5
100
AcDbLine
 10
8.755302548166582
 20
9.400000259825901
 30
0.0
 11
9.415802548166539
 21
8.75000025982581
 31
0.0
  0
LINE
  5
233F5
330
233CC
100
AcDbEntity
  8
bolt
  6
Continuous
370
     5
100
AcDbLine
 10
9.415802548166539
 20
8.75000025982581
 30
0.0
 11
9.777602548167124
 21
9.400000259825901
 31
0.0
  0
LINE
  5
233F6
330
233CC
100
AcDbEntity
  8
bolt
  6
Continuous
370
     5
100
AcDbLine
 10
9.777602548167124
 20
9.400000259825901
 30
0.0
 11
10.43810254816708
 21
8.75000025982581
 31
0.0
  0
LINE
  5
233F7
330
233CC
100
AcDbEntity
  8
bolt
  6
Continuous
370
     5
100
AcDbLine
 10
2.10000254816623
 20
8.75000025982581
 30
0.0
 11
2.25940254816669
 21
8.75000025982581
 31
0.0
  0
LINE
  5
233F8
330
233CC
100
AcDbEntity
  8
bolt
  6
Continuous
370
     5
100
AcDbLine
 10
0.8000025481669581
 20
13.00000025982581
 30
0.0
 11
2.10000254816623
 21
13.00000025982581
 31
0.0
  0
LINE
  5
233F9
330
233CC
100
AcDbEntity
  8
bolt
  6
Continuous
370
     5
100
AcDbLine
 10
9.872302548166771
 20
4.25000025982581
 30
0.0
 11
10.51040254816689
 21
3.600000259825719
 31
0.0
  0
LINE
  5
233FA
330
233CC
100
AcDbEntity
  8
bolt
  6
Continuous
370
     5
100
AcDbLine
 10
10.51040254816689
 20
3.600000259825719
 30
0.0
 11
10.89460254816731
 21
4.25000025982581
 31
0.0
  0
LINE
  5
233FB
330
233CC
100
AcDbEntity
  8
bolt
  6
Continuous
370
     5
100
AcDbLine
 10
10.43810254816708
 20
8.75000025982581
 30
0.0
 11
10.79990254816584
 21
9.400000259825901
 31
0.0
  0
LINE
  5
233FC
330
233CC
100
AcDbEntity
  8
bolt
  6
Continuous
370
     5
100
AcDbLine
 10
10.79990254816584
 20
9.400000259825901
 30
0.0
 11
11.46050254816691
 21
8.75000025982581
 31
0.0
  0
LINE
  5
233FD
330
233CC
100
AcDbEntity
  8
bolt
  6
Continuous
370
     5
100
AcDbLine
 10
10.89460254816731
 20
4.25000025982581
 30
0.0
 11
11.53280254816673
 21
3.600000259825719
 31
0.0
  0
LINE
  5
233FE
330
233CC
100
AcDbEntity
  8
bolt
  6
Continuous
370
     5
100
AcDbLine
 10
11.53280254816673
 20
3.600000259825719
 30
0.0
 11
11.91700254816715
 21
4.25000025982581
 31
0.0
  0
LINE
  5
233FF
330
233CC
100
AcDbEntity
  8
bolt
  6
Continuous
370
     5
100
AcDbLine
 10
11.46050254816691
 20
8.75000025982581
 30
0.0
 11
11.8223025481675
 21
9.400000259825901
 31
0.0
  0
LINE
  5
23400
330
233CC
100
AcDbEntity
  8
bolt
  6
Continuous
370
     5
100
AcDbLine
 10
11.8223025481675
 20
9.400000259825901
 30
0.0
 11
12.48280254816563
 21
8.75000025982581
 31
0.0
  0
LINE
  5
23401
330
233CC
100
AcDbEntity
  8
bolt
  6
Continuous
370
     5
100
AcDbLine
 10
11.91700254816715
 20
4.25000025982581
 30
0.0
 11
12.55510254816727
 21
3.600000259825719
 31
0.0
  0
LINE
  5
23402
330
233CC
100
AcDbEntity
  8
bolt
  6
Continuous
370
     5
100
AcDbLine
 10
12.55510254816727
 20
3.600000259825719
 30
0.0
 11
12.93930254816587
 21
4.25000025982581
 31
0.0
  0
LINE
  5
23403
330
233CC
100
AcDbEntity
  8
bolt
  6
Continuous
370
     5
100
AcDbLine
 10
12.48280254816563
 20
8.75000025982581
 30
0.0
 11
12.84460254816622
 21
9.400000259825901
 31
0.0
  0
LINE
  5
23404
330
233CC
100
AcDbEntity
  8
bolt
  6
Continuous
370
     5
100
AcDbLine
 10
12.84460254816622
 20
9.400000259825901
 30
0.0
 11
13.50520254816729
 21
8.75000025982581
 31
0.0
  0
LINE
  5
23405
330
233CC
100
AcDbEntity
  8
bolt
  6
Continuous
370
     5
100
AcDbLine
 10
12.93930254816587
 20
4.25000025982581
 30
0.0
 11
13.57740254816599
 21
3.600000259825719
 31
0.0
  0
LINE
  5
23406
330
233CC
100
AcDbEntity
  8
bolt
  6
Continuous
370
     5
100
AcDbLine
 10
13.57740254816599
 20
3.600000259825719
 30
0.0
 11
13.96170254816752
 21
4.25000025982581
 31
0.0
  0
LINE
  5
23407
330
233CC
100
AcDbEntity
  8
bolt
  6
Continuous
370
     5
100
AcDbLine
 10
13.50520254816729
 20
8.75000025982581
 30
0.0
 11
13.86700254816605
 21
9.400000259825901
 31
0.0
  0
LINE
  5
23408
330
233CC
100
AcDbEntity
  8
bolt
  6
Continuous
370
     5
100
AcDbLine
 10
13.86700254816605
 20
9.400000259825901
 30
0.0
 11
14.52750254816783
 21
8.75000025982581
 31
0.0
  0
LINE
  5
23409
330
233CC
100
AcDbEntity
  8
bolt
  6
Continuous
370
     5
100
AcDbLine
 10
13.96170254816752
 20
4.25000025982581
 30
0.0
 11
14.59980254816764
 21
3.600000259825719
 31
0.0
  0
LINE
  5
2340A
330
233CC
100
AcDbEntity
  8
bolt
  6
Continuous
370
     5
100
AcDbLine
 10
14.59980254816764
 20
3.600000259825719
 30
0.0
 11
14.98400254816624
 21
4.25000025982581
 31
0.0
  0
LINE
  5
2340B
330
233CC
100
AcDbEntity
  8
bolt
  6
Continuous
370
     5
100
AcDbLine
 10
14.52750254816783
 20
8.75000025982581
 30
0.0
 11
14.8893025481666
 21
9.400000259825901
 31
0.0
  0
LINE
  5
2340C
330
233CC
100
AcDbEntity
  8
bolt
  6
Continuous
370
     5
100
AcDbLine
 10
14.8893025481666
 20
9.400000259825901
 30
0.0
 11
15.54980254816655
 21
8.75000025982581
 31
0.0
  0
LINE
  5
2340D
330
233CC
100
AcDbEntity
  8
bolt
  6
Continuous
370
     5
100
AcDbLine
 10
14.98400254816624
 20
4.25000025982581
 30
0.0
 11
15.62210254816637
 21
3.600000259825719
 31
0.0
  0
LINE
  5
2340E
330
233CC
100
AcDbEntity
  8
bolt
  6
Continuous
370
     5
100
AcDbLine
 10
15.62210254816637
 20
3.600000259825719
 30
0.0
 11
16.00630254816678
 21
4.25000025982581
 31
0.0
  0
LINE
  5
2340F
330
233CC
100
AcDbEntity
  8
bolt
  6
Continuous
370
     5
100
AcDbLine
 10
15.54980254816655
 20
8.75000025982581
 30
0.0
 11
15.91160254816714
 21
9.400000259825901
 31
0.0
  0
LINE
  5
23410
330
233CC
100
AcDbEntity
  8
bolt
  6
Continuous
370
     5
100
AcDbLine
 10
15.91160254816714
 20
9.400000259825901
 30
0.0
 11
16.57220254816639
 21
8.75000025982581
 31
0.0
  0
LINE
  5
23411
330
233CC
100
AcDbEntity
  8
bolt
  6
Continuous
370
     5
100
AcDbLine
 10
16.00630254816678
 20
4.25000025982581
 30
0.0
 11
16.6445025481662
 21
3.600000259825719
 31
0.0
  0
LINE
  5
23412
330
233CC
100
AcDbEntity
  8
bolt
  6
Continuous
370
     5
100
AcDbLine
 10
16.6445025481662
 20
3.600000259825719
 30
0.0
 11
17.02870254816662
 21
4.25000025982581
 31
0.0
  0
LINE
  5
23413
330
233CC
100
AcDbEntity
  8
bolt
  6
Continuous
370
     5
100
AcDbLine
 10
16.57220254816639
 20
8.75000025982581
 30
0.0
 11
16.93400254816697
 21
9.400000259825901
 31
0.0
  0
LINE
  5
23414
330
233CC
100
AcDbEntity
  8
bolt
  6
Continuous
370
     5
100
AcDbLine
 10
16.93400254816697
 20
9.400000259825901
 30
0.0
 11
17.59450254816693
 21
8.75000025982581
 31
0.0
  0
LINE
  5
23415
330
233CC
100
AcDbEntity
  8
bolt
  6
Continuous
370
     5
100
AcDbLine
 10
17.02870254816662
 20
4.25000025982581
 30
0.0
 11
17.66680254816674
 21
3.600000259825719
 31
0.0
  0
LINE
  5
23416
330
233CC
100
AcDbEntity
  8
bolt
  6
Continuous
370
     5
100
AcDbLine
 10
17.66680254816674
 20
3.600000259825719
 30
0.0
 11
18.05100254816716
 21
4.25000025982581
 31
0.0
  0
LINE
  5
23417
330
233CC
100
AcDbEntity
  8
bolt
  6
Continuous
370
     5
100
AcDbLine
 10
17.59450254816693
 20
8.75000025982581
 30
0.0
 11
17.95630254816569
 21
9.400000259825901
 31
0.0
  0
LINE
  5
23418
330
233CC
100
AcDbEntity
  8
bolt
  6
Continuous
370
     5
100
AcDbLine
 10
17.95630254816569
 20
9.400000259825901
 30
0.0
 11
18.61690254816676
 21
8.75000025982581
 31
0.0
  0
LINE
  5
23419
330
233CC
100
AcDbEntity
  8
bolt
  6
Continuous
370
     5
100
AcDbLine
 10
18.05100254816716
 20
4.25000025982581
 30
0.0
 11
18.68910254816728
 21
3.600000259825719
 31
0.0
  0
LINE
  5
2341A
330
233CC
100
AcDbEntity
  8
bolt
  6
Continuous
370
     5
100
AcDbLine
 10
18.68910254816728
 20
3.600000259825719
 30
0.0
 11
19.07340254816699
 21
4.25000025982581
 31
0.0
  0
LINE
  5
2341B
330
233CC
100
AcDbEntity
  8
bolt
  6
Continuous
370
     5
100
AcDbLine
 10
18.61690254816676
 20
8.75000025982581
 30
0.0
 11
18.97870254816735
 21
9.400000259825901
 31
0.0
  0
LINE
  5
2341C
330
233CC
100
AcDbEntity
  8
bolt
  6
Continuous
370
     5
100
AcDbLine
 10
18.97870254816735
 20
9.400000259825901
 30
0.0
 11
19.6392025481673
 21
8.75000025982581
 31
0.0
  0
LINE
  5
2341D
330
233CC
100
AcDbEntity
  8
bolt
  6
Continuous
370
     5
100
AcDbLine
 10
19.07340254816699
 20
4.25000025982581
 30
0.0
 11
19.71150254816712
 21
3.600000259825719
 31
0.0
  0
LINE
  5
2341E
330
233CC
100
AcDbEntity
  8
bolt
  6
Continuous
370
     5
100
AcDbLine
 10
19.71150254816712
 20
3.600000259825719
 30
0.0
 11
20.09570254816572
 21
4.25000025982581
 31
0.0
  0
LINE
  5
2341F
330
233CC
100
AcDbEntity
  8
bolt
  6
Continuous
370
     5
100
AcDbLine
 10
19.6392025481673
 20
8.75000025982581
 30
0.0
 11
20.00100254816789
 21
9.400000259825901
 31
0.0
  0
LINE
  5
23420
330
233CC
100
AcDbEntity
  8
bolt
  6
Continuous
370
     5
100
AcDbLine
 10
20.00100254816789
 20
9.400000259825901
 30
0.0
 11
20.66150254816603
 21
8.75000025982581
 31
0.0
  0
LINE
  5
23421
330
233CC
100
AcDbEntity
  8
bolt
  6
Continuous
370
     5
100
AcDbLine
 10
20.09570254816572
 20
4.25000025982581
 30
0.0
 11
20.73380254816584
 21
3.600000259825719
 31
0.0
  0
LINE
  5
23422
330
233CC
100
AcDbEntity
  8
bolt
  6
Continuous
370
     5
100
AcDbLine
 10
20.73380254816584
 20
3.600000259825719
 30
0.0
 11
21.11800254816626
 21
4.25000025982581
 31
0.0
  0
LINE
  5
23423
330
233CC
100
AcDbEntity
  8
bolt
  6
Continuous
370
     5
100
AcDbLine
 10
20.66150254816603
 20
8.75000025982581
 30
0.0
 11
21.02330254816661
 21
9.400000259825901
 31
0.0
  0
LINE
  5
23424
330
233CC
100
AcDbEntity
  8
bolt
  6
Continuous
370
     5
100
AcDbLine
 10
21.02330254816661
 20
9.400000259825901
 30
0.0
 11
21.68390254816768
 21
8.75000025982581
 31
0.0
  0
LINE
  5
23425
330
233CC
100
AcDbEntity
  8
bolt
  6
Continuous
370
     5
100
AcDbLine
 10
21.11800254816626
 20
4.25000025982581
 30
0.0
 11
21.75620254816749
 21
3.600000259825719
 31
0.0
  0
LINE
  5
23426
330
233CC
100
AcDbEntity
  8
bolt
  6
Continuous
370
     5
100
AcDbLine
 10
21.75620254816749
 20
3.600000259825719
 30
0.0
 11
22.14040254816791
 21
4.25000025982581
 31
0.0
  0
LINE
  5
23427
330
233CC
100
AcDbEntity
  8
bolt
  6
Continuous
370
     5
100
AcDbLine
 10
21.68390254816768
 20
8.75000025982581
 30
0.0
 11
22.04570254816645
 21
9.400000259825901
 31
0.0
  0
LINE
  5
23428
330
233CC
100
AcDbEntity
  8
bolt
  6
Continuous
370
     5
100
AcDbLine
 10
22.04570254816645
 20
9.400000259825901
 30
0.0
 11
22.7062025481664
 21
8.75000025982581
 31
0.0
  0
LINE
  5
23429
330
233CC
100
AcDbEntity
  8
bolt
  6
Continuous
370
     5
100
AcDbLine
 10
22.14040254816791
 20
4.25000025982581
 30
0.0
 11
22.77850254816621
 21
3.600000259825719
 31
0.0
  0
LINE
  5
2342A
330
233CC
100
AcDbEntity
  8
bolt
  6
Continuous
370
     5
100
AcDbLine
 10
22.77850254816621
 20
3.600000259825719
 30
0.0
 11
23.16270254816664
 21
4.25000025982581
 31
0.0
  0
LINE
  5
2342B
330
233CC
100
AcDbEntity
  8
bolt
  6
Continuous
370
     5
100
AcDbLine
 10
22.7062025481664
 20
8.75000025982581
 30
0.0
 11
23.06800254816699
 21
9.400000259825901
 31
0.0
  0
LINE
  5
2342C
330
233CC
100
AcDbEntity
  8
bolt
  6
Continuous
370
     5
100
AcDbLine
 10
23.06800254816699
 20
9.400000259825901
 30
0.0
 11
23.72860254816623
 21
8.75000025982581
 31
0.0
  0
LINE
  5
2342D
330
233CC
100
AcDbEntity
  8
bolt
  6
Continuous
370
     5
100
AcDbLine
 10
23.16270254816664
 20
4.25000025982581
 30
0.0
 11
23.80080254816676
 21
3.600000259825719
 31
0.0
  0
LINE
  5
2342E
330
233CC
100
AcDbEntity
  8
bolt
  6
Continuous
370
     5
100
AcDbLine
 10
23.80080254816676
 20
3.600000259825719
 30
0.0
 11
24.18510254816647
 21
4.25000025982581
 31
0.0
  0
LINE
  5
2342F
330
233CC
100
AcDbEntity
  8
bolt
  6
Continuous
370
     5
100
AcDbLine
 10
23.72860254816623
 20
8.75000025982581
 30
0.0
 11
24.09040254816682
 21
9.400000259825901
 31
0.0
  0
LINE
  5
23430
330
233CC
100
AcDbEntity
  8
bolt
  6
Continuous
370
     5
100
AcDbLine
 10
24.09040254816682
 20
9.400000259825901
 30
0.0
 11
24.75090254816678
 21
8.75000025982581
 31
0.0
  0
LINE
  5
23431
330
233CC
100
AcDbEntity
  8
bolt
  6
Continuous
370
     5
100
AcDbLine
 10
27.25210254816739
 20
4.25000025982581
 30
0.0
 11
27.89020254816569
 21
3.600000259825719
 31
0.0
  0
LINE
  5
23432
330
233CC
100
AcDbEntity
  8
bolt
  6
Continuous
370
     5
100
AcDbLine
 10
27.89020254816569
 20
3.600000259825719
 30
0.0
 11
28.27440254816611
 21
4.25000025982581
 31
0.0
  0
LINE
  5
23433
330
233CC
100
AcDbEntity
  8
bolt
  6
Continuous
370
     5
100
AcDbLine
 10
27.81790254816588
 20
8.75000025982581
 30
0.0
 11
28.17970254816646
 21
9.400000259825901
 31
0.0
  0
LINE
  5
23434
330
233CC
100
AcDbEntity
  8
bolt
  6
Continuous
370
     5
100
AcDbLine
 10
28.17970254816646
 20
9.400000259825901
 30
0.0
 11
28.84030254816753
 21
8.75000025982581
 31
0.0
  0
LINE
  5
23435
330
233CC
100
AcDbEntity
  8
bolt
  6
Continuous
370
     5
100
AcDbLine
 10
28.27440254816611
 20
4.25000025982581
 30
0.0
 11
28.91250254816623
 21
3.600000259825719
 31
0.0
  0
LINE
  5
23436
330
233CC
100
AcDbEntity
  8
bolt
  6
Continuous
370
     5
100
AcDbLine
 10
28.91250254816623
 20
3.600000259825719
 30
0.0
 11
29.29680254816776
 21
4.25000025982581
 31
0.0
  0
LINE
  5
23437
330
233CC
100
AcDbEntity
  8
bolt
  6
Continuous
370
     5
100
AcDbLine
 10
28.84030254816753
 20
8.75000025982581
 30
0.0
 11
29.20210254816629
 21
9.400000259825901
 31
0.0
  0
LINE
  5
23438
330
233CC
100
AcDbEntity
  8
bolt
  6
Continuous
370
     5
100
AcDbLine
 10
29.20210254816629
 20
9.400000259825901
 30
0.0
 11
29.86260254816625
 21
8.75000025982581
 31
0.0
  0
LINE
  5
23439
330
233CC
100
AcDbEntity
  8
bolt
  6
Continuous
370
     5
100
AcDbLine
 10
29.29680254816776
 20
4.25000025982581
 30
0.0
 11
29.93490254816789
 21
3.600000259825719
 31
0.0
  0
LINE
  5
2343A
330
233CC
100
AcDbEntity
  8
bolt
  6
Continuous
370
     5
100
AcDbLine
 10
29.93490254816789
 20
3.600000259825719
 30
0.0
 11
30.31910254816648
 21
4.25000025982581
 31
0.0
  0
LINE
  5
2343B
330
233CC
100
AcDbEntity
  8
bolt
  6
Continuous
370
     5
100
AcDbLine
 10
29.86260254816625
 20
8.75000025982581
 30
0.0
 11
30.22440254816684
 21
9.400000259825901
 31
0.0
  0
LINE
  5
2343C
330
233CC
100
AcDbEntity
  8
bolt
  6
Continuous
370
     5
100
AcDbLine
 10
30.22440254816684
 20
9.400000259825901
 30
0.0
 11
30.88490254816679
 21
8.75000025982581
 31
0.0
  0
LINE
  5
2343D
330
233CC
100
AcDbEntity
  8
bolt
  6
Continuous
370
     5
100
AcDbLine
 10
30.31910254816648
 20
4.25000025982581
 30
0.0
 11
30.95720254816661
 21
3.600000259825719
 31
0.0
  0
LINE
  5
2343E
330
233CC
100
AcDbEntity
  8
bolt
  6
Continuous
370
     5
100
AcDbLine
 10
30.95720254816661
 20
3.600000259825719
 30
0.0
 11
31.34140254816703
 21
4.25000025982581
 31
0.0
  0
LINE
  5
2343F
330
233CC
100
AcDbEntity
  8
bolt
  6
Continuous
370
     5
100
AcDbLine
 10
30.88490254816679
 20
8.75000025982581
 30
0.0
 11
31.24680254816667
 21
9.400000259825901
 31
0.0
  0
LINE
  5
23440
330
233CC
100
AcDbEntity
  8
bolt
  6
Continuous
370
     5
100
AcDbLine
 10
31.24680254816667
 20
9.400000259825901
 30
0.0
 11
31.90730254816663
 21
8.75000025982581
 31
0.0
  0
LINE
  5
23441
330
233CC
100
AcDbEntity
  8
bolt
  6
Continuous
370
     5
100
AcDbLine
 10
31.34140254816703
 20
4.25000025982581
 30
0.0
 11
31.97960254816644
 21
3.600000259825719
 31
0.0
  0
LINE
  5
23442
330
233CC
100
AcDbEntity
  8
bolt
  6
Continuous
370
     5
100
AcDbLine
 10
31.97960254816644
 20
3.600000259825719
 30
0.0
 11
32.36380254816686
 21
4.25000025982581
 31
0.0
  0
LINE
  5
23443
330
233CC
100
AcDbEntity
  8
bolt
  6
Continuous
370
     5
100
AcDbLine
 10
31.90730254816663
 20
8.75000025982581
 30
0.0
 11
32.26910254816721
 21
9.400000259825901
 31
0.0
  0
LINE
  5
23444
330
233CC
100
AcDbEntity
  8
bolt
  6
Continuous
370
     5
100
AcDbLine
 10
32.26910254816721
 20
9.400000259825901
 30
0.0
 11
32.92960254816717
 21
8.75000025982581
 31
0.0
  0
LINE
  5
23445
330
233CC
100
AcDbEntity
  8
bolt
  6
Continuous
370
     5
100
AcDbLine
 10
32.36380254816686
 20
4.25000025982581
 30
0.0
 11
33.00190254816698
 21
3.600000259825719
 31
0.0
  0
LINE
  5
23446
330
233CC
100
AcDbEntity
  8
bolt
  6
Continuous
370
     5
100
AcDbLine
 10
33.00190254816698
 20
3.600000259825719
 30
0.0
 11
33.3861025481674
 21
4.25000025982581
 31
0.0
  0
LINE
  5
23447
330
233CC
100
AcDbEntity
  8
bolt
  6
Continuous
370
     5
100
AcDbLine
 10
32.92960254816717
 20
8.75000025982581
 30
0.0
 11
33.29140254816593
 21
9.400000259825901
 31
0.0
  0
LINE
  5
23448
330
233CC
100
AcDbEntity
  8
bolt
  6
Continuous
370
     5
100
AcDbLine
 10
33.29140254816593
 20
9.400000259825901
 30
0.0
 11
33.952002548167
 21
8.75000025982581
 31
0.0
  0
LINE
  5
23449
330
233CC
100
AcDbEntity
  8
bolt
  6
Continuous
370
     5
100
AcDbLine
 10
33.3861025481674
 20
4.25000025982581
 30
0.0
 11
34.02420254816752
 21
3.600000259825719
 31
0.0
  0
LINE
  5
2344A
330
233CC
100
AcDbEntity
  8
bolt
  6
Continuous
370
     5
100
AcDbLine
 10
34.02420254816752
 20
3.600000259825719
 30
0.0
 11
34.40850254816723
 21
4.25000025982581
 31
0.0
  0
LINE
  5
2344B
330
233CC
100
AcDbEntity
  8
bolt
  6
Continuous
370
     5
100
AcDbLine
 10
33.952002548167
 20
8.75000025982581
 30
0.0
 11
34.31380254816759
 21
9.400000259825901
 31
0.0
  0
LINE
  5
2344C
330
233CC
100
AcDbEntity
  8
bolt
  6
Continuous
370
     5
100
AcDbLine
 10
34.31380254816759
 20
9.400000259825901
 30
0.0
 11
34.97430254816573
 21
8.75000025982581
 31
0.0
  0
LINE
  5
2344D
330
233CC
100
AcDbEntity
  8
bolt
  6
Continuous
370
     5
100
AcDbLine
 10
34.40850254816723
 20
4.25000025982581
 30
0.0
 11
35.04660254816736
 21
3.600000259825719
 31
0.0
  0
LINE
  5
2344E
330
233CC
100
AcDbEntity
  8
bolt
  6
Continuous
370
     5
100
AcDbLine
 10
35.04660254816736
 20
3.600000259825719
 30
0.0
 11
35.43080254816596
 21
4.25000025982581
 31
0.0
  0
LINE
  5
2344F
330
233CC
100
AcDbEntity
  8
bolt
  6
Continuous
370
     5
100
AcDbLine
 10
34.97430254816573
 20
8.75000025982581
 30
0.0
 11
35.33610254816631
 21
9.400000259825901
 31
0.0
  0
LINE
  5
23450
330
233CC
100
AcDbEntity
  8
bolt
  6
Continuous
370
     5
100
AcDbLine
 10
35.33610254816631
 20
9.400000259825901
 30
0.0
 11
35.99660254816626
 21
8.75000025982581
 31
0.0
  0
LINE
  5
23451
330
233CC
100
AcDbEntity
  8
bolt
  6
Continuous
370
     5
100
AcDbLine
 10
35.43080254816596
 20
4.25000025982581
 30
0.0
 11
36.06890254816608
 21
3.600000259825719
 31
0.0
  0
LINE
  5
23452
330
233CC
100
AcDbEntity
  8
bolt
  6
Continuous
370
     5
100
AcDbLine
 10
36.06890254816608
 20
3.600000259825719
 30
0.0
 11
36.4531025481665
 21
4.25000025982581
 31
0.0
  0
LINE
  5
23453
330
233CC
100
AcDbEntity
  8
bolt
  6
Continuous
370
     5
100
AcDbLine
 10
50.38170254816577
 20
3.600000259825719
 30
0.0
 11
50.76590254816619
 21
4.25000025982581
 31
0.0
  0
LINE
  5
23454
330
233CC
100
AcDbEntity
  8
bolt
  6
Continuous
370
     5
100
AcDbLine
 10
50.30940254816596
 20
8.75000025982581
 30
0.0
 11
50.67120254816654
 21
9.400000259825901
 31
0.0
  0
LINE
  5
23455
330
233CC
100
AcDbEntity
  8
bolt
  6
Continuous
370
     5
100
AcDbLine
 10
50.67120254816654
 20
9.400000259825901
 30
0.0
 11
51.33170254816651
 21
8.75000025982581
 31
0.0
  0
LINE
  5
23456
330
233CC
100
AcDbEntity
  8
bolt
  6
Continuous
370
     5
100
AcDbLine
 10
50.76590254816619
 20
4.25000025982581
 30
0.0
 11
51.40400254816632
 21
3.600000259825719
 31
0.0
  0
LINE
  5
23457
330
233CC
100
AcDbEntity
  8
bolt
  6
Continuous
370
     5
100
AcDbLine
 10
51.40400254816632
 20
3.600000259825719
 30
0.0
 11
51.78820254816674
 21
4.25000025982581
 31
0.0
  0
LINE
  5
23458
330
233CC
100
AcDbEntity
  8
bolt
  6
Continuous
370
     5
100
AcDbLine
 10
26.22970254816755
 20
4.25000025982581
 30
0.0
 11
26.86790254816697
 21
3.600000259825719
 31
0.0
  0
LINE
  5
23459
330
233CC
100
AcDbEntity
  8
bolt
  6
Continuous
370
     5
100
AcDbLine
 10
26.86790254816697
 20
3.600000259825719
 30
0.0
 11
27.25210254816739
 21
4.25000025982581
 31
0.0
  0
LINE
  5
2345A
330
233CC
100
AcDbEntity
  8
bolt
  6
Continuous
370
     5
100
AcDbLine
 10
26.79560254816716
 20
8.75000025982581
 30
0.0
 11
27.15740254816774
 21
9.400000259825901
 31
0.0
  0
LINE
  5
2345B
330
233CC
100
AcDbEntity
  8
bolt
  6
Continuous
370
     5
100
AcDbLine
 10
27.15740254816774
 20
9.400000259825901
 30
0.0
 11
27.81790254816588
 21
8.75000025982581
 31
0.0
  0
LINE
  5
2345C
330
233CC
100
AcDbEntity
  8
bolt
  6
Continuous
370
     5
100
AcDbLine
 10
25.20740254816701
 20
4.25000025982581
 30
0.0
 11
25.84550254816714
 21
3.600000259825719
 31
0.0
  0
LINE
  5
2345D
330
233CC
100
AcDbEntity
  8
bolt
  6
Continuous
370
     5
100
AcDbLine
 10
25.84550254816714
 20
3.600000259825719
 30
0.0
 11
26.22970254816755
 21
4.25000025982581
 31
0.0
  0
LINE
  5
2345E
330
233CC
100
AcDbEntity
  8
bolt
  6
Continuous
370
     5
100
AcDbLine
 10
25.77320254816732
 20
8.75000025982581
 30
0.0
 11
26.13500254816609
 21
9.400000259825901
 31
0.0
  0
LINE
  5
2345F
330
233CC
100
AcDbEntity
  8
bolt
  6
Continuous
370
     5
100
AcDbLine
 10
26.13500254816609
 20
9.400000259825901
 30
0.0
 11
26.79560254816716
 21
8.75000025982581
 31
0.0
  0
LINE
  5
23460
330
233CC
100
AcDbEntity
  8
bolt
  6
Continuous
370
     5
100
AcDbLine
 10
24.18510254816647
 20
4.25000025982581
 30
0.0
 11
24.82320254816659
 21
3.600000259825719
 31
0.0
  0
LINE
  5
23461
330
233CC
100
AcDbEntity
  8
bolt
  6
Continuous
370
     5
100
AcDbLine
 10
24.82320254816659
 20
3.600000259825719
 30
0.0
 11
25.20740254816701
 21
4.25000025982581
 31
0.0
  0
LINE
  5
23462
330
233CC
100
AcDbEntity
  8
bolt
  6
Continuous
370
     5
100
AcDbLine
 10
24.75090254816678
 20
8.75000025982581
 30
0.0
 11
25.11270254816736
 21
9.400000259825901
 31
0.0
  0
LINE
  5
23463
330
233CC
100
AcDbEntity
  8
bolt
  6
Continuous
370
     5
100
AcDbLine
 10
25.11270254816736
 20
9.400000259825901
 30
0.0
 11
25.77320254816732
 21
8.75000025982581
 31
0.0
  0
LINE
  5
23464
330
233CC
100
AcDbEntity
  8
bolt
  6
Continuous
370
     5
100
AcDbLine
 10
2.621202548167275
 20
9.400000259825901
 30
0.0
 11
3.354002548167045
 21
3.600000259825719
 31
0.0
  0
LINE
  5
23465
330
233CC
100
AcDbEntity
  8
bolt
  6
Continuous
370
     5
100
AcDbLine
 10
3.281802548166524
 20
8.75000025982581
 30
0.0
 11
3.738302548166757
 21
4.25000025982581
 31
0.0
  0
LINE
  5
23466
330
233CC
100
AcDbEntity
  8
bolt
  6
Continuous
370
     5
100
AcDbLine
 10
3.643602548167109
 20
9.400000259825901
 30
0.0
 11
4.376402548166879
 21
3.600000259825719
 31
0.0
  0
LINE
  5
23467
330
233CC
100
AcDbEntity
  8
bolt
  6
Continuous
370
     5
100
AcDbLine
 10
4.304102548167065
 20
8.75000025982581
 30
0.0
 11
4.760602548167298
 21
4.25000025982581
 31
0.0
  0
LINE
  5
23468
330
233CC
100
AcDbEntity
  8
bolt
  6
Continuous
370
     5
100
AcDbLine
 10
4.66590254816765
 20
9.400000259825901
 30
0.0
 11
5.398702548165601
 21
3.600000259825719
 31
0.0
  0
LINE
  5
23469
330
233CC
100
AcDbEntity
  8
bolt
  6
Continuous
370
     5
100
AcDbLine
 10
5.326402548165788
 20
8.75000025982581
 30
0.0
 11
5.782902548166021
 21
4.25000025982581
 31
0.0
  0
LINE
  5
2346A
330
233CC
100
AcDbEntity
  8
bolt
  6
Continuous
370
     5
100
AcDbLine
 10
5.688202548166373
 20
9.400000259825901
 30
0.0
 11
6.421102548167255
 21
3.600000259825719
 31
0.0
  0
LINE
  5
2346B
330
233CC
100
AcDbEntity
  8
bolt
  6
Continuous
370
     5
100
AcDbLine
 10
6.348802548167441
 20
8.75000025982581
 30
0.0
 11
6.805302548167674
 21
4.25000025982581
 31
0.0
  0
LINE
  5
2346C
330
233CC
100
AcDbEntity
  8
bolt
  6
Continuous
370
     5
100
AcDbLine
 10
6.710602548166207
 20
9.400000259825901
 30
0.0
 11
7.443402548167796
 21
3.600000259825719
 31
0.0
  0
LINE
  5
2346D
330
233CC
100
AcDbEntity
  8
bolt
  6
Continuous
370
     5
100
AcDbLine
 10
7.371102548167982
 20
8.75000025982581
 30
0.0
 11
7.827602548166396
 21
4.25000025982581
 31
0.0
  0
LINE
  5
2346E
330
233CC
100
AcDbEntity
  8
bolt
  6
Continuous
370
     5
100
AcDbLine
 10
7.732902548166748
 20
9.400000259825901
 30
0.0
 11
8.465702548166518
 21
3.600000259825719
 31
0.0
  0
LINE
  5
2346F
330
233CC
100
AcDbEntity
  8
bolt
  6
Continuous
370
     5
100
AcDbLine
 10
8.393502548165997
 20
8.75000025982581
 30
0.0
 11
8.85000254816623
 21
4.25000025982581
 31
0.0
  0
LINE
  5
23470
330
233CC
100
AcDbEntity
  8
bolt
  6
Continuous
370
     5
100
AcDbLine
 10
8.755302548166582
 20
9.400000259825901
 30
0.0
 11
9.488102548166352
 21
3.600000259825719
 31
0.0
  0
LINE
  5
23471
330
233CC
100
AcDbEntity
  8
bolt
  6
Continuous
370
     5
100
AcDbLine
 10
9.415802548166539
 20
8.75000025982581
 30
0.0
 11
9.872302548166771
 21
4.25000025982581
 31
0.0
  0
LINE
  5
23472
330
233CC
100
AcDbEntity
  8
bolt
  6
Continuous
370
     5
100
AcDbLine
 10
9.777602548167124
 20
9.400000259825901
 30
0.0
 11
10.51040254816689
 21
3.600000259825719
 31
0.0
  0
LINE
  5
23473
330
233CC
100
AcDbEntity
  8
bolt
  6
Continuous
370
     5
100
AcDbLine
 10
10.43810254816708
 20
8.75000025982581
 30
0.0
 11
10.89460254816731
 21
4.25000025982581
 31
0.0
  0
LINE
  5
23474
330
233CC
100
AcDbEntity
  8
bolt
  6
Continuous
370
     5
100
AcDbLine
 10
10.79990254816584
 20
9.400000259825901
 30
0.0
 11
11.53280254816673
 21
3.600000259825719
 31
0.0
  0
LINE
  5
23475
330
233CC
100
AcDbEntity
  8
bolt
  6
Continuous
370
     5
100
AcDbLine
 10
11.46050254816691
 20
8.75000025982581
 30
0.0
 11
11.91700254816715
 21
4.25000025982581
 31
0.0
  0
LINE
  5
23476
330
233CC
100
AcDbEntity
  8
bolt
  6
Continuous
370
     5
100
AcDbLine
 10
11.8223025481675
 20
9.400000259825901
 30
0.0
 11
12.55510254816727
 21
3.600000259825719
 31
0.0
  0
LINE
  5
23477
330
233CC
100
AcDbEntity
  8
bolt
  6
Continuous
370
     5
100
AcDbLine
 10
12.48280254816563
 20
8.75000025982581
 30
0.0
 11
12.93930254816587
 21
4.25000025982581
 31
0.0
  0
LINE
  5
23478
330
233CC
100
AcDbEntity
  8
bolt
  6
Continuous
370
     5
100
AcDbLine
 10
12.84460254816622
 20
9.400000259825901
 30
0.0
 11
13.57740254816599
 21
3.600000259825719
 31
0.0
  0
LINE
  5
23479
330
233CC
100
AcDbEntity
  8
bolt
  6
Continuous
370
     5
100
AcDbLine
 10
13.50520254816729
 20
8.75000025982581
 30
0.0
 11
13.96170254816752
 21
4.25000025982581
 31
0.0
  0
LINE
  5
2347A
330
233CC
100
AcDbEntity
  8
bolt
  6
Continuous
370
     5
100
AcDbLine
 10
13.86700254816605
 20
9.400000259825901
 30
0.0
 11
14.59980254816764
 21
3.600000259825719
 31
0.0
  0
LINE
  5
2347B
330
233CC
100
AcDbEntity
  8
bolt
  6
Continuous
370
     5
100
AcDbLine
 10
14.52750254816783
 20
8.75000025982581
 30
0.0
 11
14.98400254816624
 21
4.25000025982581
 31
0.0
  0
LINE
  5
2347C
330
233CC
100
AcDbEntity
  8
bolt
  6
Continuous
370
     5
100
AcDbLine
 10
14.8893025481666
 20
9.400000259825901
 30
0.0
 11
15.62210254816637
 21
3.600000259825719
 31
0.0
  0
LINE
  5
2347D
330
233CC
100
AcDbEntity
  8
bolt
  6
Continuous
370
     5
100
AcDbLine
 10
15.54980254816655
 20
8.75000025982581
 30
0.0
 11
16.00630254816678
 21
4.25000025982581
 31
0.0
  0
LINE
  5
2347E
330
233CC
100
AcDbEntity
  8
bolt
  6
Continuous
370
     5
100
AcDbLine
 10
15.91160254816714
 20
9.400000259825901
 30
0.0
 11
16.6445025481662
 21
3.600000259825719
 31
0.0
  0
LINE
  5
2347F
330
233CC
100
AcDbEntity
  8
bolt
  6
Continuous
370
     5
100
AcDbLine
 10
16.57220254816639
 20
8.75000025982581
 30
0.0
 11
17.02870254816662
 21
4.25000025982581
 31
0.0
  0
LINE
  5
23480
330
233CC
100
AcDbEntity
  8
bolt
  6
Continuous
370
     5
100
AcDbLine
 10
16.93400254816697
 20
9.400000259825901
 30
0.0
 11
17.66680254816674
 21
3.600000259825719
 31
0.0
  0
LINE
  5
23481
330
233CC
100
AcDbEntity
  8
bolt
  6
Continuous
370
     5
100
AcDbLine
 10
17.59450254816693
 20
8.75000025982581
 30
0.0
 11
18.05100254816716
 21
4.25000025982581
 31
0.0
  0
LINE
  5
23482
330
233CC
100
AcDbEntity
  8
bolt
  6
Continuous
370
     5
100
AcDbLine
 10
17.95630254816569
 20
9.400000259825901
 30
0.0
 11
18.68910254816728
 21
3.600000259825719
 31
0.0
  0
LINE
  5
23483
330
233CC
100
AcDbEntity
  8
bolt
  6
Continuous
370
     5
100
AcDbLine
 10
18.61690254816676
 20
8.75000025982581
 30
0.0
 11
19.07340254816699
 21
4.25000025982581
 31
0.0
  0
LINE
  5
23484
330
233CC
100
AcDbEntity
  8
bolt
  6
Continuous
370
     5
100
AcDbLine
 10
18.97870254816735
 20
9.400000259825901
 30
0.0
 11
19.71150254816712
 21
3.600000259825719
 31
0.0
  0
LINE
  5
23485
330
233CC
100
AcDbEntity
  8
bolt
  6
Continuous
370
     5
100
AcDbLine
 10
19.6392025481673
 20
8.75000025982581
 30
0.0
 11
20.09570254816572
 21
4.25000025982581
 31
0.0
  0
LINE
  5
23486
330
233CC
100
AcDbEntity
  8
bolt
  6
Continuous
370
     5
100
AcDbLine
 10
20.00100254816789
 20
9.400000259825901
 30
0.0
 11
20.73380254816584
 21
3.600000259825719
 31
0.0
  0
LINE
  5
23487
330
233CC
100
AcDbEntity
  8
bolt
  6
Continuous
370
     5
100
AcDbLine
 10
20.66150254816603
 20
8.75000025982581
 30
0.0
 11
21.11800254816626
 21
4.25000025982581
 31
0.0
  0
LINE
  5
23488
330
233CC
100
AcDbEntity
  8
bolt
  6
Continuous
370
     5
100
AcDbLine
 10
21.02330254816661
 20
9.400000259825901
 30
0.0
 11
21.75620254816749
 21
3.600000259825719
 31
0.0
  0
LINE
  5
23489
330
233CC
100
AcDbEntity
  8
bolt
  6
Continuous
370
     5
100
AcDbLine
 10
21.68390254816768
 20
8.75000025982581
 30
0.0
 11
22.14040254816791
 21
4.25000025982581
 31
0.0
  0
LINE
  5
2348A
330
233CC
100
AcDbEntity
  8
bolt
  6
Continuous
370
     5
100
AcDbLine
 10
22.04570254816645
 20
9.400000259825901
 30
0.0
 11
22.77850254816621
 21
3.600000259825719
 31
0.0
  0
LINE
  5
2348B
330
233CC
100
AcDbEntity
  8
bolt
  6
Continuous
370
     5
100
AcDbLine
 10
22.7062025481664
 20
8.75000025982581
 30
0.0
 11
23.16270254816664
 21
4.25000025982581
 31
0.0
  0
LINE
  5
2348C
330
233CC
100
AcDbEntity
  8
bolt
  6
Continuous
370
     5
100
AcDbLine
 10
23.06800254816699
 20
9.400000259825901
 30
0.0
 11
23.80080254816676
 21
3.600000259825719
 31
0.0
  0
LINE
  5
2348D
330
233CC
100
AcDbEntity
  8
bolt
  6
Continuous
370
     5
100
AcDbLine
 10
23.72860254816623
 20
8.75000025982581
 30
0.0
 11
24.18510254816647
 21
4.25000025982581
 31
0.0
  0
LINE
  5
2348E
330
233CC
100
AcDbEntity
  8
bolt
  6
Continuous
370
     5
100
AcDbLine
 10
24.09040254816682
 20
9.400000259825901
 30
0.0
 11
24.82320254816659
 21
3.600000259825719
 31
0.0
  0
LINE
  5
2348F
330
233CC
100
AcDbEntity
  8
bolt
  6
Continuous
370
     5
100
AcDbLine
 10
24.75090254816678
 20
8.75000025982581
 30
0.0
 11
25.20740254816701
 21
4.25000025982581
 31
0.0
  0
LINE
  5
23490
330
233CC
100
AcDbEntity
  8
bolt
  6
Continuous
370
     5
100
AcDbLine
 10
25.11270254816736
 20
9.400000259825901
 30
0.0
 11
25.84550254816714
 21
3.600000259825719
 31
0.0
  0
LINE
  5
23491
330
233CC
100
AcDbEntity
  8
bolt
  6
Continuous
370
     5
100
AcDbLine
 10
25.77320254816732
 20
8.75000025982581
 30
0.0
 11
26.22970254816755
 21
4.25000025982581
 31
0.0
  0
LINE
  5
23492
330
233CC
100
AcDbEntity
  8
bolt
  6
Continuous
370
     5
100
AcDbLine
 10
26.13500254816609
 20
9.400000259825901
 30
0.0
 11
26.86790254816697
 21
3.600000259825719
 31
0.0
  0
LINE
  5
23493
330
233CC
100
AcDbEntity
  8
bolt
  6
Continuous
370
     5
100
AcDbLine
 10
26.79560254816716
 20
8.75000025982581
 30
0.0
 11
27.25210254816739
 21
4.25000025982581
 31
0.0
  0
LINE
  5
23494
330
233CC
100
AcDbEntity
  8
bolt
  6
Continuous
370
     5
100
AcDbLine
 10
27.15740254816774
 20
9.400000259825901
 30
0.0
 11
27.89020254816569
 21
3.600000259825719
 31
0.0
  0
LINE
  5
23495
330
233CC
100
AcDbEntity
  8
bolt
  6
Continuous
370
     5
100
AcDbLine
 10
27.81790254816588
 20
8.75000025982581
 30
0.0
 11
28.27440254816611
 21
4.25000025982581
 31
0.0
  0
LINE
  5
23496
330
233CC
100
AcDbEntity
  8
bolt
  6
Continuous
370
     5
100
AcDbLine
 10
28.17970254816646
 20
9.400000259825901
 30
0.0
 11
28.91250254816623
 21
3.600000259825719
 31
0.0
  0
LINE
  5
23497
330
233CC
100
AcDbEntity
  8
bolt
  6
Continuous
370
     5
100
AcDbLine
 10
28.84030254816753
 20
8.75000025982581
 30
0.0
 11
29.29680254816776
 21
4.25000025982581
 31
0.0
  0
LINE
  5
23498
330
233CC
100
AcDbEntity
  8
bolt
  6
Continuous
370
     5
100
AcDbLine
 10
29.20210254816629
 20
9.400000259825901
 30
0.0
 11
29.93490254816789
 21
3.600000259825719
 31
0.0
  0
LINE
  5
23499
330
233CC
100
AcDbEntity
  8
bolt
  6
Continuous
370
     5
100
AcDbLine
 10
29.86260254816625
 20
8.75000025982581
 30
0.0
 11
30.31910254816648
 21
4.25000025982581
 31
0.0
  0
LINE
  5
2349A
330
233CC
100
AcDbEntity
  8
bolt
  6
Continuous
370
     5
100
AcDbLine
 10
30.22440254816684
 20
9.400000259825901
 30
0.0
 11
30.95720254816661
 21
3.600000259825719
 31
0.0
  0
LINE
  5
2349B
330
233CC
100
AcDbEntity
  8
bolt
  6
Continuous
370
     5
100
AcDbLine
 10
30.88490254816679
 20
8.75000025982581
 30
0.0
 11
31.34140254816703
 21
4.25000025982581
 31
0.0
  0
LINE
  5
2349C
330
233CC
100
AcDbEntity
  8
bolt
  6
Continuous
370
     5
100
AcDbLine
 10
31.24680254816667
 20
9.400000259825901
 30
0.0
 11
31.97960254816644
 21
3.600000259825719
 31
0.0
  0
LINE
  5
2349D
330
233CC
100
AcDbEntity
  8
bolt
  6
Continuous
370
     5
100
AcDbLine
 10
31.90730254816663
 20
8.75000025982581
 30
0.0
 11
32.36380254816686
 21
4.25000025982581
 31
0.0
  0
LINE
  5
2349E
330
233CC
100
AcDbEntity
  8
bolt
  6
Continuous
370
     5
100
AcDbLine
 10
32.26910254816721
 20
9.400000259825901
 30
0.0
 11
33.00190254816698
 21
3.600000259825719
 31
0.0
  0
LINE
  5
2349F
330
233CC
100
AcDbEntity
  8
bolt
  6
Continuous
370
     5
100
AcDbLine
 10
32.92960254816717
 20
8.75000025982581
 30
0.0
 11
33.3861025481674
 21
4.25000025982581
 31
0.0
  0
LINE
  5
234A0
330
233CC
100
AcDbEntity
  8
bolt
  6
Continuous
370
     5
100
AcDbLine
 10
33.29140254816593
 20
9.400000259825901
 30
0.0
 11
34.02420254816752
 21
3.600000259825719
 31
0.0
  0
LINE
  5
234A1
330
233CC
100
AcDbEntity
  8
bolt
  6
Continuous
370
     5
100
AcDbLine
 10
33.952002548167
 20
8.75000025982581
 30
0.0
 11
34.40850254816723
 21
4.25000025982581
 31
0.0
  0
LINE
  5
234A2
330
233CC
100
AcDbEntity
  8
bolt
  6
Continuous
370
     5
100
AcDbLine
 10
34.31380254816759
 20
9.400000259825901
 30
0.0
 11
35.04660254816736
 21
3.600000259825719
 31
0.0
  0
LINE
  5
234A3
330
233CC
100
AcDbEntity
  8
bolt
  6
Continuous
370
     5
100
AcDbLine
 10
34.97430254816573
 20
8.75000025982581
 30
0.0
 11
35.43080254816596
 21
4.25000025982581
 31
0.0
  0
LINE
  5
234A4
330
233CC
100
AcDbEntity
  8
bolt
  6
Continuous
370
     5
100
AcDbLine
 10
35.33610254816631
 20
9.400000259825901
 30
0.0
 11
36.06890254816608
 21
3.600000259825719
 31
0.0
  0
LINE
  5
234A5
330
233CC
100
AcDbEntity
  8
bolt
  6
Continuous
370
     5
100
AcDbLine
 10
35.99660254816626
 20
8.75000025982581
 30
0.0
 11
36.4531025481665
 21
4.25000025982581
 31
0.0
  0
LINE
  5
234A6
330
233CC
100
AcDbEntity
  8
bolt
  6
Continuous
370
     5
100
AcDbLine
 10
50.30940254816596
 20
8.75000025982581
 30
0.0
 11
50.76590254816619
 21
4.25000025982581
 31
0.0
  0
LINE
  5
234A7
330
233CC
100
AcDbEntity
  8
bolt
  6
Continuous
370
     5
100
AcDbLine
 10
50.67120254816654
 20
9.400000259825901
 30
0.0
 11
51.40400254816632
 21
3.600000259825719
 31
0.0
  0
LINE
  5
234A8
330
233CC
100
AcDbEntity
  8
bolt
  6
Continuous
370
     5
100
AcDbLine
 10
51.33170254816651
 20
8.75000025982581
 30
0.0
 11
51.78820254816674
 21
4.25000025982581
 31
0.0
  0
LINE
  5
234A9
330
233CC
100
AcDbEntity
  8
bolt
  6
Continuous
370
     5
100
AcDbLine
 10
52.10030254816593
 20
8.75000025982581
 30
0.0
 11
52.10030254816593
 21
4.25000025982581
 31
0.0
  0
LINE
  5
234AA
330
233CC
100
AcDbEntity
  8
bolt
  6
Continuous
370
     5
100
AcDbLine
 10
51.33170254816651
 20
8.75000025982581
 30
0.0
 11
52.10030254816593
 21
8.75000025982581
 31
0.0
  0
LINE
  5
234AB
330
233CC
100
AcDbEntity
  8
bolt
  6
Continuous
370
     5
100
AcDbLine
 10
51.78820254816674
 20
4.25000025982581
 30
0.0
 11
52.10030254816593
 21
4.25000025982581
 31
0.0
  0
LINE
  5
234AC
330
233CC
100
AcDbEntity
  8
bolt
  6
Continuous
370
     5
100
AcDbLine
 10
2.25940254816669
 20
8.75000025982581
 30
0.0
 11
2.715902548166923
 21
4.25000025982581
 31
0.0
  0
LINE
  5
234AD
330
233CC
100
AcDbEntity
  8
bolt
  6
Continuous
370
     5
100
AcDbLine
 10
49.28710254816724
 20
8.75000025982581
 30
0.0
 11
49.64890254816783
 21
9.400000259825901
 31
0.0
  0
LINE
  5
234AE
330
233CC
100
AcDbEntity
  8
bolt
  6
Continuous
370
     5
100
AcDbLine
 10
49.64890254816783
 20
9.400000259825901
 30
0.0
 11
50.30940254816596
 21
8.75000025982581
 31
0.0
  0
LINE
  5
234AF
330
233CC
100
AcDbEntity
  8
bolt
  6
Continuous
370
     5
100
AcDbLine
 10
49.74360254816565
 20
4.25000025982581
 30
0.0
 11
50.38170254816577
 21
3.600000259825719
 31
0.0
  0
LINE
  5
234B0
330
233CC
100
AcDbEntity
  8
bolt
  6
Continuous
370
     5
100
AcDbLine
 10
49.28710254816724
 20
8.75000025982581
 30
0.0
 11
49.74360254816565
 21
4.25000025982581
 31
0.0
  0
LINE
  5
234B1
330
233CC
100
AcDbEntity
  8
bolt
  6
Continuous
370
     5
100
AcDbLine
 10
49.64890254816783
 20
9.400000259825901
 30
0.0
 11
50.38170254816577
 21
3.600000259825719
 31
0.0
  0
LINE
  5
234B2
330
233CC
100
AcDbEntity
  8
0
  6
Continuous
 62
     5
370
     5
100
AcDbLine
 10
3.60000254816623
 20
13.00000025982581
 30
0.0
 11
3.60000254816623
 21
0.0000002598258106
 31
0.0
  0
LINE
  5
234B3
330
233CC
100
AcDbEntity
  8
0
  6
Continuous
 62
     5
370
     5
100
AcDbLine
 10
4.60000254816623
 20
13.00000025982581
 30
0.0
 11
4.60000254816623
 21
0.0000002598258106
 31
0.0
  0
LINE
  5
234B4
330
233CC
100
AcDbEntity
  8
一般
  6
Continuous
 62
     5
370
    13
100
AcDbLine
 10
2.10000254816623
 20
0.4000002598259016
 30
0.0
 11
3.60000254816623
 21
0.4000002598259016
 31
0.0
  0
LINE
  5
234B5
330
233CC
100
AcDbEntity
  8
一般
  6
Continuous
 62
     5
370
    13
100
AcDbLine
 10
2.10000254816623
 20
6.100000259825719
 30
0.0
 11
3.60000254816623
 21
6.100000259825719
 31
0.0
  0
LINE
  5
234B6
330
233CC
100
AcDbEntity
  8
一般
  6
Continuous
 62
     5
370
    13
100
AcDbLine
 10
2.10000254816623
 20
12.60000025982572
 30
0.0
 11
3.60000254816623
 21
12.60000025982572
 31
0.0
  0
LINE
  5
234B7
330
233CC
100
AcDbEntity
  8
一般
  6
Continuous
 62
     5
370
    13
100
AcDbLine
 10
2.10000254816623
 20
6.900000259825901
 30
0.0
 11
3.60000254816623
 21
6.900000259825901
 31
0.0
  0
LINE
  5
234B8
330
233CC
100
AcDbEntity
  8
一般
  6
Continuous
 62
     5
370
    13
100
AcDbLine
 10
3.60000254816623
 20
13.00000025982581
 30
0.0
 11
4.60000254816623
 21
13.00000025982581
 31
0.0
  0
LINE
  5
234B9
330
233CC
100
AcDbEntity
  8
一般
  6
Continuous
 62
     5
370
    13
100
AcDbLine
 10
4.60000254816623
 20
0.0000002598258106
 30
0.0
 11
3.60000254816623
 21
0.0000002598258106
 31
0.0
  0
LINE
  5
234BA
330
233CC
100
AcDbEntity
  8
bolt
  6
Continuous
370
     5
100
AcDbLine
 10
35.99660254816626
 20
8.75000025982581
 30
0.0
 11
36.35840254816685
 21
9.400000259825901
 31
0.0
  0
LINE
  5
234BB
330
233CC
100
AcDbEntity
  8
bolt
  6
Continuous
370
     5
100
AcDbLine
 10
36.35840254816685
 20
9.400000259825901
 30
0.0
 11
37.01890254816681
 21
8.75000025982581
 31
0.0
  0
LINE
  5
234BC
330
233CC
100
AcDbEntity
  8
bolt
  6
Continuous
370
     5
100
AcDbLine
 10
36.4531025481665
 20
4.25000025982581
 30
0.0
 11
37.09120254816662
 21
3.600000259825719
 31
0.0
  0
LINE
  5
234BD
330
233CC
100
AcDbEntity
  8
bolt
  6
Continuous
370
     5
100
AcDbLine
 10
37.09120254816662
 20
3.600000259825719
 30
0.0
 11
37.47540254816704
 21
4.25000025982581
 31
0.0
  0
LINE
  5
234BE
330
233CC
100
AcDbEntity
  8
bolt
  6
Continuous
370
     5
100
AcDbLine
 10
36.35840254816685
 20
9.400000259825901
 30
0.0
 11
37.09120254816662
 21
3.600000259825719
 31
0.0
  0
LINE
  5
234BF
330
233CC
100
AcDbEntity
  8
bolt
  6
Continuous
370
     5
100
AcDbLine
 10
37.01890254816681
 20
8.75000025982581
 30
0.0
 11
37.47540254816704
 21
4.25000025982581
 31
0.0
  0
LINE
  5
234C0
330
233CC
100
AcDbEntity
  8
bolt
  6
Continuous
370
     5
100
AcDbLine
 10
48.2648025481667
 20
8.75000025982581
 30
0.0
 11
48.62660254816728
 21
9.400000259825901
 31
0.0
  0
LINE
  5
234C1
330
233CC
100
AcDbEntity
  8
bolt
  6
Continuous
370
     5
100
AcDbLine
 10
48.62660254816728
 20
9.400000259825901
 30
0.0
 11
49.28710254816724
 21
8.75000025982581
 31
0.0
  0
LINE
  5
234C2
330
233CC
100
AcDbEntity
  8
bolt
  6
Continuous
370
     5
100
AcDbLine
 10
48.72130254816693
 20
4.25000025982581
 30
0.0
 11
49.35940254816705
 21
3.600000259825719
 31
0.0
  0
LINE
  5
234C3
330
233CC
100
AcDbEntity
  8
bolt
  6
Continuous
370
     5
100
AcDbLine
 10
49.35940254816705
 20
3.600000259825719
 30
0.0
 11
49.74360254816565
 21
4.25000025982581
 31
0.0
  0
LINE
  5
234C4
330
233CC
100
AcDbEntity
  8
bolt
  6
Continuous
370
     5
100
AcDbLine
 10
48.2648025481667
 20
8.75000025982581
 30
0.0
 11
48.72130254816693
 21
4.25000025982581
 31
0.0
  0
LINE
  5
234C5
330
233CC
100
AcDbEntity
  8
bolt
  6
Continuous
370
     5
100
AcDbLine
 10
48.62660254816728
 20
9.400000259825901
 30
0.0
 11
49.35940254816705
 21
3.600000259825719
 31
0.0
  0
LINE
  5
234C6
330
233CC
100
AcDbEntity
  8
bolt
  6
Continuous
370
     5
100
AcDbLine
 10
49.28710254816724
 20
8.75000025982581
 30
0.0
 11
49.74360254816565
 21
4.25000025982581
 31
0.0
  0
LINE
  5
234C7
330
233CC
100
AcDbEntity
  8
bolt
  6
Continuous
370
     5
100
AcDbLine
 10
38.04140254816593
 20
8.75000025982581
 30
0.0
 11
38.40320254816652
 21
9.400000259825901
 31
0.0
  0
LINE
  5
234C8
330
233CC
100
AcDbEntity
  8
bolt
  6
Continuous
370
     5
100
AcDbLine
 10
38.40320254816652
 20
9.400000259825901
 30
0.0
 11
39.06380254816759
 21
8.75000025982581
 31
0.0
  0
LINE
  5
234C9
330
233CC
100
AcDbEntity
  8
bolt
  6
Continuous
370
     5
100
AcDbLine
 10
38.49790254816617
 20
4.25000025982581
 30
0.0
 11
39.13600254816629
 21
3.600000259825719
 31
0.0
  0
LINE
  5
234CA
330
233CC
100
AcDbEntity
  8
bolt
  6
Continuous
370
     5
100
AcDbLine
 10
39.13600254816629
 20
3.600000259825719
 30
0.0
 11
39.520302548166
 21
4.25000025982581
 31
0.0
  0
LINE
  5
234CB
330
233CC
100
AcDbEntity
  8
bolt
  6
Continuous
370
     5
100
AcDbLine
 10
39.06380254816759
 20
8.75000025982581
 30
0.0
 11
39.42560254816635
 21
9.400000259825901
 31
0.0
  0
LINE
  5
234CC
330
233CC
100
AcDbEntity
  8
bolt
  6
Continuous
370
     5
100
AcDbLine
 10
39.42560254816635
 20
9.400000259825901
 30
0.0
 11
40.0861025481663
 21
8.75000025982581
 31
0.0
  0
LINE
  5
234CD
330
233CC
100
AcDbEntity
  8
bolt
  6
Continuous
370
     5
100
AcDbLine
 10
39.520302548166
 20
4.25000025982581
 30
0.0
 11
40.15840254816612
 21
3.600000259825719
 31
0.0
  0
LINE
  5
234CE
330
233CC
100
AcDbEntity
  8
bolt
  6
Continuous
370
     5
100
AcDbLine
 10
40.15840254816612
 20
3.600000259825719
 30
0.0
 11
40.54260254816654
 21
4.25000025982581
 31
0.0
  0
LINE
  5
234CF
330
233CC
100
AcDbEntity
  8
bolt
  6
Continuous
370
     5
100
AcDbLine
 10
40.0861025481663
 20
8.75000025982581
 30
0.0
 11
40.44790254816689
 21
9.400000259825901
 31
0.0
  0
LINE
  5
234D0
330
233CC
100
AcDbEntity
  8
bolt
  6
Continuous
370
     5
100
AcDbLine
 10
40.44790254816689
 20
9.400000259825901
 30
0.0
 11
41.10850254816614
 21
8.75000025982581
 31
0.0
  0
LINE
  5
234D1
330
233CC
100
AcDbEntity
  8
bolt
  6
Continuous
370
     5
100
AcDbLine
 10
40.54260254816654
 20
4.25000025982581
 30
0.0
 11
41.18070254816666
 21
3.600000259825719
 31
0.0
  0
LINE
  5
234D2
330
233CC
100
AcDbEntity
  8
bolt
  6
Continuous
370
     5
100
AcDbLine
 10
41.18070254816666
 20
3.600000259825719
 30
0.0
 11
41.56500254816637
 21
4.25000025982581
 31
0.0
  0
LINE
  5
234D3
330
233CC
100
AcDbEntity
  8
bolt
  6
Continuous
370
     5
100
AcDbLine
 10
41.10850254816614
 20
8.75000025982581
 30
0.0
 11
41.47030254816672
 21
9.400000259825901
 31
0.0
  0
LINE
  5
234D4
330
233CC
100
AcDbEntity
  8
bolt
  6
Continuous
370
     5
100
AcDbLine
 10
41.47030254816672
 20
9.400000259825901
 30
0.0
 11
42.13080254816668
 21
8.75000025982581
 31
0.0
  0
LINE
  5
234D5
330
233CC
100
AcDbEntity
  8
bolt
  6
Continuous
370
     5
100
AcDbLine
 10
41.56500254816637
 20
4.25000025982581
 30
0.0
 11
42.2031025481665
 21
3.600000259825719
 31
0.0
  0
LINE
  5
234D6
330
233CC
100
AcDbEntity
  8
bolt
  6
Continuous
370
     5
100
AcDbLine
 10
42.2031025481665
 20
3.600000259825719
 30
0.0
 11
42.58730254816692
 21
4.25000025982581
 31
0.0
  0
LINE
  5
234D7
330
233CC
100
AcDbEntity
  8
bolt
  6
Continuous
370
     5
100
AcDbLine
 10
42.13080254816668
 20
8.75000025982581
 30
0.0
 11
42.49260254816727
 21
9.400000259825901
 31
0.0
  0
LINE
  5
234D8
330
233CC
100
AcDbEntity
  8
bolt
  6
Continuous
370
     5
100
AcDbLine
 10
42.49260254816727
 20
9.400000259825901
 30
0.0
 11
43.15310254816722
 21
8.75000025982581
 31
0.0
  0
LINE
  5
234D9
330
233CC
100
AcDbEntity
  8
bolt
  6
Continuous
370
     5
100
AcDbLine
 10
42.58730254816692
 20
4.25000025982581
 30
0.0
 11
43.22540254816703
 21
3.600000259825719
 31
0.0
  0
LINE
  5
234DA
330
233CC
100
AcDbEntity
  8
bolt
  6
Continuous
370
     5
100
AcDbLine
 10
43.22540254816703
 20
3.600000259825719
 30
0.0
 11
43.60960254816745
 21
4.25000025982581
 31
0.0
  0
LINE
  5
234DB
330
233CC
100
AcDbEntity
  8
bolt
  6
Continuous
370
     5
100
AcDbLine
 10
43.15310254816722
 20
8.75000025982581
 30
0.0
 11
43.51490254816599
 21
9.400000259825901
 31
0.0
  0
LINE
  5
234DC
330
233CC
100
AcDbEntity
  8
bolt
  6
Continuous
370
     5
100
AcDbLine
 10
43.51490254816599
 20
9.400000259825901
 30
0.0
 11
44.17550254816705
 21
8.75000025982581
 31
0.0
  0
LINE
  5
234DD
330
233CC
100
AcDbEntity
  8
bolt
  6
Continuous
370
     5
100
AcDbLine
 10
43.60960254816745
 20
4.25000025982581
 30
0.0
 11
44.24780254816687
 21
3.600000259825719
 31
0.0
  0
LINE
  5
234DE
330
233CC
100
AcDbEntity
  8
bolt
  6
Continuous
370
     5
100
AcDbLine
 10
44.24780254816687
 20
3.600000259825719
 30
0.0
 11
44.63200254816547
 21
4.25000025982581
 31
0.0
  0
LINE
  5
234DF
330
233CC
100
AcDbEntity
  8
bolt
  6
Continuous
370
     5
100
AcDbLine
 10
44.17550254816705
 20
8.75000025982581
 30
0.0
 11
44.53730254816583
 21
9.400000259825901
 31
0.0
  0
LINE
  5
234E0
330
233CC
100
AcDbEntity
  8
bolt
  6
Continuous
370
     5
100
AcDbLine
 10
44.53730254816583
 20
9.400000259825901
 30
0.0
 11
45.19780254816578
 21
8.75000025982581
 31
0.0
  0
LINE
  5
234E1
330
233CC
100
AcDbEntity
  8
bolt
  6
Continuous
370
     5
100
AcDbLine
 10
44.63200254816547
 20
4.25000025982581
 30
0.0
 11
45.27010254816559
 21
3.600000259825719
 31
0.0
  0
LINE
  5
234E2
330
233CC
100
AcDbEntity
  8
bolt
  6
Continuous
370
     5
100
AcDbLine
 10
38.40320254816652
 20
9.400000259825901
 30
0.0
 11
39.13600254816629
 21
3.600000259825719
 31
0.0
  0
LINE
  5
234E3
330
233CC
100
AcDbEntity
  8
bolt
  6
Continuous
370
     5
100
AcDbLine
 10
39.06380254816759
 20
8.75000025982581
 30
0.0
 11
39.520302548166
 21
4.25000025982581
 31
0.0
  0
LINE
  5
234E4
330
233CC
100
AcDbEntity
  8
bolt
  6
Continuous
370
     5
100
AcDbLine
 10
39.42560254816635
 20
9.400000259825901
 30
0.0
 11
40.15840254816612
 21
3.600000259825719
 31
0.0
  0
LINE
  5
234E5
330
233CC
100
AcDbEntity
  8
bolt
  6
Continuous
370
     5
100
AcDbLine
 10
40.0861025481663
 20
8.75000025982581
 30
0.0
 11
40.54260254816654
 21
4.25000025982581
 31
0.0
  0
LINE
  5
234E6
330
233CC
100
AcDbEntity
  8
bolt
  6
Continuous
370
     5
100
AcDbLine
 10
40.44790254816689
 20
9.400000259825901
 30
0.0
 11
41.18070254816666
 21
3.600000259825719
 31
0.0
  0
LINE
  5
234E7
330
233CC
100
AcDbEntity
  8
bolt
  6
Continuous
370
     5
100
AcDbLine
 10
41.10850254816614
 20
8.75000025982581
 30
0.0
 11
41.56500254816637
 21
4.25000025982581
 31
0.0
  0
LINE
  5
234E8
330
233CC
100
AcDbEntity
  8
bolt
  6
Continuous
370
     5
100
AcDbLine
 10
41.47030254816672
 20
9.400000259825901
 30
0.0
 11
42.2031025481665
 21
3.600000259825719
 31
0.0
  0
LINE
  5
234E9
330
233CC
100
AcDbEntity
  8
bolt
  6
Continuous
370
     5
100
AcDbLine
 10
42.13080254816668
 20
8.75000025982581
 30
0.0
 11
42.58730254816692
 21
4.25000025982581
 31
0.0
  0
LINE
  5
234EA
330
233CC
100
AcDbEntity
  8
bolt
  6
Continuous
370
     5
100
AcDbLine
 10
42.49260254816727
 20
9.400000259825901
 30
0.0
 11
43.22540254816703
 21
3.600000259825719
 31
0.0
  0
LINE
  5
234EB
330
233CC
100
AcDbEntity
  8
bolt
  6
Continuous
370
     5
100
AcDbLine
 10
43.15310254816722
 20
8.75000025982581
 30
0.0
 11
43.60960254816745
 21
4.25000025982581
 31
0.0
  0
LINE
  5
234EC
330
233CC
100
AcDbEntity
  8
bolt
  6
Continuous
370
     5
100
AcDbLine
 10
43.51490254816599
 20
9.400000259825901
 30
0.0
 11
44.24780254816687
 21
3.600000259825719
 31
0.0
  0
LINE
  5
234ED
330
233CC
100
AcDbEntity
  8
bolt
  6
Continuous
370
     5
100
AcDbLine
 10
44.17550254816705
 20
8.75000025982581
 30
0.0
 11
44.63200254816547
 21
4.25000025982581
 31
0.0
  0
LINE
  5
234EE
330
233CC
100
AcDbEntity
  8
bolt
  6
Continuous
370
     5
100
AcDbLine
 10
44.53730254816583
 20
9.400000259825901
 30
0.0
 11
45.27010254816559
 21
3.600000259825719
 31
0.0
  0
LINE
  5
234EF
330
233CC
100
AcDbEntity
  8
bolt
  6
Continuous
370
     5
100
AcDbLine
 10
45.27010254816559
 20
3.600000259825719
 30
0.0
 11
45.65430254816601
 21
4.25000025982581
 31
0.0
  0
LINE
  5
234F0
330
233CC
100
AcDbEntity
  8
bolt
  6
Continuous
370
     5
100
AcDbLine
 10
45.19780254816578
 20
8.75000025982581
 30
0.0
 11
45.55960254816636
 21
9.400000259825901
 31
0.0
  0
LINE
  5
234F1
330
233CC
100
AcDbEntity
  8
bolt
  6
Continuous
370
     5
100
AcDbLine
 10
45.55960254816636
 20
9.400000259825901
 30
0.0
 11
46.22020254816743
 21
8.75000025982581
 31
0.0
  0
LINE
  5
234F2
330
233CC
100
AcDbEntity
  8
bolt
  6
Continuous
370
     5
100
AcDbLine
 10
45.65430254816601
 20
4.25000025982581
 30
0.0
 11
46.29240254816614
 21
3.600000259825719
 31
0.0
  0
LINE
  5
234F3
330
233CC
100
AcDbEntity
  8
bolt
  6
Continuous
370
     5
100
AcDbLine
 10
46.29240254816614
 20
3.600000259825719
 30
0.0
 11
46.67670254816584
 21
4.25000025982581
 31
0.0
  0
LINE
  5
234F4
330
233CC
100
AcDbEntity
  8
bolt
  6
Continuous
370
     5
100
AcDbLine
 10
46.22020254816743
 20
8.75000025982581
 30
0.0
 11
46.5820025481662
 21
9.400000259825901
 31
0.0
  0
LINE
  5
234F5
330
233CC
100
AcDbEntity
  8
bolt
  6
Continuous
370
     5
100
AcDbLine
 10
46.5820025481662
 20
9.400000259825901
 30
0.0
 11
47.24250254816616
 21
8.75000025982581
 31
0.0
  0
LINE
  5
234F6
330
233CC
100
AcDbEntity
  8
bolt
  6
Continuous
370
     5
100
AcDbLine
 10
46.67670254816584
 20
4.25000025982581
 30
0.0
 11
47.31480254816597
 21
3.600000259825719
 31
0.0
  0
LINE
  5
234F7
330
233CC
100
AcDbEntity
  8
bolt
  6
Continuous
370
     5
100
AcDbLine
 10
47.31480254816597
 20
3.600000259825719
 30
0.0
 11
47.69900254816639
 21
4.25000025982581
 31
0.0
  0
LINE
  5
234F8
330
233CC
100
AcDbEntity
  8
bolt
  6
Continuous
370
     5
100
AcDbLine
 10
47.24250254816616
 20
8.75000025982581
 30
0.0
 11
47.60430254816674
 21
9.400000259825901
 31
0.0
  0
LINE
  5
234F9
330
233CC
100
AcDbEntity
  8
bolt
  6
Continuous
370
     5
100
AcDbLine
 10
47.60430254816674
 20
9.400000259825901
 30
0.0
 11
48.2648025481667
 21
8.75000025982581
 31
0.0
  0
LINE
  5
234FA
330
233CC
100
AcDbEntity
  8
bolt
  6
Continuous
370
     5
100
AcDbLine
 10
47.69900254816639
 20
4.25000025982581
 30
0.0
 11
48.33710254816651
 21
3.600000259825719
 31
0.0
  0
LINE
  5
234FB
330
233CC
100
AcDbEntity
  8
bolt
  6
Continuous
370
     5
100
AcDbLine
 10
48.33710254816651
 20
3.600000259825719
 30
0.0
 11
48.72130254816693
 21
4.25000025982581
 31
0.0
  0
LINE
  5
234FC
330
233CC
100
AcDbEntity
  8
bolt
  6
Continuous
370
     5
100
AcDbLine
 10
45.19780254816578
 20
8.75000025982581
 30
0.0
 11
45.65430254816601
 21
4.25000025982581
 31
0.0
  0
LINE
  5
234FD
330
233CC
100
AcDbEntity
  8
bolt
  6
Continuous
370
     5
100
AcDbLine
 10
45.55960254816636
 20
9.400000259825901
 30
0.0
 11
46.29240254816614
 21
3.600000259825719
 31
0.0
  0
LINE
  5
234FE
330
233CC
100
AcDbEntity
  8
bolt
  6
Continuous
370
     5
100
AcDbLine
 10
46.22020254816743
 20
8.75000025982581
 30
0.0
 11
46.67670254816584
 21
4.25000025982581
 31
0.0
  0
LINE
  5
234FF
330
233CC
100
AcDbEntity
  8
bolt
  6
Continuous
370
     5
100
AcDbLine
 10
46.5820025481662
 20
9.400000259825901
 30
0.0
 11
47.31480254816597
 21
3.600000259825719
 31
0.0
  0
LINE
  5
23500
330
233CC
100
AcDbEntity
  8
bolt
  6
Continuous
370
     5
100
AcDbLine
 10
47.24250254816616
 20
8.75000025982581
 30
0.0
 11
47.69900254816639
 21
4.25000025982581
 31
0.0
  0
LINE
  5
23501
330
233CC
100
AcDbEntity
  8
bolt
  6
Continuous
370
     5
100
AcDbLine
 10
47.60430254816674
 20
9.400000259825901
 30
0.0
 11
48.33710254816651
 21
3.600000259825719
 31
0.0
  0
LINE
  5
23502
330
233CC
100
AcDbEntity
  8
bolt
  6
Continuous
370
     5
100
AcDbLine
 10
37.0190025481661
 20
8.75000025982581
 30
0.0
 11
37.38080254816669
 21
9.400000259825901
 31
0.0
  0
LINE
  5
23503
330
233CC
100
AcDbEntity
  8
bolt
  6
Continuous
370
     5
100
AcDbLine
 10
37.38080254816669
 20
9.400000259825901
 30
0.0
 11
38.04140254816593
 21
8.75000025982581
 31
0.0
  0
LINE
  5
23504
330
233CC
100
AcDbEntity
  8
bolt
  6
Continuous
370
     5
100
AcDbLine
 10
37.47550254816633
 20
4.25000025982581
 30
0.0
 11
38.11360254816646
 21
3.600000259825719
 31
0.0
  0
LINE
  5
23505
330
233CC
100
AcDbEntity
  8
bolt
  6
Continuous
370
     5
100
AcDbLine
 10
37.38080254816669
 20
9.400000259825901
 30
0.0
 11
38.11360254816646
 21
3.600000259825719
 31
0.0
  0
LINE
  5
23506
330
233CC
100
AcDbEntity
  8
bolt
  6
Continuous
370
     5
100
AcDbLine
 10
38.11360254816646
 20
3.600000259825719
 30
0.0
 11
38.49780254816688
 21
4.25000025982581
 31
0.0
  0
LINE
  5
23507
330
233CC
100
AcDbEntity
  8
bolt
  6
Continuous
370
     5
100
AcDbLine
 10
38.04140254816593
 20
8.75000025982581
 30
0.0
 11
38.49790254816617
 21
4.25000025982581
 31
0.0
  0
ENDBLK
  5
23508
330
233CC
100
AcDbEntity
  8
0
370
    25
100
AcDbBlockEnd
  0
BLOCK
  5
2350C
330
23509
100
AcDbEntity
  8
0
370
    25
100
AcDbBlockBegin
  2
A$C00990124
 70
     0
 10
0.0
 20
0.0
 30
0.0
  3
A$C00990124
  1

  0
LINE
  5
2350D
330
23509
100
AcDbEntity
  8
0
  6
Continuous
 62
   252
370
     5
100
AcDbLine
 10
-0.000009092361779
 20
8.000009729057637
 30
0.0
 11
-0.000009092361779
 21
0.0000097290576377
 31
0.0
  0
LINE
  5
2350E
330
23509
100
AcDbEntity
  8
0
  6
Continuous
 62
   252
370
     5
100
AcDbLine
 10
1.74999090763822
 20
5.500019729057612
 30
0.0
 11
1.74999090763822
 21
2.500009729057637
 31
0.0
  0
LINE
  5
2350F
330
23509
100
AcDbEntity
  8
0
  6
Continuous
 62
   252
370
     5
100
AcDbLine
 10
-0.000009092361779
 20
8.000009729057637
 30
0.0
 11
0.249990907638221
 21
8.000009729057637
 31
0.0
  0
LINE
  5
23510
330
23509
100
AcDbEntity
  8
0
  6
Continuous
 62
   252
370
     5
100
AcDbLine
 10
-0.000009092361779
 20
0.0000097290576377
 30
0.0
 11
0.249990907638221
 21
0.0000097290576377
 31
0.0
  0
LINE
  5
23511
330
23509
100
AcDbEntity
  8
0
  6
Continuous
 62
   252
370
     5
100
AcDbLine
 10
0.249990907638221
 20
8.000009729057637
 30
0.0
 11
0.249990907638221
 21
0.0000097290576377
 31
0.0
  0
LINE
  5
23512
330
23509
100
AcDbEntity
  8
0
  6
Continuous
 62
   252
370
     5
100
AcDbLine
 10
0.249990907638221
 20
0.0000097290576377
 30
0.0
 11
1.74999090763822
 21
2.500009729057637
 31
0.0
  0
LINE
  5
23513
330
23509
100
AcDbEntity
  8
0
  6
Continuous
 62
   252
370
     5
100
AcDbLine
 10
0.249990907638221
 20
8.000009729057637
 30
0.0
 11
1.74999090763822
 21
5.500019729057612
 31
0.0
  0
LINE
  5
23514
330
23509
100
AcDbEntity
  8
0
  6
Continuous
 62
   252
370
     5
100
AcDbLine
 10
2.74999090763822
 20
2.000009729057637
 30
0.0
 11
3.072190907638287
 21
2.500009729057637
 31
0.0
  0
LINE
  5
23515
330
23509
100
AcDbEntity
  8
0
  6
Continuous
 62
   252
370
     5
100
AcDbLine
 10
2.26109090763839
 20
2.500009729057637
 30
0.0
 11
2.74999090763822
 21
2.000009729057637
 31
0.0
  0
LINE
  5
23516
330
23509
100
AcDbEntity
  8
0
  6
Continuous
 62
   252
370
     5
100
AcDbLine
 10
2.26109090763839
 20
2.500009729057637
 30
0.0
 11
2.49999090763822
 21
3.300009729057819
 31
0.0
  0
LINE
  5
23517
330
23509
100
AcDbEntity
  8
0
  6
Continuous
 62
   252
370
     5
100
AcDbLine
 10
2.49999090763822
 20
3.300009729057819
 30
0.0
 11
3.072190907638287
 21
2.500009729057637
 31
0.0
  0
LINE
  5
23518
330
23509
100
AcDbEntity
  8
0
  6
Continuous
 62
   252
370
     5
100
AcDbLine
 10
43.0429320682424
 20
5.188383377837908
 30
0.0
 11
43.51393261349767
 21
4.706590676062887
 31
0.0
  0
LINE
  5
23519
330
23509
100
AcDbEntity
  8
0
  6
Continuous
 62
   252
370
     5
100
AcDbLine
 10
43.31085044154042
 20
2.801270633446165
 30
0.0
 11
43.66462026403133
 21
3.350261667726954
 31
0.0
  0
LINE
  5
2351A
330
23509
100
AcDbEntity
  8
0
  6
Continuous
 62
   252
370
     5
100
AcDbLine
 10
42.78694956502659
 20
5.048553083840943
 30
0.0
 11
43.0429320682424
 21
5.188383377837908
 31
0.0
  0
LINE
  5
2351B
330
23509
100
AcDbEntity
  8
0
  6
Continuous
 62
   252
370
     5
100
AcDbLine
 10
43.01174213784224
 20
3.025817731794404
 30
0.0
 11
43.31085044154042
 21
2.801270633446165
 31
0.0
  0
LINE
  5
2351C
330
23509
100
AcDbEntity
  8
0
  6
Continuous
 62
   252
370
     5
100
AcDbLine
 10
1.74999090763822
 20
2.500009729057637
 30
0.0
 11
2.26109090763839
 21
2.500009729057637
 31
0.0
  0
LINE
  5
2351D
330
23509
100
AcDbEntity
  8
0
  6
Continuous
 62
   252
370
     5
100
AcDbLine
 10
3.072190907638287
 20
2.500009729057637
 30
0.0
 11
3.76109090763839
 21
2.500009729057637
 31
0.0
  0
LINE
  5
2351E
330
23509
100
AcDbEntity
  8
0
  6
Continuous
 62
   252
370
     5
100
AcDbLine
 10
6.427790907638154
 20
5.500019729057612
 30
0.0
 11
6.74999090763822
 21
6.000019729057612
 31
0.0
  0
LINE
  5
2351F
330
23509
100
AcDbEntity
  8
0
  6
Continuous
 62
   252
370
     5
100
AcDbLine
 10
6.74999090763822
 20
6.000019729057612
 30
0.0
 11
7.238790907638303
 21
5.500019729057612
 31
0.0
  0
LINE
  5
23520
330
23509
100
AcDbEntity
  8
0
  6
Continuous
 62
   252
370
     5
100
AcDbLine
 10
7.24999090763822
 20
2.000009729057637
 30
0.0
 11
7.572190907638287
 21
2.500009729057637
 31
0.0
  0
LINE
  5
23521
330
23509
100
AcDbEntity
  8
0
  6
Continuous
 62
   252
370
     5
100
AcDbLine
 10
6.76109090763839
 20
2.500009729057637
 30
0.0
 11
7.24999090763822
 21
2.000009729057637
 31
0.0
  0
LINE
  5
23522
330
23509
100
AcDbEntity
  8
0
  6
Continuous
 62
   252
370
     5
100
AcDbLine
 10
4.927790907638154
 20
5.500019729057612
 30
0.0
 11
5.24999090763822
 21
6.000019729057612
 31
0.0
  0
LINE
  5
23523
330
23509
100
AcDbEntity
  8
0
  6
Continuous
 62
   252
370
     5
100
AcDbLine
 10
5.24999090763822
 20
6.000019729057612
 30
0.0
 11
5.738790907638303
 21
5.500019729057612
 31
0.0
  0
LINE
  5
23524
330
23509
100
AcDbEntity
  8
0
  6
Continuous
 62
   252
370
     5
100
AcDbLine
 10
5.74999090763822
 20
2.000009729057637
 30
0.0
 11
6.072190907638287
 21
2.500009729057637
 31
0.0
  0
LINE
  5
23525
330
23509
100
AcDbEntity
  8
0
  6
Continuous
 62
   252
370
     5
100
AcDbLine
 10
5.26109090763839
 20
2.500009729057637
 30
0.0
 11
5.74999090763822
 21
2.000009729057637
 31
0.0
  0
LINE
  5
23526
330
23509
100
AcDbEntity
  8
0
  6
Continuous
 62
   252
370
     5
100
AcDbLine
 10
4.238790907638303
 20
5.500019729057612
 30
0.0
 11
4.572190907638287
 21
2.500009729057637
 31
0.0
  0
LINE
  5
23527
330
23509
100
AcDbEntity
  8
0
  6
Continuous
 62
   252
370
     5
100
AcDbLine
 10
3.427790907638154
 20
5.500019729057612
 30
0.0
 11
3.76109090763839
 21
2.500009729057637
 31
0.0
  0
LINE
  5
23528
330
23509
100
AcDbEntity
  8
0
  6
Continuous
 62
   252
370
     5
100
AcDbLine
 10
3.427790907638154
 20
5.500019729057612
 30
0.0
 11
3.74999090763822
 21
6.000019729057612
 31
0.0
  0
LINE
  5
23529
330
23509
100
AcDbEntity
  8
0
  6
Continuous
 62
   252
370
     5
100
AcDbLine
 10
3.74999090763822
 20
6.000019729057612
 30
0.0
 11
4.238790907638303
 21
5.500019729057612
 31
0.0
  0
LINE
  5
2352A
330
23509
100
AcDbEntity
  8
0
  6
Continuous
 62
   252
370
     5
100
AcDbLine
 10
4.24999090763822
 20
2.000009729057637
 30
0.0
 11
4.572190907638287
 21
2.500009729057637
 31
0.0
  0
LINE
  5
2352B
330
23509
100
AcDbEntity
  8
0
  6
Continuous
 62
   252
370
     5
100
AcDbLine
 10
3.76109090763839
 20
2.500009729057637
 30
0.0
 11
4.24999090763822
 21
2.000009729057637
 31
0.0
  0
LINE
  5
2352C
330
23509
100
AcDbEntity
  8
0
  6
Continuous
 62
   252
370
     5
100
AcDbLine
 10
1.74999090763822
 20
5.500019729057612
 30
0.0
 11
3.427790907638154
 21
5.500019729057612
 31
0.0
  0
LINE
  5
2352D
330
23509
100
AcDbEntity
  8
0
  6
Continuous
 62
   252
370
     5
100
AcDbLine
 10
4.238790907638303
 20
5.500019729057612
 30
0.0
 11
4.927790907638154
 21
5.500019729057612
 31
0.0
  0
LINE
  5
2352E
330
23509
100
AcDbEntity
  8
0
  6
Continuous
 62
   252
370
     5
100
AcDbLine
 10
4.572190907638287
 20
2.500009729057637
 30
0.0
 11
5.26109090763839
 21
2.500009729057637
 31
0.0
  0
LINE
  5
2352F
330
23509
100
AcDbEntity
  8
0
  6
Continuous
 62
   252
370
     5
100
AcDbLine
 10
5.738790907638303
 20
5.500019729057612
 30
0.0
 11
6.427790907638154
 21
5.500019729057612
 31
0.0
  0
LINE
  5
23530
330
23509
100
AcDbEntity
  8
0
  6
Continuous
 62
   252
370
     5
100
AcDbLine
 10
6.072190907638287
 20
2.500009729057637
 30
0.0
 11
6.76109090763839
 21
2.500009729057637
 31
0.0
  0
LINE
  5
23531
330
23509
100
AcDbEntity
  8
0
  6
Continuous
 62
   252
370
     5
100
AcDbLine
 10
7.238790907638303
 20
5.500019729057612
 30
0.0
 11
7.927790907638154
 21
5.500019729057612
 31
0.0
  0
LINE
  5
23532
330
23509
100
AcDbEntity
  8
0
  6
Continuous
 62
   252
370
     5
100
AcDbLine
 10
7.572190907638287
 20
2.500009729057637
 30
0.0
 11
8.26109090763839
 21
2.500009729057637
 31
0.0
  0
LINE
  5
23533
330
23509
100
AcDbEntity
  8
0
  6
Continuous
 62
   252
370
     5
100
AcDbLine
 10
7.927790907638154
 20
5.500019729057612
 30
0.0
 11
8.24999090763822
 21
6.000019729057612
 31
0.0
  0
LINE
  5
23534
330
23509
100
AcDbEntity
  8
0
  6
Continuous
 62
   252
370
     5
100
AcDbLine
 10
8.24999090763822
 20
6.000019729057612
 30
0.0
 11
8.738790907638303
 21
5.500019729057612
 31
0.0
  0
LINE
  5
23535
330
23509
100
AcDbEntity
  8
0
  6
Continuous
 62
   252
370
     5
100
AcDbLine
 10
8.74999090763822
 20
2.000009729057637
 30
0.0
 11
9.072190907638287
 21
2.500009729057637
 31
0.0
  0
LINE
  5
23536
330
23509
100
AcDbEntity
  8
0
  6
Continuous
 62
   252
370
     5
100
AcDbLine
 10
8.26109090763839
 20
2.500009729057637
 30
0.0
 11
8.74999090763822
 21
2.000009729057637
 31
0.0
  0
LINE
  5
23537
330
23509
100
AcDbEntity
  8
0
  6
Continuous
 62
   252
370
     5
100
AcDbLine
 10
9.427790907638154
 20
5.500019729057612
 30
0.0
 11
9.74999090763822
 21
6.000019729057612
 31
0.0
  0
LINE
  5
23538
330
23509
100
AcDbEntity
  8
0
  6
Continuous
 62
   252
370
     5
100
AcDbLine
 10
9.74999090763822
 20
6.000019729057612
 30
0.0
 11
10.2387909076383
 21
5.500019729057612
 31
0.0
  0
LINE
  5
23539
330
23509
100
AcDbEntity
  8
0
  6
Continuous
 62
   252
370
     5
100
AcDbLine
 10
10.24999090763822
 20
2.000009729057637
 30
0.0
 11
10.57219090763829
 21
2.500009729057637
 31
0.0
  0
LINE
  5
2353A
330
23509
100
AcDbEntity
  8
0
  6
Continuous
 62
   252
370
     5
100
AcDbLine
 10
9.76109090763839
 20
2.500009729057637
 30
0.0
 11
10.24999090763822
 21
2.000009729057637
 31
0.0
  0
LINE
  5
2353B
330
23509
100
AcDbEntity
  8
0
  6
Continuous
 62
   252
370
     5
100
AcDbLine
 10
10.57219090763829
 20
2.500009729057637
 30
0.0
 11
11.26109090763839
 21
2.500009729057637
 31
0.0
  0
LINE
  5
2353C
330
23509
100
AcDbEntity
  8
0
  6
Continuous
 62
   252
370
     5
100
AcDbLine
 10
10.2387909076383
 20
5.500019729057612
 30
0.0
 11
10.92779090763815
 21
5.500019729057612
 31
0.0
  0
LINE
  5
2353D
330
23509
100
AcDbEntity
  8
0
  6
Continuous
 62
   252
370
     5
100
AcDbLine
 10
8.738790907638303
 20
5.500019729057612
 30
0.0
 11
9.427790907638154
 21
5.500019729057612
 31
0.0
  0
LINE
  5
2353E
330
23509
100
AcDbEntity
  8
0
  6
Continuous
 62
   252
370
     5
100
AcDbLine
 10
9.072190907638287
 20
2.500009729057637
 30
0.0
 11
9.76109090763839
 21
2.500009729057637
 31
0.0
  0
LINE
  5
2353F
330
23509
100
AcDbEntity
  8
0
  6
Continuous
 62
   252
370
     5
100
AcDbLine
 10
10.92779090763815
 20
5.500019729057612
 30
0.0
 11
11.24999090763822
 21
6.000019729057612
 31
0.0
  0
LINE
  5
23540
330
23509
100
AcDbEntity
  8
0
  6
Continuous
 62
   252
370
     5
100
AcDbLine
 10
11.24999090763822
 20
6.000019729057612
 30
0.0
 11
11.7387909076383
 21
5.500019729057612
 31
0.0
  0
LINE
  5
23541
330
23509
100
AcDbEntity
  8
0
  6
Continuous
 62
   252
370
     5
100
AcDbLine
 10
11.74999090763822
 20
2.000009729057637
 30
0.0
 11
12.07219090763828
 21
2.500009729057637
 31
0.0
  0
LINE
  5
23542
330
23509
100
AcDbEntity
  8
0
  6
Continuous
 62
   252
370
     5
100
AcDbLine
 10
11.26109090763839
 20
2.500009729057637
 30
0.0
 11
11.74999090763822
 21
2.000009729057637
 31
0.0
  0
LINE
  5
23543
330
23509
100
AcDbEntity
  8
0
  6
Continuous
 62
   252
370
     5
100
AcDbLine
 10
12.42779090763815
 20
5.500019729057612
 30
0.0
 11
12.74999090763822
 21
6.000019729057612
 31
0.0
  0
LINE
  5
23544
330
23509
100
AcDbEntity
  8
0
  6
Continuous
 62
   252
370
     5
100
AcDbLine
 10
12.74999090763822
 20
6.000019729057612
 30
0.0
 11
13.2387909076383
 21
5.500019729057612
 31
0.0
  0
LINE
  5
23545
330
23509
100
AcDbEntity
  8
0
  6
Continuous
 62
   252
370
     5
100
AcDbLine
 10
13.24999090763822
 20
2.000009729057637
 30
0.0
 11
13.57219090763829
 21
2.500009729057637
 31
0.0
  0
LINE
  5
23546
330
23509
100
AcDbEntity
  8
0
  6
Continuous
 62
   252
370
     5
100
AcDbLine
 10
12.76109090763839
 20
2.500009729057637
 30
0.0
 11
13.24999090763822
 21
2.000009729057637
 31
0.0
  0
LINE
  5
23547
330
23509
100
AcDbEntity
  8
0
  6
Continuous
 62
   252
370
     5
100
AcDbLine
 10
11.7387909076383
 20
5.500019729057612
 30
0.0
 11
12.42779090763815
 21
5.500019729057612
 31
0.0
  0
LINE
  5
23548
330
23509
100
AcDbEntity
  8
0
  6
Continuous
 62
   252
370
     5
100
AcDbLine
 10
12.07219090763828
 20
2.500009729057637
 30
0.0
 11
12.76109090763839
 21
2.500009729057637
 31
0.0
  0
LINE
  5
23549
330
23509
100
AcDbEntity
  8
0
  6
Continuous
 62
   252
370
     5
100
AcDbLine
 10
5.738790907637849
 20
5.500019729057612
 30
0.0
 11
6.072190907638287
 21
2.500009729057637
 31
0.0
  0
LINE
  5
2354A
330
23509
100
AcDbEntity
  8
0
  6
Continuous
 62
   252
370
     5
100
AcDbLine
 10
4.927790907638154
 20
5.500019729057612
 30
0.0
 11
5.26109090763839
 21
2.500009729057637
 31
0.0
  0
LINE
  5
2354B
330
23509
100
AcDbEntity
  8
0
  6
Continuous
 62
   252
370
     5
100
AcDbLine
 10
7.238790907637849
 20
5.500019729057612
 30
0.0
 11
7.572190907638287
 21
2.500009729057637
 31
0.0
  0
LINE
  5
2354C
330
23509
100
AcDbEntity
  8
0
  6
Continuous
 62
   252
370
     5
100
AcDbLine
 10
6.427790907638154
 20
5.500019729057612
 30
0.0
 11
6.76109090763839
 21
2.500009729057637
 31
0.0
  0
LINE
  5
2354D
330
23509
100
AcDbEntity
  8
0
  6
Continuous
 62
   252
370
     5
100
AcDbLine
 10
8.738790907637849
 20
5.500019729057612
 30
0.0
 11
9.072190907638287
 21
2.500009729057637
 31
0.0
  0
LINE
  5
2354E
330
23509
100
AcDbEntity
  8
0
  6
Continuous
 62
   252
370
     5
100
AcDbLine
 10
7.927790907638154
 20
5.500019729057612
 30
0.0
 11
8.26109090763839
 21
2.500009729057637
 31
0.0
  0
LINE
  5
2354F
330
23509
100
AcDbEntity
  8
0
  6
Continuous
 62
   252
370
     5
100
AcDbLine
 10
10.23879090763785
 20
5.500019729057612
 30
0.0
 11
10.57219090763829
 21
2.500009729057637
 31
0.0
  0
LINE
  5
23550
330
23509
100
AcDbEntity
  8
0
  6
Continuous
 62
   252
370
     5
100
AcDbLine
 10
9.427790907638154
 20
5.500019729057612
 30
0.0
 11
9.76109090763839
 21
2.500009729057637
 31
0.0
  0
LINE
  5
23551
330
23509
100
AcDbEntity
  8
0
  6
Continuous
 62
   252
370
     5
100
AcDbLine
 10
11.73879090763785
 20
5.500019729057612
 30
0.0
 11
12.07219090763828
 21
2.500009729057637
 31
0.0
  0
LINE
  5
23552
330
23509
100
AcDbEntity
  8
0
  6
Continuous
 62
   252
370
     5
100
AcDbLine
 10
10.92779090763815
 20
5.500019729057612
 30
0.0
 11
11.26109090763839
 21
2.500009729057637
 31
0.0
  0
LINE
  5
23553
330
23509
100
AcDbEntity
  8
0
  6
Continuous
 62
   252
370
     5
100
AcDbLine
 10
41.7387909076383
 20
5.500019729057612
 30
0.0
 11
42.07219090763828
 21
2.500009729057637
 31
0.0
  0
LINE
  5
23554
330
23509
100
AcDbEntity
  8
0
  6
Continuous
 62
   252
370
     5
100
AcDbLine
 10
12.42779090763815
 20
5.500019729057612
 30
0.0
 11
12.76109090763839
 21
2.500009729057637
 31
0.0
  0
LINE
  5
23555
330
23509
100
AcDbEntity
  8
一般
  6
Continuous
 62
   252
370
     5
100
AcDbLine
 10
42.78694956502659
 20
5.048553083840943
 30
0.0
 11
41.7387909076383
 21
5.500019729057612
 31
0.0
  0
LINE
  5
23556
330
23509
100
AcDbEntity
  8
一般
  6
Continuous
 62
   252
370
     5
100
AcDbLine
 10
43.51393261349767
 20
4.706590676062887
 30
0.0
 11
44.9999696589839
 21
4.007580145912925
 31
0.0
  0
LINE
  5
23557
330
23509
100
AcDbEntity
  8
一般
  6
Continuous
 62
   252
370
     5
100
AcDbLine
 10
44.9999696589839
 20
4.007580145912925
 30
0.0
 11
43.66462026403133
 21
3.350261667726954
 31
0.0
  0
LINE
  5
23558
330
23509
100
AcDbEntity
  8
一般
  6
Continuous
 62
   252
370
     5
100
AcDbLine
 10
42.07219090763828
 20
2.500009729057637
 30
0.0
 11
43.01141884226217
 21
3.028726819896974
 31
0.0
  0
LINE
  5
23559
330
23509
100
AcDbEntity
  8
0
  6
Continuous
 62
   252
370
     5
100
AcDbLine
 10
42.78694956502659
 20
5.048553083840943
 30
0.0
 11
43.01141884226217
 21
3.028726819896974
 31
0.0
  0
LINE
  5
2355A
330
23509
100
AcDbEntity
  8
0
  6
Continuous
 62
   252
370
     5
100
AcDbLine
 10
44.3696877632401
 20
4.304055717249411
 30
0.0
 11
44.43361801040691
 21
3.728796626657185
 31
0.0
  0
LINE
  5
2355B
330
23509
100
AcDbEntity
  8
0
  6
Continuous
 62
   252
370
     5
100
AcDbLine
 10
43.51393261349767
 20
4.706590676062887
 30
0.0
 11
43.66462026403133
 21
3.350261667726954
 31
0.0
  0
LINE
  5
2355C
330
23509
100
AcDbEntity
  8
0
  6
Continuous
 62
   252
370
     5
100
AcDbLine
 10
15.42779090763815
 20
5.500019729057612
 30
0.0
 11
15.74999090763822
 21
6.000019729057612
 31
0.0
  0
LINE
  5
2355D
330
23509
100
AcDbEntity
  8
0
  6
Continuous
 62
   252
370
     5
100
AcDbLine
 10
15.74999090763822
 20
6.000019729057612
 30
0.0
 11
16.2387909076383
 21
5.500019729057612
 31
0.0
  0
LINE
  5
2355E
330
23509
100
AcDbEntity
  8
0
  6
Continuous
 62
   252
370
     5
100
AcDbLine
 10
16.24999090763822
 20
2.000009729057637
 30
0.0
 11
16.57219090763829
 21
2.500009729057637
 31
0.0
  0
LINE
  5
2355F
330
23509
100
AcDbEntity
  8
0
  6
Continuous
 62
   252
370
     5
100
AcDbLine
 10
15.76109090763839
 20
2.500009729057637
 30
0.0
 11
16.24999090763822
 21
2.000009729057637
 31
0.0
  0
LINE
  5
23560
330
23509
100
AcDbEntity
  8
0
  6
Continuous
 62
   252
370
     5
100
AcDbLine
 10
13.92779090763815
 20
5.500019729057612
 30
0.0
 11
14.24999090763822
 21
6.000019729057612
 31
0.0
  0
LINE
  5
23561
330
23509
100
AcDbEntity
  8
0
  6
Continuous
 62
   252
370
     5
100
AcDbLine
 10
14.24999090763822
 20
6.000019729057612
 30
0.0
 11
14.7387909076383
 21
5.500019729057612
 31
0.0
  0
LINE
  5
23562
330
23509
100
AcDbEntity
  8
0
  6
Continuous
 62
   252
370
     5
100
AcDbLine
 10
14.74999090763822
 20
2.000009729057637
 30
0.0
 11
15.07219090763828
 21
2.500009729057637
 31
0.0
  0
LINE
  5
23563
330
23509
100
AcDbEntity
  8
0
  6
Continuous
 62
   252
370
     5
100
AcDbLine
 10
14.26109090763839
 20
2.500009729057637
 30
0.0
 11
14.74999090763822
 21
2.000009729057637
 31
0.0
  0
LINE
  5
23564
330
23509
100
AcDbEntity
  8
0
  6
Continuous
 62
   252
370
     5
100
AcDbLine
 10
13.2387909076383
 20
5.500019729057612
 30
0.0
 11
13.57219090763829
 21
2.500009729057637
 31
0.0
  0
LINE
  5
23565
330
23509
100
AcDbEntity
  8
0
  6
Continuous
 62
   252
370
     5
100
AcDbLine
 10
13.2387909076383
 20
5.500019729057612
 30
0.0
 11
13.92779090763815
 21
5.500019729057612
 31
0.0
  0
LINE
  5
23566
330
23509
100
AcDbEntity
  8
0
  6
Continuous
 62
   252
370
     5
100
AcDbLine
 10
13.57219090763829
 20
2.500009729057637
 30
0.0
 11
14.26109090763839
 21
2.500009729057637
 31
0.0
  0
LINE
  5
23567
330
23509
100
AcDbEntity
  8
0
  6
Continuous
 62
   252
370
     5
100
AcDbLine
 10
14.7387909076383
 20
5.500019729057612
 30
0.0
 11
15.42779090763815
 21
5.500019729057612
 31
0.0
  0
LINE
  5
23568
330
23509
100
AcDbEntity
  8
0
  6
Continuous
 62
   252
370
     5
100
AcDbLine
 10
15.07219090763828
 20
2.500009729057637
 30
0.0
 11
15.76109090763839
 21
2.500009729057637
 31
0.0
  0
LINE
  5
23569
330
23509
100
AcDbEntity
  8
0
  6
Continuous
 62
   252
370
     5
100
AcDbLine
 10
16.2387909076383
 20
5.500019729057612
 30
0.0
 11
16.92779090763815
 21
5.500019729057612
 31
0.0
  0
LINE
  5
2356A
330
23509
100
AcDbEntity
  8
0
  6
Continuous
 62
   252
370
     5
100
AcDbLine
 10
16.57219090763829
 20
2.500009729057637
 30
0.0
 11
17.26109090763839
 21
2.500009729057637
 31
0.0
  0
LINE
  5
2356B
330
23509
100
AcDbEntity
  8
0
  6
Continuous
 62
   252
370
     5
100
AcDbLine
 10
16.92779090763815
 20
5.500019729057612
 30
0.0
 11
17.24999090763822
 21
6.000019729057612
 31
0.0
  0
LINE
  5
2356C
330
23509
100
AcDbEntity
  8
0
  6
Continuous
 62
   252
370
     5
100
AcDbLine
 10
17.24999090763822
 20
6.000019729057612
 30
0.0
 11
17.7387909076383
 21
5.500019729057612
 31
0.0
  0
LINE
  5
2356D
330
23509
100
AcDbEntity
  8
0
  6
Continuous
 62
   252
370
     5
100
AcDbLine
 10
17.74999090763822
 20
2.000009729057637
 30
0.0
 11
18.07219090763829
 21
2.500009729057637
 31
0.0
  0
LINE
  5
2356E
330
23509
100
AcDbEntity
  8
0
  6
Continuous
 62
   252
370
     5
100
AcDbLine
 10
17.26109090763839
 20
2.500009729057637
 30
0.0
 11
17.74999090763822
 21
2.000009729057637
 31
0.0
  0
LINE
  5
2356F
330
23509
100
AcDbEntity
  8
0
  6
Continuous
 62
   252
370
     5
100
AcDbLine
 10
18.42779090763815
 20
5.500019729057612
 30
0.0
 11
18.74999090763822
 21
6.000019729057612
 31
0.0
  0
LINE
  5
23570
330
23509
100
AcDbEntity
  8
0
  6
Continuous
 62
   252
370
     5
100
AcDbLine
 10
18.74999090763822
 20
6.000019729057612
 30
0.0
 11
19.2387909076383
 21
5.500019729057612
 31
0.0
  0
LINE
  5
23571
330
23509
100
AcDbEntity
  8
0
  6
Continuous
 62
   252
370
     5
100
AcDbLine
 10
19.24999090763822
 20
2.000009729057637
 30
0.0
 11
19.57219090763828
 21
2.500009729057637
 31
0.0
  0
LINE
  5
23572
330
23509
100
AcDbEntity
  8
0
  6
Continuous
 62
   252
370
     5
100
AcDbLine
 10
18.76109090763839
 20
2.500009729057637
 30
0.0
 11
19.24999090763822
 21
2.000009729057637
 31
0.0
  0
LINE
  5
23573
330
23509
100
AcDbEntity
  8
0
  6
Continuous
 62
   252
370
     5
100
AcDbLine
 10
19.57219090763828
 20
2.500009729057637
 30
0.0
 11
20.26109090763839
 21
2.500009729057637
 31
0.0
  0
LINE
  5
23574
330
23509
100
AcDbEntity
  8
0
  6
Continuous
 62
   252
370
     5
100
AcDbLine
 10
19.2387909076383
 20
5.500019729057612
 30
0.0
 11
19.92779090763815
 21
5.500019729057612
 31
0.0
  0
LINE
  5
23575
330
23509
100
AcDbEntity
  8
0
  6
Continuous
 62
   252
370
     5
100
AcDbLine
 10
17.7387909076383
 20
5.500019729057612
 30
0.0
 11
18.42779090763815
 21
5.500019729057612
 31
0.0
  0
LINE
  5
23576
330
23509
100
AcDbEntity
  8
0
  6
Continuous
 62
   252
370
     5
100
AcDbLine
 10
18.07219090763829
 20
2.500009729057637
 30
0.0
 11
18.76109090763839
 21
2.500009729057637
 31
0.0
  0
LINE
  5
23577
330
23509
100
AcDbEntity
  8
0
  6
Continuous
 62
   252
370
     5
100
AcDbLine
 10
19.92779090763815
 20
5.500019729057612
 30
0.0
 11
20.24999090763822
 21
6.000019729057612
 31
0.0
  0
LINE
  5
23578
330
23509
100
AcDbEntity
  8
0
  6
Continuous
 62
   252
370
     5
100
AcDbLine
 10
20.24999090763822
 20
6.000019729057612
 30
0.0
 11
20.7387909076383
 21
5.500019729057612
 31
0.0
  0
LINE
  5
23579
330
23509
100
AcDbEntity
  8
0
  6
Continuous
 62
   252
370
     5
100
AcDbLine
 10
20.74999090763822
 20
2.000009729057637
 30
0.0
 11
21.07219090763829
 21
2.500009729057637
 31
0.0
  0
LINE
  5
2357A
330
23509
100
AcDbEntity
  8
0
  6
Continuous
 62
   252
370
     5
100
AcDbLine
 10
20.26109090763839
 20
2.500009729057637
 30
0.0
 11
20.74999090763822
 21
2.000009729057637
 31
0.0
  0
LINE
  5
2357B
330
23509
100
AcDbEntity
  8
0
  6
Continuous
 62
   252
370
     5
100
AcDbLine
 10
21.42779090763816
 20
5.500019729057612
 30
0.0
 11
21.74999090763822
 21
6.000019729057612
 31
0.0
  0
LINE
  5
2357C
330
23509
100
AcDbEntity
  8
0
  6
Continuous
 62
   252
370
     5
100
AcDbLine
 10
21.74999090763822
 20
6.000019729057612
 30
0.0
 11
22.2387909076383
 21
5.500019729057612
 31
0.0
  0
LINE
  5
2357D
330
23509
100
AcDbEntity
  8
0
  6
Continuous
 62
   252
370
     5
100
AcDbLine
 10
22.24999090763822
 20
2.000009729057637
 30
0.0
 11
22.57219090763829
 21
2.500009729057637
 31
0.0
  0
LINE
  5
2357E
330
23509
100
AcDbEntity
  8
0
  6
Continuous
 62
   252
370
     5
100
AcDbLine
 10
21.76109090763839
 20
2.500009729057637
 30
0.0
 11
22.24999090763822
 21
2.000009729057637
 31
0.0
  0
LINE
  5
2357F
330
23509
100
AcDbEntity
  8
0
  6
Continuous
 62
   252
370
     5
100
AcDbLine
 10
20.7387909076383
 20
5.500019729057612
 30
0.0
 11
21.42779090763816
 21
5.500019729057612
 31
0.0
  0
LINE
  5
23580
330
23509
100
AcDbEntity
  8
0
  6
Continuous
 62
   252
370
     5
100
AcDbLine
 10
21.07219090763829
 20
2.500009729057637
 30
0.0
 11
21.76109090763839
 21
2.500009729057637
 31
0.0
  0
LINE
  5
23581
330
23509
100
AcDbEntity
  8
0
  6
Continuous
 62
   252
370
     5
100
AcDbLine
 10
14.73879090763785
 20
5.500019729057612
 30
0.0
 11
15.07219090763828
 21
2.500009729057637
 31
0.0
  0
LINE
  5
23582
330
23509
100
AcDbEntity
  8
0
  6
Continuous
 62
   252
370
     5
100
AcDbLine
 10
13.92779090763815
 20
5.500019729057612
 30
0.0
 11
14.26109090763839
 21
2.500009729057637
 31
0.0
  0
LINE
  5
23583
330
23509
100
AcDbEntity
  8
0
  6
Continuous
 62
   252
370
     5
100
AcDbLine
 10
16.23879090763785
 20
5.500019729057612
 30
0.0
 11
16.57219090763829
 21
2.500009729057637
 31
0.0
  0
LINE
  5
23584
330
23509
100
AcDbEntity
  8
0
  6
Continuous
 62
   252
370
     5
100
AcDbLine
 10
15.42779090763815
 20
5.500019729057612
 30
0.0
 11
15.76109090763839
 21
2.500009729057637
 31
0.0
  0
LINE
  5
23585
330
23509
100
AcDbEntity
  8
0
  6
Continuous
 62
   252
370
     5
100
AcDbLine
 10
17.73879090763785
 20
5.500019729057612
 30
0.0
 11
18.07219090763829
 21
2.500009729057637
 31
0.0
  0
LINE
  5
23586
330
23509
100
AcDbEntity
  8
0
  6
Continuous
 62
   252
370
     5
100
AcDbLine
 10
16.92779090763815
 20
5.500019729057612
 30
0.0
 11
17.26109090763839
 21
2.500009729057637
 31
0.0
  0
LINE
  5
23587
330
23509
100
AcDbEntity
  8
0
  6
Continuous
 62
   252
370
     5
100
AcDbLine
 10
19.23879090763785
 20
5.500019729057612
 30
0.0
 11
19.57219090763828
 21
2.500009729057637
 31
0.0
  0
LINE
  5
23588
330
23509
100
AcDbEntity
  8
0
  6
Continuous
 62
   252
370
     5
100
AcDbLine
 10
18.42779090763815
 20
5.500019729057612
 30
0.0
 11
18.76109090763839
 21
2.500009729057637
 31
0.0
  0
LINE
  5
23589
330
23509
100
AcDbEntity
  8
0
  6
Continuous
 62
   252
370
     5
100
AcDbLine
 10
20.73879090763785
 20
5.500019729057612
 30
0.0
 11
21.07219090763829
 21
2.500009729057637
 31
0.0
  0
LINE
  5
2358A
330
23509
100
AcDbEntity
  8
0
  6
Continuous
 62
   252
370
     5
100
AcDbLine
 10
19.92779090763815
 20
5.500019729057612
 30
0.0
 11
20.26109090763839
 21
2.500009729057637
 31
0.0
  0
LINE
  5
2358B
330
23509
100
AcDbEntity
  8
0
  6
Continuous
 62
   252
370
     5
100
AcDbLine
 10
21.42779090763816
 20
5.500019729057612
 30
0.0
 11
21.76109090763839
 21
2.500009729057637
 31
0.0
  0
LINE
  5
2358C
330
23509
100
AcDbEntity
  8
0
  6
Continuous
 62
   252
370
     5
100
AcDbLine
 10
24.42779090763816
 20
5.500019729057612
 30
0.0
 11
24.74999090763822
 21
6.000019729057612
 31
0.0
  0
LINE
  5
2358D
330
23509
100
AcDbEntity
  8
0
  6
Continuous
 62
   252
370
     5
100
AcDbLine
 10
24.74999090763822
 20
6.000019729057612
 30
0.0
 11
25.23879090763831
 21
5.500019729057612
 31
0.0
  0
LINE
  5
2358E
330
23509
100
AcDbEntity
  8
0
  6
Continuous
 62
   252
370
     5
100
AcDbLine
 10
25.24999090763822
 20
2.000009729057637
 30
0.0
 11
25.57219090763829
 21
2.500009729057637
 31
0.0
  0
LINE
  5
2358F
330
23509
100
AcDbEntity
  8
0
  6
Continuous
 62
   252
370
     5
100
AcDbLine
 10
24.76109090763839
 20
2.500009729057637
 30
0.0
 11
25.24999090763822
 21
2.000009729057637
 31
0.0
  0
LINE
  5
23590
330
23509
100
AcDbEntity
  8
0
  6
Continuous
 62
   252
370
     5
100
AcDbLine
 10
22.92779090763815
 20
5.500019729057612
 30
0.0
 11
23.24999090763822
 21
6.000019729057612
 31
0.0
  0
LINE
  5
23591
330
23509
100
AcDbEntity
  8
0
  6
Continuous
 62
   252
370
     5
100
AcDbLine
 10
23.24999090763822
 20
6.000019729057612
 30
0.0
 11
23.7387909076383
 21
5.500019729057612
 31
0.0
  0
LINE
  5
23592
330
23509
100
AcDbEntity
  8
0
  6
Continuous
 62
   252
370
     5
100
AcDbLine
 10
23.74999090763822
 20
2.000009729057637
 30
0.0
 11
24.07219090763829
 21
2.500009729057637
 31
0.0
  0
LINE
  5
23593
330
23509
100
AcDbEntity
  8
0
  6
Continuous
 62
   252
370
     5
100
AcDbLine
 10
23.26109090763839
 20
2.500009729057637
 30
0.0
 11
23.74999090763822
 21
2.000009729057637
 31
0.0
  0
LINE
  5
23594
330
23509
100
AcDbEntity
  8
0
  6
Continuous
 62
   252
370
     5
100
AcDbLine
 10
22.2387909076383
 20
5.500019729057612
 30
0.0
 11
22.57219090763829
 21
2.500009729057637
 31
0.0
  0
LINE
  5
23595
330
23509
100
AcDbEntity
  8
0
  6
Continuous
 62
   252
370
     5
100
AcDbLine
 10
22.2387909076383
 20
5.500019729057612
 30
0.0
 11
22.92779090763815
 21
5.500019729057612
 31
0.0
  0
LINE
  5
23596
330
23509
100
AcDbEntity
  8
0
  6
Continuous
 62
   252
370
     5
100
AcDbLine
 10
22.57219090763829
 20
2.500009729057637
 30
0.0
 11
23.26109090763839
 21
2.500009729057637
 31
0.0
  0
LINE
  5
23597
330
23509
100
AcDbEntity
  8
0
  6
Continuous
 62
   252
370
     5
100
AcDbLine
 10
23.7387909076383
 20
5.500019729057612
 30
0.0
 11
24.42779090763816
 21
5.500019729057612
 31
0.0
  0
LINE
  5
23598
330
23509
100
AcDbEntity
  8
0
  6
Continuous
 62
   252
370
     5
100
AcDbLine
 10
24.07219090763829
 20
2.500009729057637
 30
0.0
 11
24.76109090763839
 21
2.500009729057637
 31
0.0
  0
LINE
  5
23599
330
23509
100
AcDbEntity
  8
0
  6
Continuous
 62
   252
370
     5
100
AcDbLine
 10
25.23879090763831
 20
5.500019729057612
 30
0.0
 11
25.92779090763816
 21
5.500019729057612
 31
0.0
  0
LINE
  5
2359A
330
23509
100
AcDbEntity
  8
0
  6
Continuous
 62
   252
370
     5
100
AcDbLine
 10
25.57219090763829
 20
2.500009729057637
 30
0.0
 11
26.26109090763839
 21
2.500009729057637
 31
0.0
  0
LINE
  5
2359B
330
23509
100
AcDbEntity
  8
0
  6
Continuous
 62
   252
370
     5
100
AcDbLine
 10
25.92779090763816
 20
5.500019729057612
 30
0.0
 11
26.24999090763822
 21
6.000019729057612
 31
0.0
  0
LINE
  5
2359C
330
23509
100
AcDbEntity
  8
0
  6
Continuous
 62
   252
370
     5
100
AcDbLine
 10
26.24999090763822
 20
6.000019729057612
 30
0.0
 11
26.73879090763831
 21
5.500019729057612
 31
0.0
  0
LINE
  5
2359D
330
23509
100
AcDbEntity
  8
0
  6
Continuous
 62
   252
370
     5
100
AcDbLine
 10
26.74999090763822
 20
2.000009729057637
 30
0.0
 11
27.07219090763829
 21
2.500009729057637
 31
0.0
  0
LINE
  5
2359E
330
23509
100
AcDbEntity
  8
0
  6
Continuous
 62
   252
370
     5
100
AcDbLine
 10
26.26109090763839
 20
2.500009729057637
 30
0.0
 11
26.74999090763822
 21
2.000009729057637
 31
0.0
  0
LINE
  5
2359F
330
23509
100
AcDbEntity
  8
0
  6
Continuous
 62
   252
370
     5
100
AcDbLine
 10
27.42779090763816
 20
5.500019729057612
 30
0.0
 11
27.74999090763822
 21
6.000019729057612
 31
0.0
  0
LINE
  5
235A0
330
23509
100
AcDbEntity
  8
0
  6
Continuous
 62
   252
370
     5
100
AcDbLine
 10
27.74999090763822
 20
6.000019729057612
 30
0.0
 11
28.2387909076383
 21
5.500019729057612
 31
0.0
  0
LINE
  5
235A1
330
23509
100
AcDbEntity
  8
0
  6
Continuous
 62
   252
370
     5
100
AcDbLine
 10
28.24999090763822
 20
2.000009729057637
 30
0.0
 11
28.57219090763829
 21
2.500009729057637
 31
0.0
  0
LINE
  5
235A2
330
23509
100
AcDbEntity
  8
0
  6
Continuous
 62
   252
370
     5
100
AcDbLine
 10
27.76109090763839
 20
2.500009729057637
 30
0.0
 11
28.24999090763822
 21
2.000009729057637
 31
0.0
  0
LINE
  5
235A3
330
23509
100
AcDbEntity
  8
0
  6
Continuous
 62
   252
370
     5
100
AcDbLine
 10
28.57219090763829
 20
2.500009729057637
 30
0.0
 11
29.26109090763839
 21
2.500009729057637
 31
0.0
  0
LINE
  5
235A4
330
23509
100
AcDbEntity
  8
0
  6
Continuous
 62
   252
370
     5
100
AcDbLine
 10
28.2387909076383
 20
5.500019729057612
 30
0.0
 11
28.92779090763816
 21
5.500019729057612
 31
0.0
  0
LINE
  5
235A5
330
23509
100
AcDbEntity
  8
0
  6
Continuous
 62
   252
370
     5
100
AcDbLine
 10
26.73879090763831
 20
5.500019729057612
 30
0.0
 11
27.42779090763816
 21
5.500019729057612
 31
0.0
  0
LINE
  5
235A6
330
23509
100
AcDbEntity
  8
0
  6
Continuous
 62
   252
370
     5
100
AcDbLine
 10
27.07219090763829
 20
2.500009729057637
 30
0.0
 11
27.76109090763839
 21
2.500009729057637
 31
0.0
  0
LINE
  5
235A7
330
23509
100
AcDbEntity
  8
0
  6
Continuous
 62
   252
370
     5
100
AcDbLine
 10
28.92779090763816
 20
5.500019729057612
 30
0.0
 11
29.24999090763822
 21
6.000019729057612
 31
0.0
  0
LINE
  5
235A8
330
23509
100
AcDbEntity
  8
0
  6
Continuous
 62
   252
370
     5
100
AcDbLine
 10
29.24999090763822
 20
6.000019729057612
 30
0.0
 11
29.7387909076383
 21
5.500019729057612
 31
0.0
  0
LINE
  5
235A9
330
23509
100
AcDbEntity
  8
0
  6
Continuous
 62
   252
370
     5
100
AcDbLine
 10
29.74999090763822
 20
2.000009729057637
 30
0.0
 11
30.07219090763829
 21
2.500009729057637
 31
0.0
  0
LINE
  5
235AA
330
23509
100
AcDbEntity
  8
0
  6
Continuous
 62
   252
370
     5
100
AcDbLine
 10
29.26109090763839
 20
2.500009729057637
 30
0.0
 11
29.74999090763822
 21
2.000009729057637
 31
0.0
  0
LINE
  5
235AB
330
23509
100
AcDbEntity
  8
0
  6
Continuous
 62
   252
370
     5
100
AcDbLine
 10
30.42779090763815
 20
5.500019729057612
 30
0.0
 11
30.74999090763822
 21
6.000019729057612
 31
0.0
  0
LINE
  5
235AC
330
23509
100
AcDbEntity
  8
0
  6
Continuous
 62
   252
370
     5
100
AcDbLine
 10
30.74999090763822
 20
6.000019729057612
 30
0.0
 11
31.23879090763831
 21
5.500019729057612
 31
0.0
  0
LINE
  5
235AD
330
23509
100
AcDbEntity
  8
0
  6
Continuous
 62
   252
370
     5
100
AcDbLine
 10
31.24999090763822
 20
2.000009729057637
 30
0.0
 11
31.57219090763829
 21
2.500009729057637
 31
0.0
  0
LINE
  5
235AE
330
23509
100
AcDbEntity
  8
0
  6
Continuous
 62
   252
370
     5
100
AcDbLine
 10
30.76109090763839
 20
2.500009729057637
 30
0.0
 11
31.24999090763822
 21
2.000009729057637
 31
0.0
  0
LINE
  5
235AF
330
23509
100
AcDbEntity
  8
0
  6
Continuous
 62
   252
370
     5
100
AcDbLine
 10
29.7387909076383
 20
5.500019729057612
 30
0.0
 11
30.42779090763815
 21
5.500019729057612
 31
0.0
  0
LINE
  5
235B0
330
23509
100
AcDbEntity
  8
0
  6
Continuous
 62
   252
370
     5
100
AcDbLine
 10
30.07219090763829
 20
2.500009729057637
 30
0.0
 11
30.76109090763839
 21
2.500009729057637
 31
0.0
  0
LINE
  5
235B1
330
23509
100
AcDbEntity
  8
0
  6
Continuous
 62
   252
370
     5
100
AcDbLine
 10
23.73879090763785
 20
5.500019729057612
 30
0.0
 11
24.07219090763829
 21
2.500009729057637
 31
0.0
  0
LINE
  5
235B2
330
23509
100
AcDbEntity
  8
0
  6
Continuous
 62
   252
370
     5
100
AcDbLine
 10
22.92779090763815
 20
5.500019729057612
 30
0.0
 11
23.26109090763839
 21
2.500009729057637
 31
0.0
  0
LINE
  5
235B3
330
23509
100
AcDbEntity
  8
0
  6
Continuous
 62
   252
370
     5
100
AcDbLine
 10
25.23879090763785
 20
5.500019729057612
 30
0.0
 11
25.57219090763829
 21
2.500009729057637
 31
0.0
  0
LINE
  5
235B4
330
23509
100
AcDbEntity
  8
0
  6
Continuous
 62
   252
370
     5
100
AcDbLine
 10
24.42779090763816
 20
5.500019729057612
 30
0.0
 11
24.76109090763839
 21
2.500009729057637
 31
0.0
  0
LINE
  5
235B5
330
23509
100
AcDbEntity
  8
0
  6
Continuous
 62
   252
370
     5
100
AcDbLine
 10
26.73879090763785
 20
5.500019729057612
 30
0.0
 11
27.07219090763829
 21
2.500009729057637
 31
0.0
  0
LINE
  5
235B6
330
23509
100
AcDbEntity
  8
0
  6
Continuous
 62
   252
370
     5
100
AcDbLine
 10
25.92779090763816
 20
5.500019729057612
 30
0.0
 11
26.26109090763839
 21
2.500009729057637
 31
0.0
  0
LINE
  5
235B7
330
23509
100
AcDbEntity
  8
0
  6
Continuous
 62
   252
370
     5
100
AcDbLine
 10
28.23879090763785
 20
5.500019729057612
 30
0.0
 11
28.57219090763829
 21
2.500009729057637
 31
0.0
  0
LINE
  5
235B8
330
23509
100
AcDbEntity
  8
0
  6
Continuous
 62
   252
370
     5
100
AcDbLine
 10
27.42779090763816
 20
5.500019729057612
 30
0.0
 11
27.76109090763839
 21
2.500009729057637
 31
0.0
  0
LINE
  5
235B9
330
23509
100
AcDbEntity
  8
0
  6
Continuous
 62
   252
370
     5
100
AcDbLine
 10
29.73879090763785
 20
5.500019729057612
 30
0.0
 11
30.07219090763829
 21
2.500009729057637
 31
0.0
  0
LINE
  5
235BA
330
23509
100
AcDbEntity
  8
0
  6
Continuous
 62
   252
370
     5
100
AcDbLine
 10
28.92779090763816
 20
5.500019729057612
 30
0.0
 11
29.26109090763839
 21
2.500009729057637
 31
0.0
  0
LINE
  5
235BB
330
23509
100
AcDbEntity
  8
0
  6
Continuous
 62
   252
370
     5
100
AcDbLine
 10
30.42779090763815
 20
5.500019729057612
 30
0.0
 11
30.76109090763839
 21
2.500009729057637
 31
0.0
  0
LINE
  5
235BC
330
23509
100
AcDbEntity
  8
0
  6
Continuous
 62
   252
370
     5
100
AcDbLine
 10
33.42779090763816
 20
5.500019729057612
 30
0.0
 11
33.74999090763822
 21
6.000019729057612
 31
0.0
  0
LINE
  5
235BD
330
23509
100
AcDbEntity
  8
0
  6
Continuous
 62
   252
370
     5
100
AcDbLine
 10
33.74999090763822
 20
6.000019729057612
 30
0.0
 11
34.23879090763831
 21
5.500019729057612
 31
0.0
  0
LINE
  5
235BE
330
23509
100
AcDbEntity
  8
0
  6
Continuous
 62
   252
370
     5
100
AcDbLine
 10
34.24999090763822
 20
2.000009729057637
 30
0.0
 11
34.57219090763829
 21
2.500009729057637
 31
0.0
  0
LINE
  5
235BF
330
23509
100
AcDbEntity
  8
0
  6
Continuous
 62
   252
370
     5
100
AcDbLine
 10
33.76109090763839
 20
2.500009729057637
 30
0.0
 11
34.24999090763822
 21
2.000009729057637
 31
0.0
  0
LINE
  5
235C0
330
23509
100
AcDbEntity
  8
0
  6
Continuous
 62
   252
370
     5
100
AcDbLine
 10
31.92779090763816
 20
5.500019729057612
 30
0.0
 11
32.24999090763822
 21
6.000019729057612
 31
0.0
  0
LINE
  5
235C1
330
23509
100
AcDbEntity
  8
0
  6
Continuous
 62
   252
370
     5
100
AcDbLine
 10
32.24999090763822
 20
6.000019729057612
 30
0.0
 11
32.73879090763831
 21
5.500019729057612
 31
0.0
  0
LINE
  5
235C2
330
23509
100
AcDbEntity
  8
0
  6
Continuous
 62
   252
370
     5
100
AcDbLine
 10
32.74999090763822
 20
2.000009729057637
 30
0.0
 11
33.07219090763829
 21
2.500009729057637
 31
0.0
  0
LINE
  5
235C3
330
23509
100
AcDbEntity
  8
0
  6
Continuous
 62
   252
370
     5
100
AcDbLine
 10
32.26109090763839
 20
2.500009729057637
 30
0.0
 11
32.74999090763822
 21
2.000009729057637
 31
0.0
  0
LINE
  5
235C4
330
23509
100
AcDbEntity
  8
0
  6
Continuous
 62
   252
370
     5
100
AcDbLine
 10
31.23879090763831
 20
5.500019729057612
 30
0.0
 11
31.57219090763829
 21
2.500009729057637
 31
0.0
  0
LINE
  5
235C5
330
23509
100
AcDbEntity
  8
0
  6
Continuous
 62
   252
370
     5
100
AcDbLine
 10
31.23879090763831
 20
5.500019729057612
 30
0.0
 11
31.92779090763816
 21
5.500019729057612
 31
0.0
  0
LINE
  5
235C6
330
23509
100
AcDbEntity
  8
0
  6
Continuous
 62
   252
370
     5
100
AcDbLine
 10
31.57219090763829
 20
2.500009729057637
 30
0.0
 11
32.26109090763839
 21
2.500009729057637
 31
0.0
  0
LINE
  5
235C7
330
23509
100
AcDbEntity
  8
0
  6
Continuous
 62
   252
370
     5
100
AcDbLine
 10
32.73879090763831
 20
5.500019729057612
 30
0.0
 11
33.42779090763816
 21
5.500019729057612
 31
0.0
  0
LINE
  5
235C8
330
23509
100
AcDbEntity
  8
0
  6
Continuous
 62
   252
370
     5
100
AcDbLine
 10
33.07219090763829
 20
2.500009729057637
 30
0.0
 11
33.76109090763839
 21
2.500009729057637
 31
0.0
  0
LINE
  5
235C9
330
23509
100
AcDbEntity
  8
0
  6
Continuous
 62
   252
370
     5
100
AcDbLine
 10
34.23879090763831
 20
5.500019729057612
 30
0.0
 11
34.92779090763816
 21
5.500019729057612
 31
0.0
  0
LINE
  5
235CA
330
23509
100
AcDbEntity
  8
0
  6
Continuous
 62
   252
370
     5
100
AcDbLine
 10
34.57219090763829
 20
2.500009729057637
 30
0.0
 11
35.26109090763839
 21
2.500009729057637
 31
0.0
  0
LINE
  5
235CB
330
23509
100
AcDbEntity
  8
0
  6
Continuous
 62
   252
370
     5
100
AcDbLine
 10
34.92779090763816
 20
5.500019729057612
 30
0.0
 11
35.24999090763822
 21
6.000019729057612
 31
0.0
  0
LINE
  5
235CC
330
23509
100
AcDbEntity
  8
0
  6
Continuous
 62
   252
370
     5
100
AcDbLine
 10
35.24999090763822
 20
6.000019729057612
 30
0.0
 11
35.7387909076383
 21
5.500019729057612
 31
0.0
  0
LINE
  5
235CD
330
23509
100
AcDbEntity
  8
0
  6
Continuous
 62
   252
370
     5
100
AcDbLine
 10
35.74999090763822
 20
2.000009729057637
 30
0.0
 11
36.07219090763829
 21
2.500009729057637
 31
0.0
  0
LINE
  5
235CE
330
23509
100
AcDbEntity
  8
0
  6
Continuous
 62
   252
370
     5
100
AcDbLine
 10
35.26109090763839
 20
2.500009729057637
 30
0.0
 11
35.74999090763822
 21
2.000009729057637
 31
0.0
  0
LINE
  5
235CF
330
23509
100
AcDbEntity
  8
0
  6
Continuous
 62
   252
370
     5
100
AcDbLine
 10
36.42779090763816
 20
5.500019729057612
 30
0.0
 11
36.74999090763822
 21
6.000019729057612
 31
0.0
  0
LINE
  5
235D0
330
23509
100
AcDbEntity
  8
0
  6
Continuous
 62
   252
370
     5
100
AcDbLine
 10
36.74999090763822
 20
6.000019729057612
 30
0.0
 11
37.2387909076383
 21
5.500019729057612
 31
0.0
  0
LINE
  5
235D1
330
23509
100
AcDbEntity
  8
0
  6
Continuous
 62
   252
370
     5
100
AcDbLine
 10
37.24999090763822
 20
2.000009729057637
 30
0.0
 11
37.57219090763829
 21
2.500009729057637
 31
0.0
  0
LINE
  5
235D2
330
23509
100
AcDbEntity
  8
0
  6
Continuous
 62
   252
370
     5
100
AcDbLine
 10
36.76109090763839
 20
2.500009729057637
 30
0.0
 11
37.24999090763822
 21
2.000009729057637
 31
0.0
  0
LINE
  5
235D3
330
23509
100
AcDbEntity
  8
0
  6
Continuous
 62
   252
370
     5
100
AcDbLine
 10
37.57219090763829
 20
2.500009729057637
 30
0.0
 11
38.26109090763839
 21
2.500009729057637
 31
0.0
  0
LINE
  5
235D4
330
23509
100
AcDbEntity
  8
0
  6
Continuous
 62
   252
370
     5
100
AcDbLine
 10
37.2387909076383
 20
5.500019729057612
 30
0.0
 11
37.92779090763815
 21
5.500019729057612
 31
0.0
  0
LINE
  5
235D5
330
23509
100
AcDbEntity
  8
0
  6
Continuous
 62
   252
370
     5
100
AcDbLine
 10
35.7387909076383
 20
5.500019729057612
 30
0.0
 11
36.42779090763816
 21
5.500019729057612
 31
0.0
  0
LINE
  5
235D6
330
23509
100
AcDbEntity
  8
0
  6
Continuous
 62
   252
370
     5
100
AcDbLine
 10
36.07219090763829
 20
2.500009729057637
 30
0.0
 11
36.76109090763839
 21
2.500009729057637
 31
0.0
  0
LINE
  5
235D7
330
23509
100
AcDbEntity
  8
0
  6
Continuous
 62
   252
370
     5
100
AcDbLine
 10
37.92779090763815
 20
5.500019729057612
 30
0.0
 11
38.24999090763822
 21
6.000019729057612
 31
0.0
  0
LINE
  5
235D8
330
23509
100
AcDbEntity
  8
0
  6
Continuous
 62
   252
370
     5
100
AcDbLine
 10
38.24999090763822
 20
6.000019729057612
 30
0.0
 11
38.73879090763831
 21
5.500019729057612
 31
0.0
  0
LINE
  5
235D9
330
23509
100
AcDbEntity
  8
0
  6
Continuous
 62
   252
370
     5
100
AcDbLine
 10
38.74999090763822
 20
2.000009729057637
 30
0.0
 11
39.07219090763829
 21
2.500009729057637
 31
0.0
  0
LINE
  5
235DA
330
23509
100
AcDbEntity
  8
0
  6
Continuous
 62
   252
370
     5
100
AcDbLine
 10
38.26109090763839
 20
2.500009729057637
 30
0.0
 11
38.74999090763822
 21
2.000009729057637
 31
0.0
  0
LINE
  5
235DB
330
23509
100
AcDbEntity
  8
0
  6
Continuous
 62
   252
370
     5
100
AcDbLine
 10
39.42779090763816
 20
5.500019729057612
 30
0.0
 11
39.74999090763822
 21
6.000019729057612
 31
0.0
  0
LINE
  5
235DC
330
23509
100
AcDbEntity
  8
0
  6
Continuous
 62
   252
370
     5
100
AcDbLine
 10
39.74999090763822
 20
6.000019729057612
 30
0.0
 11
40.2387909076383
 21
5.500019729057612
 31
0.0
  0
LINE
  5
235DD
330
23509
100
AcDbEntity
  8
0
  6
Continuous
 62
   252
370
     5
100
AcDbLine
 10
40.24999090763822
 20
2.000009729057637
 30
0.0
 11
40.57219090763829
 21
2.500009729057637
 31
0.0
  0
LINE
  5
235DE
330
23509
100
AcDbEntity
  8
0
  6
Continuous
 62
   252
370
     5
100
AcDbLine
 10
39.76109090763839
 20
2.500009729057637
 30
0.0
 11
40.24999090763822
 21
2.000009729057637
 31
0.0
  0
LINE
  5
235DF
330
23509
100
AcDbEntity
  8
0
  6
Continuous
 62
   252
370
     5
100
AcDbLine
 10
38.73879090763831
 20
5.500019729057612
 30
0.0
 11
39.42779090763816
 21
5.500019729057612
 31
0.0
  0
LINE
  5
235E0
330
23509
100
AcDbEntity
  8
0
  6
Continuous
 62
   252
370
     5
100
AcDbLine
 10
39.07219090763829
 20
2.500009729057637
 30
0.0
 11
39.76109090763839
 21
2.500009729057637
 31
0.0
  0
LINE
  5
235E1
330
23509
100
AcDbEntity
  8
0
  6
Continuous
 62
   252
370
     5
100
AcDbLine
 10
32.73879090763785
 20
5.500019729057612
 30
0.0
 11
33.07219090763829
 21
2.500009729057637
 31
0.0
  0
LINE
  5
235E2
330
23509
100
AcDbEntity
  8
0
  6
Continuous
 62
   252
370
     5
100
AcDbLine
 10
31.92779090763816
 20
5.500019729057612
 30
0.0
 11
32.26109090763839
 21
2.500009729057637
 31
0.0
  0
LINE
  5
235E3
330
23509
100
AcDbEntity
  8
0
  6
Continuous
 62
   252
370
     5
100
AcDbLine
 10
34.23879090763785
 20
5.500019729057612
 30
0.0
 11
34.57219090763829
 21
2.500009729057637
 31
0.0
  0
LINE
  5
235E4
330
23509
100
AcDbEntity
  8
0
  6
Continuous
 62
   252
370
     5
100
AcDbLine
 10
33.42779090763816
 20
5.500019729057612
 30
0.0
 11
33.76109090763839
 21
2.500009729057637
 31
0.0
  0
LINE
  5
235E5
330
23509
100
AcDbEntity
  8
0
  6
Continuous
 62
   252
370
     5
100
AcDbLine
 10
35.73879090763785
 20
5.500019729057612
 30
0.0
 11
36.07219090763829
 21
2.500009729057637
 31
0.0
  0
LINE
  5
235E6
330
23509
100
AcDbEntity
  8
0
  6
Continuous
 62
   252
370
     5
100
AcDbLine
 10
34.92779090763816
 20
5.500019729057612
 30
0.0
 11
35.26109090763839
 21
2.500009729057637
 31
0.0
  0
LINE
  5
235E7
330
23509
100
AcDbEntity
  8
0
  6
Continuous
 62
   252
370
     5
100
AcDbLine
 10
37.23879090763785
 20
5.500019729057612
 30
0.0
 11
37.57219090763829
 21
2.500009729057637
 31
0.0
  0
LINE
  5
235E8
330
23509
100
AcDbEntity
  8
0
  6
Continuous
 62
   252
370
     5
100
AcDbLine
 10
36.42779090763816
 20
5.500019729057612
 30
0.0
 11
36.76109090763839
 21
2.500009729057637
 31
0.0
  0
LINE
  5
235E9
330
23509
100
AcDbEntity
  8
0
  6
Continuous
 62
   252
370
     5
100
AcDbLine
 10
38.73879090763785
 20
5.500019729057612
 30
0.0
 11
39.07219090763829
 21
2.500009729057637
 31
0.0
  0
LINE
  5
235EA
330
23509
100
AcDbEntity
  8
0
  6
Continuous
 62
   252
370
     5
100
AcDbLine
 10
37.92779090763815
 20
5.500019729057612
 30
0.0
 11
38.26109090763839
 21
2.500009729057637
 31
0.0
  0
LINE
  5
235EB
330
23509
100
AcDbEntity
  8
0
  6
Continuous
 62
   252
370
     5
100
AcDbLine
 10
39.42779090763816
 20
5.500019729057612
 30
0.0
 11
39.76109090763839
 21
2.500009729057637
 31
0.0
  0
LINE
  5
235EC
330
23509
100
AcDbEntity
  8
0
  6
Continuous
 62
   252
370
     5
100
AcDbLine
 10
40.2387909076383
 20
5.500019729057612
 30
0.0
 11
40.92779090763815
 21
5.500019729057612
 31
0.0
  0
LINE
  5
235ED
330
23509
100
AcDbEntity
  8
0
  6
Continuous
 62
   252
370
     5
100
AcDbLine
 10
40.57219090763829
 20
2.500009729057637
 30
0.0
 11
41.26109090763839
 21
2.500009729057637
 31
0.0
  0
LINE
  5
235EE
330
23509
100
AcDbEntity
  8
0
  6
Continuous
 62
   252
370
     5
100
AcDbLine
 10
40.2387909076383
 20
5.500019729057612
 30
0.0
 11
40.57219090763829
 21
2.500009729057637
 31
0.0
  0
LINE
  5
235EF
330
23509
100
AcDbEntity
  8
0
  6
Continuous
 62
   252
370
     5
100
AcDbLine
 10
40.92779090763815
 20
5.500019729057612
 30
0.0
 11
41.24999090763867
 21
6.000019729057612
 31
0.0
  0
LINE
  5
235F0
330
23509
100
AcDbEntity
  8
0
  6
Continuous
 62
   252
370
     5
100
AcDbLine
 10
41.24999090763867
 20
6.000019729057612
 30
0.0
 11
41.7387909076383
 21
5.500019729057612
 31
0.0
  0
LINE
  5
235F1
330
23509
100
AcDbEntity
  8
0
  6
Continuous
 62
   252
370
     5
100
AcDbLine
 10
41.74999090763868
 20
2.000009729057637
 30
0.0
 11
42.07219090763828
 21
2.500009729057637
 31
0.0
  0
LINE
  5
235F2
330
23509
100
AcDbEntity
  8
0
  6
Continuous
 62
   252
370
     5
100
AcDbLine
 10
41.26109090763839
 20
2.500009729057637
 30
0.0
 11
41.74999090763868
 21
2.000009729057637
 31
0.0
  0
LINE
  5
235F3
330
23509
100
AcDbEntity
  8
0
  6
Continuous
 62
   252
370
     5
100
AcDbLine
 10
40.92779090763815
 20
5.500019729057612
 30
0.0
 11
41.26119090763859
 21
2.500009729057637
 31
0.0
  0
ENDBLK
  5
235F4
330
23509
100
AcDbEntity
  8
0
370
    25
100
AcDbBlockEnd
  0
BLOCK
  5
235F6
330
235F5
100
AcDbEntity
  8
0
370
    25
100
AcDbBlockBegin
  2
*D7
 70
     1
 10
0.0
 20
0.0
 30
0.0
  3
*D7
  1

  0
LINE
  5
235F7
330
235F5
100
AcDbEntity
  8
寸法
 62
     0
370
    -2
100
AcDbLine
 10
-12339.0590594217
 20
2281.292102425417
 30
0.0
 11
-12277.12430011567
 21
2281.292102425417
 31
0.0
  0
LINE
  5
235F8
330
235F5
100
AcDbEntity
  8
寸法
 62
     0
370
    -2
100
AcDbLine
 10
-12339.0590594217
 20
2256.292102425417
 30
0.0
 11
-12277.12430011567
 21
2256.292102425417
 31
0.0
  0
LINE
  5
235F9
330
235F5
100
AcDbEntity
  8
寸法
 62
     0
370
    -2
100
AcDbLine
 10
-12280.30430011567
 20
2282.792786019167
 30
0.0
 11
-12280.30430011567
 21
2284.293469612916
 31
0.0
  0
LINE
  5
235FA
330
235F5
100
AcDbEntity
  8
寸法
 62
     0
370
    -2
100
AcDbLine
 10
-12280.30430011567
 20
2254.791418831667
 30
0.0
 11
-12280.30430011567
 21
2253.290735237917
 31
0.0
  0
LINE
  5
235FB
330
235F5
100
AcDbEntity
  8
寸法
 62
     0
370
    -2
100
AcDbLine
 10
-12280.30430011567
 20
2281.292102425417
 30
0.0
 11
-12280.30430011567
 21
2256.292102425417
 31
0.0
  0
INSERT
  5
235FC
330
235F5
100
AcDbEntity
  8
寸法
 62
     0
370
    -2
100
AcDbBlockReference
  2
_DOT
 10
-12280.30430011567
 20
2281.292102425417
 30
0.0
 41
1.500683593749999
 42
1.500683593749999
 43
1.500683593749999
 50
270.0
  0
INSERT
  5
235FD
330
235F5
100
AcDbEntity
  8
寸法
 62
     0
370
    -2
100
AcDbBlockReference
  2
_DOT
 10
-12280.30430011567
 20
2256.292102425417
 30
0.0
 41
1.500683593749999
 42
1.500683593749999
 43
1.500683593749999
 50
90.0
  0
MTEXT
  5
235FE
330
235F5
100
AcDbEntity
  8
寸法
 62
     0
370
    25
100
AcDbMText
 10
-12293.89180011567
 20
2268.792102425415
 30
0.0
 40
24.0
 41
0.0
 46
0.0
 71
     5
 72
     1
  1
\A1;25
  7
ヒラギノ角ゴ Pro W3
 11
0.0000000000000001
 21
1.0
 31
0.0
 73
     1
 44
1.0
  0
POINT
  5
235FF
330
235F5
100
AcDbEntity
  8
Defpoints
 62
     0
370
     5
100
AcDbPoint
 10
-12347.0590594217
 20
2281.292102425417
 30
0.0
  0
POINT
  5
23600
330
235F5
100
AcDbEntity
  8
Defpoints
 62
     0
370
     5
100
AcDbPoint
 10
-12347.0590594217
 20
2256.292102425417
 30
0.0
  0
POINT
  5
23601
330
235F5
100
AcDbEntity
  8
Defpoints
 62
     0
370
     5
100
AcDbPoint
 10
-12280.30430011567
 20
2256.292102425417
 30
0.0
  0
ENDBLK
  5
23602
330
235F5
100
AcDbEntity
  8
0
370
    25
100
AcDbBlockEnd
  0
BLOCK
  5
23604
330
23603
100
AcDbEntity
  8
0
370
    25
100
AcDbBlockBegin
  2
*D8
 70
     1
 10
0.0
 20
0.0
 30
0.0
  3
*D8
  1

  0
LINE
  5
23605
330
23603
100
AcDbEntity
  8
寸法
 62
     0
370
    -2
100
AcDbLine
 10
-12339.0590594217
 20
2256.292102425417
 30
0.0
 11
-12277.12430011567
 21
2256.292102425417
 31
0.0
  0
LINE
  5
23606
330
23603
100
AcDbEntity
  8
寸法
 62
     0
370
    -2
100
AcDbLine
 10
-12341.61787480422
 20
2186.292101152393
 30
0.0
 11
-12277.12430011567
 21
2186.292101152393
 31
0.0
  0
LINE
  5
23607
330
23603
100
AcDbEntity
  8
寸法
 62
     0
370
    -2
100
AcDbLine
 10
-12280.30430011567
 20
2254.791418831667
 30
0.0
 11
-12280.30430011567
 21
2187.792784746143
 31
0.0
  0
INSERT
  5
23608
330
23603
100
AcDbEntity
  8
寸法
 62
     0
370
    -2
100
AcDbBlockReference
  2
_DOT
 10
-12280.30430011567
 20
2256.292102425417
 30
0.0
 41
1.500683593749999
 42
1.500683593749999
 43
1.500683593749999
 50
90.0
  0
INSERT
  5
23609
330
23603
100
AcDbEntity
  8
寸法
 62
     0
370
    -2
100
AcDbBlockReference
  2
_DOT
 10
-12280.30430011567
 20
2186.292101152393
 30
0.0
 41
1.500683593749999
 42
1.500683593749999
 43
1.500683593749999
 50
270.0
  0
MTEXT
  5
2360A
330
23603
100
AcDbEntity
  8
寸法
 62
     0
370
    25
100
AcDbMText
 10
-12293.89180011567
 20
2221.292101788903
 30
0.0
 40
24.0
 41
0.0
 46
0.0
 71
     5
 72
     1
  1
\A1;70
  7
ヒラギノ角ゴ Pro W3
 11
0.0000000000000001
 21
1.0
 31
0.0
 73
     1
 44
1.0
  0
POINT
  5
2360B
330
23603
100
AcDbEntity
  8
Defpoints
 62
     0
370
     5
100
AcDbPoint
 10
-12347.0590594217
 20
2256.292102425417
 30
0.0
  0
POINT
  5
2360C
330
23603
100
AcDbEntity
  8
Defpoints
 62
     0
370
     5
100
AcDbPoint
 10
-12349.61787480422
 20
2186.292101152393
 30
0.0
  0
POINT
  5
2360D
330
23603
100
AcDbEntity
  8
Defpoints
 62
     0
370
     5
100
AcDbPoint
 10
-12280.30430011567
 20
2186.292101152393
 30
0.0
  0
ENDBLK
  5
2360E
330
23603
100
AcDbEntity
  8
0
370
    25
100
AcDbBlockEnd
  0
BLOCK
  5
23612
330
2360F
100
AcDbEntity
  8
0
370
    25
100
AcDbBlockBegin
  2
A$C4D064DB7
 70
     0
 10
0.0
 20
0.0
 30
0.0
  3
A$C4D064DB7
  1

  0
LWPOLYLINE
  5
23613
330
2360F
100
AcDbEntity
  8
木ネジ、ダボ
370
    50
100
AcDbPolyline
 90
        4
 70
     1
 43
0.0
 10
0.0
 20
0.0
 10
10.0
 20
0.0
 10
10.0
 20
3.0
 10
0.0
 20
3.0
1001
AcDbBlockRepETag
1070
     1
1071
        0
1005
23613
  0
LINE
  5
23614
330
2360F
100
AcDbEntity
  8
木ネジ、ダボ
370
    50
100
AcDbLine
 10
0.0
 20
1.5
 30
0.0
 11
10.0
 21
1.5
 31
0.0
1001
AcDbBlockRepETag
1070
     1
1071
        1
1005
23614
  0
LINE
  5
23615
330
2360F
100
AcDbEntity
  8
木ネジ、ダボ
370
    50
100
AcDbLine
 10
0.0
 20
1.0
 30
0.0
 11
10.0
 21
1.0
 31
0.0
1001
AcDbBlockRepETag
1070
     1
1071
        2
1005
23615
  0
LINE
  5
23616
330
2360F
100
AcDbEntity
  8
木ネジ、ダボ
370
    50
100
AcDbLine
 10
0.0
 20
0.5
 30
0.0
 11
10.0
 21
0.5
 31
0.0
1001
AcDbBlockRepETag
1070
     1
1071
        3
1005
23616
  0
LINE
  5
23617
330
2360F
100
AcDbEntity
  8
木ネジ、ダボ
370
    50
100
AcDbLine
 10
0.0
 20
2.0
 30
0.0
 11
10.0
 21
2.0
 31
0.0
1001
AcDbBlockRepETag
1070
     1
1071
        4
1005
23617
  0
LINE
  5
23618
330
2360F
100
AcDbEntity
  8
木ネジ、ダボ
370
    50
100
AcDbLine
 10
0.0
 20
2.5
 30
0.0
 11
10.0
 21
2.5
 31
0.0
1001
AcDbBlockRepETag
1070
     1
1071
        5
1005
23618
  0
ENDBLK
  5
23619
330
2360F
100
AcDbEntity
  8
0
370
    25
100
AcDbBlockEnd
  0
BLOCK
  5
2361D
330
2361A
100
AcDbEntity
  8
0
370
     5
100
AcDbBlockBegin
  2
A$C12383B25
 70
     0
 10
0.0
 20
0.0
 30
0.0
  3
A$C12383B25
  1

  0
LINE
  5
2361E
330
2361A
100
AcDbEntity
  8
ボルト
  6
Continuous
370
    25
100
AcDbLine
 10
3.595005438324733
 20
8.231998114721591
 30
0.0
 11
5.01627352509422
 21
8.231998114721591
 31
0.0
1001
AcDbBlockRepETag
1070
     1
1071
        0
1005
2361E
  0
LINE
  5
2361F
330
2361A
100
AcDbEntity
  8
ボルト
  6
Continuous
370
    25
100
AcDbLine
 10
2.595005438324733
 20
6.49999811472162
 30
0.0
 11
3.595005438324733
 21
8.231998114721591
 31
0.0
1001
AcDbBlockRepETag
1070
     1
1071
        1
1005
2361F
  0
LINE
  5
23620
330
2361A
100
AcDbEntity
  8
ボルト
  6
Continuous
370
    25
100
AcDbLine
 10
2.595005438324733
 20
6.49999811472162
 30
0.0
 11
3.595005438324733
 21
4.767898114721447
 31
0.0
1001
AcDbBlockRepETag
1070
     1
1071
        2
1005
23620
  0
LINE
  5
23621
330
2361A
100
AcDbEntity
  8
ボルト
  6
Continuous
370
    25
100
AcDbLine
 10
3.595005438324733
 20
4.767898114721447
 30
0.0
 11
5.016273525092401
 21
4.767898114721447
 31
0.0
1001
AcDbBlockRepETag
1070
     1
1071
        3
1005
23621
  0
LINE
  5
23622
330
2361A
100
AcDbEntity
  8
ボルト
  6
Continuous
370
    25
100
AcDbLine
 10
5.016273525092401
 20
4.767898114721447
 30
0.0
 11
6.016273525092401
 21
6.49999811472162
 31
0.0
1001
AcDbBlockRepETag
1070
     1
1071
        4
1005
23622
  0
LINE
  5
23623
330
2361A
100
AcDbEntity
  8
ボルト
  6
Continuous
370
    25
100
AcDbLine
 10
5.016273525092401
 20
8.231998114721591
 30
0.0
 11
6.016273525092401
 21
6.49999811472162
 31
0.0
1001
AcDbBlockRepETag
1070
     1
1071
        5
1005
23623
  0
ELLIPSE
  5
23624
330
2361A
100
AcDbEntity
  8
ボルト
370
    25
100
AcDbEllipse
 10
4.595005438324733
 20
6.49999811472162
 30
0.0
 11
0.0
 21
6.5
 31
0.0
210
0.0
220
0.0
230
1.0
 40
0.7071067811865271
 41
0.0
 42
6.283185307179586
1001
AcDbBlockRepETag
1070
     1
1071
        6
1005
23624
  0
ELLIPSE
  5
23625
330
2361A
100
AcDbEntity
  8
ボルト
370
    25
100
AcDbEllipse
 10
4.595005438324733
 20
6.49999811472162
 30
0.0
 11
0.0
 21
5.699999999999818
 31
0.0
210
0.0
220
0.0
230
1.0
 40
0.7195121633122613
 41
0.0
 42
6.283185307179586
1001
AcDbBlockRepETag
1070
     1
1071
        7
1005
23625
  0
LINE
  5
23626
330
2361A
100
AcDbEntity
  8
ボルト
  6
Continuous
370
    25
100
AcDbLine
 10
3.212340764195687
 20
6.49999811472162
 30
0.0
 11
4.212340764195687
 21
8.231998114721591
 31
0.0
1001
AcDbBlockRepETag
1070
     1
1071
        8
1005
23626
  0
LINE
  5
23627
330
2361A
100
AcDbEntity
  8
ボルト
  6
Continuous
370
    25
100
AcDbLine
 10
3.212340764195687
 20
6.49999811472162
 30
0.0
 11
4.212340764195687
 21
4.767898114721447
 31
0.0
1001
AcDbBlockRepETag
1070
     1
1071
        9
1005
23627
  0
ENDBLK
  5
23628
330
2361A
100
AcDbEntity
  8
0
370
     5
100
AcDbBlockEnd
  0
BLOCK
  5
2362A
330
23629
100
AcDbEntity
  8
0
370
     5
100
AcDbBlockBegin
  2
*D11
 70
     1
 10
0.0
 20
0.0
 30
0.0
  3
*D11
  1

  0
LINE
  5
2362B
330
23629
100
AcDbEntity
  8
寸法
 62
     0
370
    -2
100
AcDbLine
 10
-13050.99381872773
 20
2302.878105804035
 30
0.0
 11
-13050.99381872773
 21
2338.464109182654
 31
0.0
  0
LINE
  5
2362C
330
23629
100
AcDbEntity
  8
寸法
 62
     0
370
    -2
100
AcDbLine
 10
-12368.99381872773
 20
2302.878105804035
 30
0.0
 11
-12368.99381872773
 21
2338.464109182654
 31
0.0
  0
LINE
  5
2362D
330
23629
100
AcDbEntity
  8
寸法
 62
     0
370
    -2
100
AcDbLine
 10
-13049.49313513398
 20
2335.284109182654
 30
0.0
 11
-12370.49450232148
 21
2335.284109182654
 31
0.0
  0
INSERT
  5
2362E
330
23629
100
AcDbEntity
  8
寸法
 62
     0
370
    -2
100
AcDbBlockReference
  2
_DOT
 10
-13050.99381872773
 20
2335.284109182654
 30
0.0
 41
1.500683593749999
 42
1.500683593749999
 43
1.500683593749999
 50
180.0
  0
INSERT
  5
2362F
330
23629
100
AcDbEntity
  8
寸法
 62
     0
370
    -2
100
AcDbBlockReference
  2
_DOT
 10
-12368.99381872773
 20
2335.284109182654
 30
0.0
 41
1.500683593749999
 42
1.500683593749999
 43
1.500683593749999
  0
MTEXT
  5
23630
330
23629
100
AcDbEntity
  8
寸法
 62
     0
370
     5
100
AcDbMText
 10
-12709.99381872773
 20
2348.871609182654
 30
0.0
 40
24.0
 41
0.0
 46
0.0
 71
     5
 72
     1
  1
\A1;W=682
  7
ヒラギノ角ゴ Pro W3
 73
     1
 44
1.0
  0
POINT
  5
23631
330
23629
100
AcDbEntity
  8
Defpoints
 62
     0
370
     5
100
AcDbPoint
 10
-13050.99381872773
 20
2294.878105804035
 30
0.0
  0
POINT
  5
23632
330
23629
100
AcDbEntity
  8
Defpoints
 62
     0
370
     5
100
AcDbPoint
 10
-12368.99381872773
 20
2294.878105804035
 30
0.0
  0
POINT
  5
23633
330
23629
100
AcDbEntity
  8
Defpoints
 62
     0
370
     5
100
AcDbPoint
 10
-12368.99381872773
 20
2335.284109182654
 30
0.0
  0
ENDBLK
  5
23634
330
23629
100
AcDbEntity
  8
0
370
     5
100
AcDbBlockEnd
  0
BLOCK
  5
23636
330
23635
100
AcDbEntity
  8
0
370
     5
100
AcDbBlockBegin
  2
*D12
 70
     1
 10
0.0
 20
0.0
 30
0.0
  3
*D12
  1

  0
LINE
  5
23637
330
23635
100
AcDbEntity
  8
寸法
 62
     0
370
    -2
100
AcDbLine
 10
-13013.49381872773
 20
2281.292102425417
 30
0.0
 11
-13232.86948408826
 21
2281.292102425417
 31
0.0
  0
LINE
  5
23638
330
23635
100
AcDbEntity
  8
寸法
 62
     0
370
    -2
100
AcDbLine
 10
-13053.99381872773
 20
1751.29210242542
 30
0.0
 11
-13232.86948408826
 21
1751.29210242542
 31
0.0
  0
LINE
  5
23639
330
23635
100
AcDbEntity
  8
寸法
 62
     0
370
    -2
100
AcDbLine
 10
-13229.68948408826
 20
2279.791418831667
 30
0.0
 11
-13229.68948408826
 21
1752.79278601917
 31
0.0
  0
INSERT
  5
2363A
330
23635
100
AcDbEntity
  8
寸法
 62
     0
370
    -2
100
AcDbBlockReference
  2
_DOT
 10
-13229.68948408826
 20
2281.292102425417
 30
0.0
 41
1.500683593749999
 42
1.500683593749999
 43
1.500683593749999
 50
90.0
  0
INSERT
  5
2363B
330
23635
100
AcDbEntity
  8
寸法
 62
     0
370
    -2
100
AcDbBlockReference
  2
_DOT
 10
-13229.68948408826
 20
1751.29210242542
 30
0.0
 41
1.500683593749999
 42
1.500683593749999
 43
1.500683593749999
 50
270.0
  0
MTEXT
  5
2363C
330
23635
100
AcDbEntity
  8
寸法
 62
     0
370
     5
100
AcDbMText
 10
-13243.27698408826
 20
2016.292102425416
 30
0.0
 40
24.0
 41
0.0
 46
0.0
 71
     5
 72
     1
  1
\A1;H=530
  7
ヒラギノ角ゴ Pro W3
 11
0.0000000000000001
 21
1.0
 31
0.0
 73
     1
 44
1.0
  0
POINT
  5
2363D
330
23635
100
AcDbEntity
  8
Defpoints
 62
     0
370
     5
100
AcDbPoint
 10
-13005.49381872773
 20
2281.292102425417
 30
0.0
  0
POINT
  5
2363E
330
23635
100
AcDbEntity
  8
Defpoints
 62
     0
370
     5
100
AcDbPoint
 10
-13045.99381872773
 20
1751.29210242542
 30
0.0
  0
POINT
  5
2363F
330
23635
100
AcDbEntity
  8
Defpoints
 62
     0
370
     5
100
AcDbPoint
 10
-13229.68948408826
 20
1751.29210242542
 30
0.0
  0
ENDBLK
  5
23640
330
23635
100
AcDbEntity
  8
0
370
     5
100
AcDbBlockEnd
  0
BLOCK
  5
23642
330
23641
100
AcDbEntity
  8
0
370
     5
100
AcDbBlockBegin
  2
*D13
 70
     1
 10
0.0
 20
0.0
 30
0.0
  3
*D13
  1

  0
LINE
  5
23643
330
23641
100
AcDbEntity
  8
寸法
 62
     0
370
    -2
100
AcDbLine
 10
-11815.53878255768
 20
2268.292102425417
 30
0.0
 11
-12040.74958890011
 21
2268.292102425417
 31
0.0
  0
LINE
  5
23644
330
23641
100
AcDbEntity
  8
寸法
 62
     0
370
    -2
100
AcDbLine
 10
-11835.53878255768
 20
1751.29210242542
 30
0.0
 11
-12040.74958890011
 21
1751.29210242542
 31
0.0
  0
LINE
  5
23645
330
23641
100
AcDbEntity
  8
寸法
 62
     0
370
    -2
100
AcDbLine
 10
-12037.5695889001
 20
2266.791418831667
 30
0.0
 11
-12037.5695889001
 21
1752.79278601917
 31
0.0
  0
INSERT
  5
23646
330
23641
100
AcDbEntity
  8
寸法
 62
     0
370
    -2
100
AcDbBlockReference
  2
_DOT
 10
-12037.5695889001
 20
2268.292102425417
 30
0.0
 41
1.500683593749999
 42
1.500683593749999
 43
1.500683593749999
 50
90.0
  0
INSERT
  5
23647
330
23641
100
AcDbEntity
  8
寸法
 62
     0
370
    -2
100
AcDbBlockReference
  2
_DOT
 10
-12037.5695889001
 20
1751.29210242542
 30
0.0
 41
1.500683593749999
 42
1.500683593749999
 43
1.500683593749999
 50
270.0
  0
MTEXT
  5
23648
330
23641
100
AcDbEntity
  8
寸法
 62
     0
370
     5
100
AcDbMText
 10
-12051.15708890011
 20
2009.792102425416
 30
0.0
 40
24.0
 41
0.0
 46
0.0
 71
     5
 72
     1
  1
\A1;517
  7
ヒラギノ角ゴ Pro W3
 11
0.0000000000000001
 21
1.0
 31
0.0
 73
     1
 44
1.0
  0
POINT
  5
23649
330
23641
100
AcDbEntity
  8
Defpoints
 62
     0
370
     5
100
AcDbPoint
 10
-11807.53878255768
 20
2268.292102425417
 30
0.0
  0
POINT
  5
2364A
330
23641
100
AcDbEntity
  8
Defpoints
 62
     0
370
     5
100
AcDbPoint
 10
-11827.53878255768
 20
1751.29210242542
 30
0.0
  0
POINT
  5
2364B
330
23641
100
AcDbEntity
  8
Defpoints
 62
     0
370
     5
100
AcDbPoint
 10
-12037.5695889001
 20
1751.29210242542
 30
0.0
  0
ENDBLK
  5
2364C
330
23641
100
AcDbEntity
  8
0
370
     5
100
AcDbBlockEnd
  0
BLOCK
  5
2364E
330
2364D
100
AcDbEntity
  8
0
370
     5
100
AcDbBlockBegin
  2
*D14
 70
     1
 10
0.0
 20
0.0
 30
0.0
  3
*D14
  1

  0
LINE
  5
2364F
330
2364D
100
AcDbEntity
  8
寸法
 62
     0
370
    -2
100
AcDbLine
 10
-11414.5387825669
 20
2256.292102466049
 30
0.0
 11
-11139.3135187377
 21
2256.292102466049
 31
0.0
  0
LINE
  5
23650
330
2364D
100
AcDbEntity
  8
寸法
 62
     0
370
    -2
100
AcDbLine
 10
-11419.53878255768
 20
1751.292102415262
 30
0.0
 11
-11139.3135187377
 21
1751.292102415262
 31
0.0
  0
LINE
  5
23651
330
2364D
100
AcDbEntity
  8
寸法
 62
     0
370
    -2
100
AcDbLine
 10
-11142.4935187377
 20
2254.791418872299
 30
0.0
 11
-11142.4935187377
 21
1752.792786009012
 31
0.0
  0
INSERT
  5
23652
330
2364D
100
AcDbEntity
  8
寸法
 62
     0
370
    -2
100
AcDbBlockReference
  2
_DOT
 10
-11142.4935187377
 20
2256.292102466049
 30
0.0
 41
1.500683593749999
 42
1.500683593749999
 43
1.500683593749999
 50
90.0
  0
INSERT
  5
23653
330
2364D
100
AcDbEntity
  8
寸法
 62
     0
370
    -2
100
AcDbBlockReference
  2
_DOT
 10
-11142.4935187377
 20
1751.292102415262
 30
0.0
 41
1.500683593749999
 42
1.500683593749999
 43
1.500683593749999
 50
270.0
  0
MTEXT
  5
23654
330
2364D
100
AcDbEntity
  8
寸法
 62
     0
370
     5
100
AcDbMText
 10
-11156.0810187377
 20
2003.792102440653
 30
0.0
 40
24.0
 41
0.0
 46
0.0
 71
     5
 72
     1
  1
\A1;505
  7
ヒラギノ角ゴ Pro W3
 11
0.0000000000000001
 21
1.0
 31
0.0
 73
     1
 44
1.0
  0
POINT
  5
23655
330
2364D
100
AcDbEntity
  8
Defpoints
 62
     0
370
     5
100
AcDbPoint
 10
-11422.5387825669
 20
2256.292102466049
 30
0.0
  0
POINT
  5
23656
330
2364D
100
AcDbEntity
  8
Defpoints
 62
     0
370
     5
100
AcDbPoint
 10
-11427.53878255768
 20
1751.292102415262
 30
0.0
  0
POINT
  5
23657
330
2364D
100
AcDbEntity
  8
Defpoints
 62
     0
370
     5
100
AcDbPoint
 10
-11142.4935187377
 20
1751.292102415262
 30
0.0
  0
ENDBLK
  5
23658
330
2364D
100
AcDbEntity
  8
0
370
     5
100
AcDbBlockEnd
  0
BLOCK
  5
2365A
330
23659
100
AcDbEntity
  8
0
370
     5
100
AcDbBlockBegin
  2
*D15
 70
     1
 10
0.0
 20
0.0
 30
0.0
  3
*D15
  1

  0
LINE
  5
2365B
330
23659
100
AcDbEntity
  8
寸法
 62
     0
370
    -2
100
AcDbLine
 10
-11797.53878255819
 20
2178.292103532657
 30
0.0
 11
-11797.53878255819
 21
2120.000277990554
 31
0.0
  0
LINE
  5
2365C
330
23659
100
AcDbEntity
  8
寸法
 62
     0
370
    -2
100
AcDbLine
 10
-11470.45166104168
 20
2178.292102563391
 30
0.0
 11
-11470.45166104168
 21
2120.000277990554
 31
0.0
  0
LINE
  5
2365D
330
23659
100
AcDbEntity
  8
寸法
 62
     0
370
    -2
100
AcDbLine
 10
-11796.03809896444
 20
2123.180277990554
 30
0.0
 11
-11471.95234463543
 21
2123.180277990554
 31
0.0
  0
INSERT
  5
2365E
330
23659
100
AcDbEntity
  8
寸法
 62
     0
370
    -2
100
AcDbBlockReference
  2
_DOT
 10
-11797.53878255819
 20
2123.180277990554
 30
0.0
 41
1.500683593749999
 42
1.500683593749999
 43
1.500683593749999
 50
180.0
  0
INSERT
  5
2365F
330
23659
100
AcDbEntity
  8
寸法
 62
     0
370
    -2
100
AcDbBlockReference
  2
_DOT
 10
-11470.45166104168
 20
2123.180277990554
 30
0.0
 41
1.500683593749999
 42
1.500683593749999
 43
1.500683593749999
  0
MTEXT
  5
23660
330
23659
100
AcDbEntity
  8
寸法
 62
     0
370
     5
100
AcDbMText
 10
-11633.99522179994
 20
2136.767777990554
 30
0.0
 40
24.0
 41
0.0
 46
0.0
 71
     5
 72
     1
  1
\A1;327
  7
ヒラギノ角ゴ Pro W3
 73
     1
 44
1.0
  0
POINT
  5
23661
330
23659
100
AcDbEntity
  8
Defpoints
 62
     0
370
     5
100
AcDbPoint
 10
-11797.53878255819
 20
2186.292103532657
 30
0.0
  0
POINT
  5
23662
330
23659
100
AcDbEntity
  8
Defpoints
 62
     0
370
     5
100
AcDbPoint
 10
-11470.45166104168
 20
2186.292102563391
 30
0.0
  0
POINT
  5
23663
330
23659
100
AcDbEntity
  8
Defpoints
 62
     0
370
     5
100
AcDbPoint
 10
-11470.45166104168
 20
2123.180277990554
 30
0.0
  0
ENDBLK
  5
23664
330
23659
100
AcDbEntity
  8
0
370
     5
100
AcDbBlockEnd
  0
BLOCK
  5
23668
330
23665
100
AcDbEntity
  8
0
370
     5
100
AcDbBlockBegin
  2
A$C6B89030A
 70
     0
 10
0.0
 20
0.0
 30
0.0
  3
A$C6B89030A
  1

  0
LINE
  5
23669
330
23665
100
AcDbEntity
  8
screw dowel
  6
Continuous
370
    25
100
AcDbLine
 10
1.00000521787615
 20
-0.0000115412208288
 30
0.0
 11
29.00000521787615
 21
-0.0000115412208288
 31
0.0
  0
LINE
  5
2366A
330
23665
100
AcDbEntity
  8
screw dowel
  6
Continuous
370
    25
100
AcDbLine
 10
30.00000521787615
 20
0.9999884587791711
 30
0.0
 11
29.00000521787615
 21
-0.0000115412208288
 31
0.0
  0
LINE
  5
2366B
330
23665
100
AcDbEntity
  8
screw dowel
  6
Continuous
370
    25
100
AcDbLine
 10
0.0000052178761507
 20
0.9999884587791711
 30
0.0
 11
1.00000521787615
 21
-0.0000115412208288
 31
0.0
  0
LINE
  5
2366C
330
23665
100
AcDbEntity
  8
screw dowel
  6
Continuous
370
    25
100
AcDbLine
 10
30.00000521787615
 20
0.9999884587791711
 30
0.0
 11
30.00000521787615
 21
6.999988458779171
 31
0.0
  0
LINE
  5
2366D
330
23665
100
AcDbEntity
  8
screw dowel
  6
Continuous
370
    25
100
AcDbLine
 10
29.00000521787615
 20
7.999988458779171
 30
0.0
 11
30.00000521787615
 21
6.999988458779171
 31
0.0
  0
LINE
  5
2366E
330
23665
100
AcDbEntity
  8
screw dowel
  6
Continuous
370
    25
100
AcDbLine
 10
29.00000521787615
 20
-0.0000115412208288
 30
0.0
 11
29.00000521787615
 21
7.999988458779171
 31
0.0
  0
LINE
  5
2366F
330
23665
100
AcDbEntity
  8
screw dowel
  6
Continuous
370
    25
100
AcDbLine
 10
29.00000521787615
 20
7.999988458779171
 30
0.0
 11
1.00000521787615
 21
7.999988458779171
 31
0.0
  0
LINE
  5
23670
330
23665
100
AcDbEntity
  8
screw dowel
  6
Continuous
370
    25
100
AcDbLine
 10
0.0000052178761507
 20
6.999988458779171
 30
0.0
 11
1.00000521787615
 21
7.999988458779171
 31
0.0
  0
LINE
  5
23671
330
23665
100
AcDbEntity
  8
screw dowel
  6
Continuous
370
    25
100
AcDbLine
 10
0.0000052178761507
 20
6.999988458779171
 30
0.0
 11
0.0000052178761507
 21
0.9999884587791711
 31
0.0
  0
LINE
  5
23672
330
23665
100
AcDbEntity
  8
screw dowel
  6
Continuous
370
    25
100
AcDbLine
 10
1.00000521787615
 20
7.999988458779171
 30
0.0
 11
1.00000521787615
 21
-0.0000115412208288
 31
0.0
  0
ENDBLK
  5
23673
330
23665
100
AcDbEntity
  8
0
370
     5
100
AcDbBlockEnd
  0
BLOCK
  5
23675
330
23674
100
AcDbEntity
  8
0
370
     5
100
AcDbBlockBegin
  2
*D17
 70
     1
 10
0.0
 20
0.0
 30
0.0
  3
*D17
  1

  0
LINE
  5
23676
330
23674
100
AcDbEntity
  8
寸法
 62
     0
370
    -2
100
AcDbLine
 10
-13010.99381872773
 20
2178.292101152392
 30
0.0
 11
-13010.99381872773
 21
2117.745743224412
 31
0.0
  0
LINE
  5
23677
330
23674
100
AcDbEntity
  8
寸法
 62
     0
370
    -2
100
AcDbLine
 10
-12408.99381872773
 20
2178.292101152392
 30
0.0
 11
-12408.99381872773
 21
2117.745743224412
 31
0.0
  0
LINE
  5
23678
330
23674
100
AcDbEntity
  8
寸法
 62
     0
370
    -2
100
AcDbLine
 10
-13009.49313513398
 20
2120.925743224411
 30
0.0
 11
-12410.49450232148
 21
2120.925743224411
 31
0.0
  0
INSERT
  5
23679
330
23674
100
AcDbEntity
  8
寸法
 62
     0
370
    -2
100
AcDbBlockReference
  2
_DOT
 10
-13010.99381872773
 20
2120.925743224411
 30
0.0
 41
1.500683593749999
 42
1.500683593749999
 43
1.500683593749999
 50
180.0
  0
INSERT
  5
2367A
330
23674
100
AcDbEntity
  8
寸法
 62
     0
370
    -2
100
AcDbBlockReference
  2
_DOT
 10
-12408.99381872773
 20
2120.925743224411
 30
0.0
 41
1.500683593749999
 42
1.500683593749999
 43
1.500683593749999
  0
MTEXT
  5
2367B
330
23674
100
AcDbEntity
  8
寸法
 62
     0
370
     5
100
AcDbMText
 10
-12709.99381872773
 20
2137.071618858929
 30
0.0
 40
24.0
 41
0.0
 46
0.0
 71
     5
 72
     1
  1
\A1;幕板/602
  7
ヒラギノ角ゴ Pro W3
 73
     1
 44
1.0
  0
POINT
  5
2367C
330
23674
100
AcDbEntity
  8
Defpoints
 62
     0
370
     5
100
AcDbPoint
 10
-13010.99381872773
 20
2186.292101152393
 30
0.0
  0
POINT
  5
2367D
330
23674
100
AcDbEntity
  8
Defpoints
 62
     0
370
     5
100
AcDbPoint
 10
-12408.99381872773
 20
2186.292101152393
 30
0.0
  0
POINT
  5
2367E
330
23674
100
AcDbEntity
  8
Defpoints
 62
     0
370
     5
100
AcDbPoint
 10
-12408.99381872773
 20
2120.925743224411
 30
0.0
  0
ENDBLK
  5
2367F
330
23674
100
AcDbEntity
  8
0
370
     5
100
AcDbBlockEnd
  0
BLOCK
  5
238A6
330
2389A
100
AcDbEntity
  8
0
370
     5
100
AcDbBlockBegin
  2
*D19
 70
     1
 10
0.0
 20
0.0
 30
0.0
  3
*D19
  1

  0
LINE
  5
23947
330
2389A
100
AcDbEntity
  8
寸法
 62
     0
370
    -2
100
AcDbLine
 10
-9922.139520357884
 20
2221.292102415258
 30
0.0
 11
-9860.204761051855
 21
2221.292102415258
 31
0.0
  0
LINE
  5
23948
330
2389A
100
AcDbEntity
  8
寸法
 62
     0
370
    -2
100
AcDbLine
 10
-9922.139520357884
 20
2196.292102415259
 30
0.0
 11
-9860.204761051855
 21
2196.292102415259
 31
0.0
  0
LINE
  5
23949
330
2389A
100
AcDbEntity
  8
寸法
 62
     0
370
    -2
100
AcDbLine
 10
-9863.384761051856
 20
2222.792786009009
 30
0.0
 11
-9863.384761051856
 21
2224.293469602758
 31
0.0
  0
LINE
  5
2394A
330
2389A
100
AcDbEntity
  8
寸法
 62
     0
370
    -2
100
AcDbLine
 10
-9863.384761051856
 20
2194.791418821508
 30
0.0
 11
-9863.384761051856
 21
2193.290735227758
 31
0.0
  0
LINE
  5
2394B
330
2389A
100
AcDbEntity
  8
寸法
 62
     0
370
    -2
100
AcDbLine
 10
-9863.384761051856
 20
2221.292102415258
 30
0.0
 11
-9863.384761051856
 21
2196.292102415259
 31
0.0
  0
INSERT
  5
2394C
330
2389A
100
AcDbEntity
  8
寸法
 62
     0
370
    -2
100
AcDbBlockReference
  2
_DOT
 10
-9863.384761051856
 20
2221.292102415258
 30
0.0
 41
1.500683593749999
 42
1.500683593749999
 43
1.500683593749999
 50
270.0
  0
INSERT
  5
2394D
330
2389A
100
AcDbEntity
  8
寸法
 62
     0
370
    -2
100
AcDbBlockReference
  2
_DOT
 10
-9863.384761051856
 20
2196.292102415259
 30
0.0
 41
1.500683593749999
 42
1.500683593749999
 43
1.500683593749999
 50
90.0
  0
MTEXT
  5
2394E
330
2389A
100
AcDbEntity
  8
寸法
 62
     0
370
    25
100
AcDbMText
 10
-9876.972261051855
 20
2208.792102415257
 30
0.0
 40
24.0
 41
0.0
 46
0.0
 71
     5
 72
     1
  1
\A1;25
  7
ヒラギノ角ゴ Pro W3
 11
0.0000000000000001
 21
1.0
 31
0.0
 73
     1
 44
1.0
  0
POINT
  5
2394F
330
2389A
100
AcDbEntity
  8
Defpoints
 62
     0
370
     5
100
AcDbPoint
 10
-9930.139520357883
 20
2221.292102415258
 30
0.0
  0
POINT
  5
23950
330
2389A
100
AcDbEntity
  8
Defpoints
 62
     0
370
     5
100
AcDbPoint
 10
-9930.139520357883
 20
2196.292102415259
 30
0.0
  0
POINT
  5
23951
330
2389A
100
AcDbEntity
  8
Defpoints
 62
     0
370
     5
100
AcDbPoint
 10
-9863.384761051856
 20
2196.292102415259
 30
0.0
  0
ENDBLK
  5
238A7
330
2389A
100
AcDbEntity
  8
0
370
     5
100
AcDbBlockEnd
  0
BLOCK
  5
238B2
330
238A8
100
AcDbEntity
  8
0
370
     5
100
AcDbBlockBegin
  2
*D20
 70
     1
 10
0.0
 20
0.0
 30
0.0
  3
*D20
  1

  0
LINE
  5
23952
330
238A8
100
AcDbEntity
  8
寸法
 62
     0
370
    -2
100
AcDbLine
 10
-9922.139520357884
 20
2196.292102415259
 30
0.0
 11
-9860.204761051855
 21
2196.292102415259
 31
0.0
  0
LINE
  5
23953
330
238A8
100
AcDbEntity
  8
寸法
 62
     0
370
    -2
100
AcDbLine
 10
-9924.698335740401
 20
2126.292101142234
 30
0.0
 11
-9860.204761051855
 21
2126.292101142234
 31
0.0
  0
LINE
  5
23954
330
238A8
100
AcDbEntity
  8
寸法
 62
     0
370
    -2
100
AcDbLine
 10
-9863.384761051856
 20
2194.791418821508
 30
0.0
 11
-9863.384761051856
 21
2127.792784735984
 31
0.0
  0
INSERT
  5
23955
330
238A8
100
AcDbEntity
  8
寸法
 62
     0
370
    -2
100
AcDbBlockReference
  2
_DOT
 10
-9863.384761051856
 20
2196.292102415259
 30
0.0
 41
1.500683593749999
 42
1.500683593749999
 43
1.500683593749999
 50
90.0
  0
INSERT
  5
23956
330
238A8
100
AcDbEntity
  8
寸法
 62
     0
370
    -2
100
AcDbBlockReference
  2
_DOT
 10
-9863.384761051856
 20
2126.292101142234
 30
0.0
 41
1.500683593749999
 42
1.500683593749999
 43
1.500683593749999
 50
270.0
  0
MTEXT
  5
23957
330
238A8
100
AcDbEntity
  8
寸法
 62
     0
370
    25
100
AcDbMText
 10
-9876.972261051855
 20
2161.292101778744
 30
0.0
 40
24.0
 41
0.0
 46
0.0
 71
     5
 72
     1
  1
\A1;70
  7
ヒラギノ角ゴ Pro W3
 11
0.0000000000000001
 21
1.0
 31
0.0
 73
     1
 44
1.0
  0
POINT
  5
23958
330
238A8
100
AcDbEntity
  8
Defpoints
 62
     0
370
     5
100
AcDbPoint
 10
-9930.139520357883
 20
2196.292102415259
 30
0.0
  0
POINT
  5
23959
330
238A8
100
AcDbEntity
  8
Defpoints
 62
     0
370
     5
100
AcDbPoint
 10
-9932.698335740401
 20
2126.292101142234
 30
0.0
  0
POINT
  5
2395A
330
238A8
100
AcDbEntity
  8
Defpoints
 62
     0
370
     5
100
AcDbPoint
 10
-9863.384761051856
 20
2126.292101142234
 30
0.0
  0
ENDBLK
  5
238B3
330
238A8
100
AcDbEntity
  8
0
370
     5
100
AcDbBlockEnd
  0
BLOCK
  5
238BE
330
238B4
100
AcDbEntity
  8
0
370
     5
100
AcDbBlockBegin
  2
*D21
 70
     1
 10
0.0
 20
0.0
 30
0.0
  3
*D21
  1

  0
LINE
  5
2395B
330
238B4
100
AcDbEntity
  8
寸法
 62
     0
370
    -2
100
AcDbLine
 10
-10634.07427966391
 20
2242.878105793877
 30
0.0
 11
-10634.07427966391
 21
2278.464109172496
 31
0.0
  0
LINE
  5
2395C
330
238B4
100
AcDbEntity
  8
寸法
 62
     0
370
    -2
100
AcDbLine
 10
-9952.074279663911
 20
2242.878105793877
 30
0.0
 11
-9952.074279663911
 21
2278.464109172496
 31
0.0
  0
LINE
  5
2395D
330
238B4
100
AcDbEntity
  8
寸法
 62
     0
370
    -2
100
AcDbLine
 10
-10632.57359607016
 20
2275.284109172496
 30
0.0
 11
-9953.574963257661
 21
2275.284109172496
 31
0.0
  0
INSERT
  5
2395E
330
238B4
100
AcDbEntity
  8
寸法
 62
     0
370
    -2
100
AcDbBlockReference
  2
_DOT
 10
-10634.07427966391
 20
2275.284109172496
 30
0.0
 41
1.500683593749999
 42
1.500683593749999
 43
1.500683593749999
 50
180.0
  0
INSERT
  5
2395F
330
238B4
100
AcDbEntity
  8
寸法
 62
     0
370
    -2
100
AcDbBlockReference
  2
_DOT
 10
-9952.074279663911
 20
2275.284109172496
 30
0.0
 41
1.500683593749999
 42
1.500683593749999
 43
1.500683593749999
  0
MTEXT
  5
23960
330
238B4
100
AcDbEntity
  8
寸法
 62
     0
370
     5
100
AcDbMText
 10
-10293.07427966391
 20
2288.871609172496
 30
0.0
 40
24.0
 41
0.0
 46
0.0
 71
     5
 72
     1
  1
\A1;W=682
  7
ヒラギノ角ゴ Pro W3
 73
     1
 44
1.0
  0
POINT
  5
23961
330
238B4
100
AcDbEntity
  8
Defpoints
 62
     0
370
     5
100
AcDbPoint
 10
-10634.07427966391
 20
2234.878105793877
 30
0.0
  0
POINT
  5
23962
330
238B4
100
AcDbEntity
  8
Defpoints
 62
     0
370
     5
100
AcDbPoint
 10
-9952.074279663911
 20
2234.878105793877
 30
0.0
  0
POINT
  5
23963
330
238B4
100
AcDbEntity
  8
Defpoints
 62
     0
370
     5
100
AcDbPoint
 10
-9952.074279663911
 20
2275.284109172496
 30
0.0
  0
ENDBLK
  5
238BF
330
238B4
100
AcDbEntity
  8
0
370
     5
100
AcDbBlockEnd
  0
BLOCK
  5
238CA
330
238C0
100
AcDbEntity
  8
0
370
     5
100
AcDbBlockBegin
  2
*D22
 70
     1
 10
0.0
 20
0.0
 30
0.0
  3
*D22
  1

  0
LINE
  5
23964
330
238C0
100
AcDbEntity
  8
寸法
 62
     0
370
    -2
100
AcDbLine
 10
-10596.57427966391
 20
2221.292102415258
 30
0.0
 11
-10815.94994502444
 21
2221.292102415258
 31
0.0
  0
LINE
  5
23965
330
238C0
100
AcDbEntity
  8
寸法
 62
     0
370
    -2
100
AcDbLine
 10
-10637.07427966391
 20
1691.292102415262
 30
0.0
 11
-10815.94994502444
 21
1691.292102415262
 31
0.0
  0
LINE
  5
23966
330
238C0
100
AcDbEntity
  8
寸法
 62
     0
370
    -2
100
AcDbLine
 10
-10812.76994502444
 20
2219.791418821508
 30
0.0
 11
-10812.76994502444
 21
1692.792786009012
 31
0.0
  0
INSERT
  5
23967
330
238C0
100
AcDbEntity
  8
寸法
 62
     0
370
    -2
100
AcDbBlockReference
  2
_DOT
 10
-10812.76994502444
 20
2221.292102415258
 30
0.0
 41
1.500683593749999
 42
1.500683593749999
 43
1.500683593749999
 50
90.0
  0
INSERT
  5
23968
330
238C0
100
AcDbEntity
  8
寸法
 62
     0
370
    -2
100
AcDbBlockReference
  2
_DOT
 10
-10812.76994502444
 20
1691.292102415262
 30
0.0
 41
1.500683593749999
 42
1.500683593749999
 43
1.500683593749999
 50
270.0
  0
MTEXT
  5
23969
330
238C0
100
AcDbEntity
  8
寸法
 62
     0
370
     5
100
AcDbMText
 10
-10826.35744502444
 20
1956.292102415259
 30
0.0
 40
24.0
 41
0.0
 46
0.0
 71
     5
 72
     1
  1
\A1;H=530
  7
ヒラギノ角ゴ Pro W3
 11
0.0000000000000001
 21
1.0
 31
0.0
 73
     1
 44
1.0
  0
POINT
  5
2396A
330
238C0
100
AcDbEntity
  8
Defpoints
 62
     0
370
     5
100
AcDbPoint
 10
-10588.57427966391
 20
2221.292102415258
 30
0.0
  0
POINT
  5
2396B
330
238C0
100
AcDbEntity
  8
Defpoints
 62
     0
370
     5
100
AcDbPoint
 10
-10629.07427966391
 20
1691.292102415262
 30
0.0
  0
POINT
  5
2396C
330
238C0
100
AcDbEntity
  8
Defpoints
 62
     0
370
     5
100
AcDbPoint
 10
-10812.76994502444
 20
1691.292102415262
 30
0.0
  0
ENDBLK
  5
238CB
330
238C0
100
AcDbEntity
  8
0
370
     5
100
AcDbBlockEnd
  0
BLOCK
  5
238D6
330
238CC
100
AcDbEntity
  8
0
370
     5
100
AcDbBlockBegin
  2
*D23
 70
     1
 10
0.0
 20
0.0
 30
0.0
  3
*D23
  1

  0
LINE
  5
2396D
330
238CC
100
AcDbEntity
  8
寸法
 62
     0
370
    -2
100
AcDbLine
 10
-9398.619243493865
 20
2208.292102415259
 30
0.0
 11
-9623.830049836286
 21
2208.292102415259
 31
0.0
  0
LINE
  5
2396E
330
238CC
100
AcDbEntity
  8
寸法
 62
     0
370
    -2
100
AcDbLine
 10
-9418.619243493862
 20
1691.292102415262
 30
0.0
 11
-9623.830049836286
 21
1691.292102415262
 31
0.0
  0
LINE
  5
2396F
330
238CC
100
AcDbEntity
  8
寸法
 62
     0
370
    -2
100
AcDbLine
 10
-9620.650049836285
 20
2206.791418821509
 30
0.0
 11
-9620.650049836285
 21
1692.792786009012
 31
0.0
  0
INSERT
  5
23970
330
238CC
100
AcDbEntity
  8
寸法
 62
     0
370
    -2
100
AcDbBlockReference
  2
_DOT
 10
-9620.650049836285
 20
2208.292102415259
 30
0.0
 41
1.500683593749999
 42
1.500683593749999
 43
1.500683593749999
 50
90.0
  0
INSERT
  5
23971
330
238CC
100
AcDbEntity
  8
寸法
 62
     0
370
    -2
100
AcDbBlockReference
  2
_DOT
 10
-9620.650049836285
 20
1691.292102415262
 30
0.0
 41
1.500683593749999
 42
1.500683593749999
 43
1.500683593749999
 50
270.0
  0
MTEXT
  5
23972
330
238CC
100
AcDbEntity
  8
寸法
 62
     0
370
     5
100
AcDbMText
 10
-9634.237549836285
 20
1949.792102415259
 30
0.0
 40
24.0
 41
0.0
 46
0.0
 71
     5
 72
     1
  1
\A1;517
  7
ヒラギノ角ゴ Pro W3
 11
0.0000000000000001
 21
1.0
 31
0.0
 73
     1
 44
1.0
  0
POINT
  5
23973
330
238CC
100
AcDbEntity
  8
Defpoints
 62
     0
370
     5
100
AcDbPoint
 10
-9390.619243493864
 20
2208.292102415259
 30
0.0
  0
POINT
  5
23974
330
238CC
100
AcDbEntity
  8
Defpoints
 62
     0
370
     5
100
AcDbPoint
 10
-9410.619243493862
 20
1691.292102415262
 30
0.0
  0
POINT
  5
23975
330
238CC
100
AcDbEntity
  8
Defpoints
 62
     0
370
     5
100
AcDbPoint
 10
-9620.650049836285
 20
1691.292102415262
 30
0.0
  0
ENDBLK
  5
238D7
330
238CC
100
AcDbEntity
  8
0
370
     5
100
AcDbBlockEnd
  0
BLOCK
  5
238E2
330
238D8
100
AcDbEntity
  8
0
370
     5
100
AcDbBlockBegin
  2
*D24
 70
     1
 10
0.0
 20
0.0
 30
0.0
  3
*D24
  1

  0
LINE
  5
23976
330
238D8
100
AcDbEntity
  8
寸法
 62
     0
370
    -2
100
AcDbLine
 10
-8997.619243503084
 20
2196.292102455891
 30
0.0
 11
-8722.393979673883
 21
2196.292102455891
 31
0.0
  0
LINE
  5
23977
330
238D8
100
AcDbEntity
  8
寸法
 62
     0
370
    -2
100
AcDbLine
 10
-9002.619243493862
 20
1691.292102405103
 30
0.0
 11
-8722.393979673883
 21
1691.292102405103
 31
0.0
  0
LINE
  5
23978
330
238D8
100
AcDbEntity
  8
寸法
 62
     0
370
    -2
100
AcDbLine
 10
-8725.573979673884
 20
2194.791418862141
 30
0.0
 11
-8725.573979673884
 21
1692.792785998854
 31
0.0
  0
INSERT
  5
23979
330
238D8
100
AcDbEntity
  8
寸法
 62
     0
370
    -2
100
AcDbBlockReference
  2
_DOT
 10
-8725.573979673884
 20
2196.292102455891
 30
0.0
 41
1.500683593749999
 42
1.500683593749999
 43
1.500683593749999
 50
90.0
  0
INSERT
  5
2397A
330
238D8
100
AcDbEntity
  8
寸法
 62
     0
370
    -2
100
AcDbBlockReference
  2
_DOT
 10
-8725.573979673884
 20
1691.292102405103
 30
0.0
 41
1.500683593749999
 42
1.500683593749999
 43
1.500683593749999
 50
270.0
  0
MTEXT
  5
2397B
330
238D8
100
AcDbEntity
  8
寸法
 62
     0
370
     5
100
AcDbMText
 10
-8739.161479673883
 20
1943.792102430496
 30
0.0
 40
24.0
 41
0.0
 46
0.0
 71
     5
 72
     1
  1
\A1;505
  7
ヒラギノ角ゴ Pro W3
 11
0.0000000000000001
 21
1.0
 31
0.0
 73
     1
 44
1.0
  0
POINT
  5
2397C
330
238D8
100
AcDbEntity
  8
Defpoints
 62
     0
370
     5
100
AcDbPoint
 10
-9005.619243503085
 20
2196.292102455891
 30
0.0
  0
POINT
  5
2397D
330
238D8
100
AcDbEntity
  8
Defpoints
 62
     0
370
     5
100
AcDbPoint
 10
-9010.619243493861
 20
1691.292102405103
 30
0.0
  0
POINT
  5
2397E
330
238D8
100
AcDbEntity
  8
Defpoints
 62
     0
370
     5
100
AcDbPoint
 10
-8725.573979673884
 20
1691.292102405103
 30
0.0
  0
ENDBLK
  5
238E3
330
238D8
100
AcDbEntity
  8
0
370
     5
100
AcDbBlockEnd
  0
BLOCK
  5
238EE
330
238E4
100
AcDbEntity
  8
0
370
     5
100
AcDbBlockBegin
  2
*D25
 70
     1
 10
0.0
 20
0.0
 30
0.0
  3
*D25
  1

  0
LINE
  5
2397F
330
238E4
100
AcDbEntity
  8
寸法
 62
     0
370
    -2
100
AcDbLine
 10
-9380.619243494376
 20
2118.292103522499
 30
0.0
 11
-9380.619243494376
 21
2060.000277980396
 31
0.0
  0
LINE
  5
23980
330
238E4
100
AcDbEntity
  8
寸法
 62
     0
370
    -2
100
AcDbLine
 10
-9053.532121977864
 20
2118.292102553233
 30
0.0
 11
-9053.532121977864
 21
2060.000277980396
 31
0.0
  0
LINE
  5
23981
330
238E4
100
AcDbEntity
  8
寸法
 62
     0
370
    -2
100
AcDbLine
 10
-9379.118559900625
 20
2063.180277980396
 30
0.0
 11
-9055.032805571611
 21
2063.180277980396
 31
0.0
  0
INSERT
  5
23982
330
238E4
100
AcDbEntity
  8
寸法
 62
     0
370
    -2
100
AcDbBlockReference
  2
_DOT
 10
-9380.619243494376
 20
2063.180277980396
 30
0.0
 41
1.500683593749999
 42
1.500683593749999
 43
1.500683593749999
 50
180.0
  0
INSERT
  5
23983
330
238E4
100
AcDbEntity
  8
寸法
 62
     0
370
    -2
100
AcDbBlockReference
  2
_DOT
 10
-9053.532121977864
 20
2063.180277980396
 30
0.0
 41
1.500683593749999
 42
1.500683593749999
 43
1.500683593749999
  0
MTEXT
  5
23984
330
238E4
100
AcDbEntity
  8
寸法
 62
     0
370
     5
100
AcDbMText
 10
-9217.075682736119
 20
2076.767777980396
 30
0.0
 40
24.0
 41
0.0
 46
0.0
 71
     5
 72
     1
  1
\A1;327
  7
ヒラギノ角ゴ Pro W3
 73
     1
 44
1.0
  0
POINT
  5
23985
330
238E4
100
AcDbEntity
  8
Defpoints
 62
     0
370
     5
100
AcDbPoint
 10
-9380.619243494376
 20
2126.292103522499
 30
0.0
  0
POINT
  5
23986
330
238E4
100
AcDbEntity
  8
Defpoints
 62
     0
370
     5
100
AcDbPoint
 10
-9053.532121977864
 20
2126.292102553233
 30
0.0
  0
POINT
  5
23987
330
238E4
100
AcDbEntity
  8
Defpoints
 62
     0
370
     5
100
AcDbPoint
 10
-9053.532121977864
 20
2063.180277980396
 30
0.0
  0
ENDBLK
  5
238EF
330
238E4
100
AcDbEntity
  8
0
370
     5
100
AcDbBlockEnd
  0
BLOCK
  5
238FA
330
238F0
100
AcDbEntity
  8
0
370
     5
100
AcDbBlockBegin
  2
*D26
 70
     1
 10
0.0
 20
0.0
 30
0.0
  3
*D26
  1

  0
LINE
  5
23988
330
238F0
100
AcDbEntity
  8
寸法
 62
     0
370
    -2
100
AcDbLine
 10
-10594.07427966391
 20
2118.292101142234
 30
0.0
 11
-10594.07427966391
 21
2057.745743214253
 31
0.0
  0
LINE
  5
23989
330
238F0
100
AcDbEntity
  8
寸法
 62
     0
370
    -2
100
AcDbLine
 10
-9992.074279663912
 20
2118.292101142234
 30
0.0
 11
-9992.074279663912
 21
2057.745743214253
 31
0.0
  0
LINE
  5
2398A
330
238F0
100
AcDbEntity
  8
寸法
 62
     0
370
    -2
100
AcDbLine
 10
-10592.57359607016
 20
2060.925743214253
 30
0.0
 11
-9993.574963257662
 21
2060.925743214253
 31
0.0
  0
INSERT
  5
2398B
330
238F0
100
AcDbEntity
  8
寸法
 62
     0
370
    -2
100
AcDbBlockReference
  2
_DOT
 10
-10594.07427966391
 20
2060.925743214253
 30
0.0
 41
1.500683593749999
 42
1.500683593749999
 43
1.500683593749999
 50
180.0
  0
INSERT
  5
2398C
330
238F0
100
AcDbEntity
  8
寸法
 62
     0
370
    -2
100
AcDbBlockReference
  2
_DOT
 10
-9992.074279663912
 20
2060.925743214253
 30
0.0
 41
1.500683593749999
 42
1.500683593749999
 43
1.500683593749999
  0
MTEXT
  5
2398D
330
238F0
100
AcDbEntity
  8
寸法
 62
     0
370
     5
100
AcDbMText
 10
-10293.07427966391
 20
2077.071618848771
 30
0.0
 40
24.0
 41
0.0
 46
0.0
 71
     5
 72
     1
  1
\A1;幕板/602
  7
ヒラギノ角ゴ Pro W3
 73
     1
 44
1.0
  0
POINT
  5
2398E
330
238F0
100
AcDbEntity
  8
Defpoints
 62
     0
370
     5
100
AcDbPoint
 10
-10594.07427966391
 20
2126.292101142234
 30
0.0
  0
POINT
  5
2398F
330
238F0
100
AcDbEntity
  8
Defpoints
 62
     0
370
     5
100
AcDbPoint
 10
-9992.074279663912
 20
2126.292101142234
 30
0.0
  0
POINT
  5
23990
330
238F0
100
AcDbEntity
  8
Defpoints
 62
     0
370
     5
100
AcDbPoint
 10
-9992.074279663912
 20
2060.925743214253
 30
0.0
  0
ENDBLK
  5
238FB
330
238F0
100
AcDbEntity
  8
0
370
     5
100
AcDbBlockEnd
  0
ENDSEC
  0
SECTION
  2
ENTITIES
  0
ARC
  5
1FBB2
330
A
100
AcDbEntity
  8
天板
 62
     7
370
    50
100
AcDbCircle
 10
-12989.99381872773
 20
3048.421581229216
 30
0.0
 40
20.0
100
AcDbArc
 50
90.0
 51
180.0
  0
ARC
  5
1FBB3
330
A
100
AcDbEntity
  8
天板
 62
     7
370
    50
100
AcDbCircle
 10
-12989.99381872773
 20
3048.421581229216
 30
0.0
 40
5.0
100
AcDbArc
 50
90.0
 51
180.0
  0
LINE
  5
1FBB4
330
A
100
AcDbEntity
  8
天板
 62
     7
370
    25
100
AcDbLine
 10
-12993.52935263366
 20
3051.957115135149
 30
0.0
 11
-13004.13595435146
 21
3062.563716852947
 31
0.0
  0
LINE
  5
1FBD1
330
A
100
AcDbEntity
  8
天板
 62
     7
370
    50
100
AcDbLine
 10
-13009.99381872773
 20
3048.421581229216
 30
0.0
 11
-13009.99381872773
 21
2638.421581229215
 31
0.0
  0
LINE
  5
1FBD3
330
A
100
AcDbEntity
  8
脚
 62
     7
370
    50
100
AcDbLine
 10
-13010.99381872773
 20
2683.421581229215
 30
0.0
 11
-13010.99381872773
 21
2643.421581229216
 31
0.0
  0
ARC
  5
1FBD4
330
A
100
AcDbEntity
  8
脚
 62
     7
370
    50
100
AcDbCircle
 10
-13025.99381872773
 20
2663.421581229215
 30
0.0
 40
25.0
100
AcDbArc
 50
89.9999995002631
 51
269.9999999940594
  0
LINE
  5
1FBD5
330
A
100
AcDbEntity
  8
脚
 62
     7
370
    50
100
AcDbLine
 10
-13025.99381872773
 20
2688.421581229216
 30
0.0
 11
-13015.99381872773
 21
2688.421581229216
 31
0.0
  0
ARC
  5
1FBDA
330
A
100
AcDbEntity
  8
脚
 62
     7
370
    50
100
AcDbCircle
 10
13015.99381872773
 20
2683.421581229215
 30
0.0
 40
5.0
210
0.0
220
0.0
230
-1.0
100
AcDbArc
 50
90.0
 51
180.0
  0
ARC
  5
1FBDE
330
A
100
AcDbEntity
  8
天板
 62
     7
370
    50
100
AcDbCircle
 10
-12989.99381872773
 20
2638.421581229215
 30
0.0
 40
20.0
100
AcDbArc
 50
180.0
 51
270.0
  0
ARC
  5
1FBDF
330
A
100
AcDbEntity
  8
天板
 62
     7
370
    50
100
AcDbCircle
 10
-12989.99381872773
 20
2638.421581229215
 30
0.0
 40
5.0
100
AcDbArc
 50
180.0
 51
270.0
  0
LINE
  5
1FBE0
330
A
100
AcDbEntity
  8
天板
 62
     7
370
    25
100
AcDbLine
 10
-12993.52935263366
 20
2634.886047323283
 30
0.0
 11
-13004.13595435146
 21
2624.279445605484
 31
0.0
  0
LINE
  5
1FBE1
330
A
100
AcDbEntity
  8
脚
 62
     7
370
    50
100
AcDbLine
 10
-13025.99381872773
 20
2638.421581229215
 30
0.0
 11
-13015.99381872773
 21
2638.421581229215
 31
0.0
  0
ARC
  5
1FBE2
330
A
100
AcDbEntity
  8
脚
 62
     7
370
    50
100
AcDbCircle
 10
13015.99381872773
 20
2643.421581229216
 30
0.0
 40
5.0
210
0.0
220
0.0
230
-1.0
100
AcDbArc
 50
180.0
 51
270.0
  0
ARC
  5
1FC01
330
A
100
AcDbEntity
  8
天板
 62
     7
370
    50
100
AcDbCircle
 10
11415.03878255768
 20
2208.792102450813
 30
0.0
 40
12.5
210
0.0
220
0.0
230
-1.0
100
AcDbArc
 50
180.0
 51
270.0000001164142
  0
ARC
  5
1FC02
330
A
100
AcDbEntity
  8
天板
 62
     7
370
    50
100
AcDbCircle
 10
11415.03878255768
 20
2208.792102425416
 30
0.0
 40
12.5
210
0.0
220
0.0
230
-1.0
100
AcDbArc
 50
90.0
 51
180.0
  0
LINE
  5
1FC11
330
A
100
AcDbEntity
  8
脚
 62
     7
370
    50
100
AcDbLine
 10
-11422.5387825669
 20
2196.292102466049
 30
0.0
 11
-11422.53878358271
 21
1696.292102415262
 31
0.0
  0
LINE
  5
1FC17
330
A
100
AcDbEntity
  8
レイヤー1
 62
     7
370
    13
100
AcDbLine
 10
-11457.5387825669
 20
2196.29210251684
 30
0.0
 11
-11437.5387825669
 21
2196.29210251684
 31
0.0
  0
LINE
  5
1FC1A
330
A
100
AcDbEntity
  8
脚
 62
     7
370
    50
100
AcDbLine
 10
-11472.53878287634
 20
1696.292102415262
 30
0.0
 11
-11472.5387821151
 21
2126.292793016006
 31
0.0
  0
LINE
  5
1FC1B
330
A
100
AcDbEntity
  8
脚
 62
     7
370
    50
100
AcDbLine
 10
-11470.45166104168
 20
2126.292102563391
 30
0.0
 11
-11470.45166087915
 21
2196.29210256339
 31
0.0
  0
ARC
  5
1FC27
330
A
100
AcDbEntity
  8
天板
 62
     7
370
    50
100
AcDbCircle
 10
12422.49381872773
 20
2208.792102425416
 30
0.0
 40
12.5
210
0.0
220
0.0
230
-1.0
100
AcDbArc
 50
90.0
 51
180.0
  0
LINE
  5
1FC28
330
A
100
AcDbEntity
  8
脚
 62
     7
370
    25
100
AcDbLine
 10
-12409.99381872773
 20
2208.292102425417
 30
0.0
 11
-12409.99381872773
 21
2208.292102425417
 31
0.0
  0
ARC
  5
1FC29
330
A
100
AcDbEntity
  8
天板
 62
     7
370
    50
100
AcDbCircle
 10
12422.49381872773
 20
2208.792102425416
 30
0.0
 40
12.5
210
0.0
220
0.0
230
-1.0
100
AcDbArc
 50
180.0
 51
270.0
  0
LINE
  5
1FC30
330
A
100
AcDbEntity
  8
脚
 62
     7
370
    50
100
AcDbLine
 10
-11832.53878255768
 20
1696.29210242542
 30
0.0
 11
-11832.53878255768
 21
2183.292102425417
 31
0.0
  0
ARC
  5
1FC32
330
A
100
AcDbEntity
  8
天板
 62
     7
370
    50
100
AcDbCircle
 10
-11840.03878255768
 20
2208.792103619001
 30
0.0
 40
12.5
100
AcDbArc
 50
180.0
 51
269.9999998835858
  0
ARC
  5
1FC33
330
A
100
AcDbEntity
  8
天板
 62
     7
370
    50
100
AcDbCircle
 10
-11840.03878255768
 20
2208.792102425416
 30
0.0
 40
12.5
100
AcDbArc
 50
90.0
 51
180.0
  0
ARC
  5
1FC34
330
A
100
AcDbEntity
  8
脚
 62
     7
370
    50
100
AcDbCircle
 10
11807.53878255768
 20
2183.292102425417
 30
0.0
 40
25.0
210
0.0
220
0.0
230
-1.0
100
AcDbArc
 50
90.0
 51
180.0
  0
LINE
  5
1FC37
330
A
100
AcDbEntity
  8
天板
 62
     7
370
    50
100
AcDbLine
 10
-11840.03878255768
 20
2221.292102425417
 30
0.0
 11
-11792.53878255768
 21
2221.292102425417
 31
0.0
  0
LINE
  5
1FC38
330
A
100
AcDbEntity
  8
脚
 62
     7
370
    50
100
AcDbLine
 10
-11782.53878255768
 20
1696.29210242542
 30
0.0
 11
-11782.53878255768
 21
2183.292102425417
 31
0.0
  0
LINE
  5
1FC3A
330
A
100
AcDbEntity
  8
脚
 62
     7
370
    50
100
AcDbLine
 10
-11807.53878255768
 20
2208.792102425416
 30
0.0
 11
-11807.53878255768
 21
2208.792102425416
 31
0.0
  0
ARC
  5
1FC3B
330
A
100
AcDbEntity
  8
脚
 62
     7
370
    50
100
AcDbCircle
 10
-11807.53878255768
 20
2183.292102425417
 30
0.0
 40
25.0
100
AcDbArc
 50
90.0
 51
180.0
  0
LINE
  5
1FC4A
330
A
100
AcDbEntity
  8
脚
 62
     7
370
    50
100
AcDbLine
 10
-13050.99381872773
 20
1696.29210242542
 30
0.0
 11
-13050.99381872773
 21
2183.292102425417
 31
0.0
  0
LINE
  5
1FC4B
330
A
100
AcDbEntity
  8
脚
 62
     7
370
    50
100
AcDbLine
 10
-13010.99381872773
 20
2203.292102425416
 30
0.0
 11
-13010.99381872773
 21
1696.29210242542
 31
0.0
  0
ARC
  5
1FC4F
330
A
100
AcDbEntity
  8
天板
 62
     7
370
    50
100
AcDbCircle
 10
-12997.49381872773
 20
2208.792102425416
 30
0.0
 40
12.5
100
AcDbArc
 50
90.0
 51
180.0
  0
LINE
  5
1FC50
330
A
100
AcDbEntity
  8
脚
 62
     7
370
    50
100
AcDbLine
 10
-13009.99381872773
 20
2208.292102425417
 30
0.0
 11
-13009.99381872773
 21
2208.292102425417
 31
0.0
  0
ARC
  5
1FC51
330
A
100
AcDbEntity
  8
天板
 62
     7
370
    50
100
AcDbCircle
 10
-12997.49381872773
 20
2208.792102425416
 30
0.0
 40
12.5
100
AcDbArc
 50
180.0
 51
270.0
  0
ARC
  5
1FC52
330
A
100
AcDbEntity
  8
脚
 62
     7
370
    50
100
AcDbCircle
 10
-13025.99381872773
 20
2183.292102425417
 30
0.0
 40
25.0
100
AcDbArc
 50
90.0
 51
180.0
  0
LINE
  5
1FC53
330
A
100
AcDbEntity
  8
脚
 62
     7
370
    50
100
AcDbLine
 10
-13025.99381872773
 20
2208.292102425417
 30
0.0
 11
-13015.99381872773
 21
2208.292102425417
 31
0.0
  0
ARC
  5
1FC54
330
A
100
AcDbEntity
  8
脚
 62
     7
370
    50
100
AcDbCircle
 10
13015.99381872773
 20
2203.292102425416
 30
0.0
 40
5.0
210
0.0
220
0.0
230
-1.0
100
AcDbArc
 50
90.0
 51
180.0
  0
LINE
  5
1FC5B
330
A
100
AcDbEntity
  8
脚
 62
     7
370
    25
100
AcDbLine
 10
-12939.99381872773
 20
1696.29210242542
 30
0.0
 11
-12939.99381872773
 21
2126.292793026164
 31
0.0
  0
LINE
  5
1FC5C
330
A
100
AcDbEntity
  8
脚
 62
     7
370
    25
100
AcDbLine
 10
-12989.99381872773
 20
1696.29210242542
 30
0.0
 11
-12989.99381872773
 21
2126.292793026164
 31
0.0
  0
LINE
  5
1FC77
330
A
100
AcDbEntity
  8
天板
 62
     7
370
    50
100
AcDbLine
 10
-12989.99381872773
 20
2618.421581229215
 30
0.0
 11
-12709.99381872773
 21
2618.421581229215
 31
0.0
  0
LINE
  5
1FC78
330
A
100
AcDbEntity
  8
天板
 62
     7
370
    50
100
AcDbLine
 10
-12989.99381872773
 20
2633.421581229216
 30
0.0
 11
-12709.99381872773
 21
2633.421581229216
 31
0.0
  0
LINE
  5
1FC80
330
A
100
AcDbEntity
  8
貫
 62
     7
370
    25
100
AcDbLine
 10
-13010.99381872773
 20
2136.292099879367
 30
0.0
 11
-12408.99381872774
 21
2136.292099879366
 31
0.0
  0
LINE
  5
1FC81
330
A
100
AcDbEntity
  8
貫
 62
     7
370
    50
100
AcDbLine
 10
-13010.99381872773
 20
2126.292101152392
 30
0.0
 11
-12408.99381872774
 21
2126.292101152392
 31
0.0
  0
LINE
  5
1FC82
330
A
100
AcDbEntity
  8
天板
 62
     7
370
    50
100
AcDbLine
 10
-12997.49381872773
 20
2221.492102425417
 30
0.0
 11
-12424.99381872773
 21
2221.492102425416
 31
0.0
  0
LINE
  5
1FC83
330
A
100
AcDbEntity
  8
貫
 62
     7
370
    50
100
AcDbLine
 10
-13010.99381872773
 20
2196.292102425417
 30
0.0
 11
-12709.99381872773
 21
2196.292102425417
 31
0.0
  0
LINE
  5
1FC87
330
A
100
AcDbEntity
  8
天板
 62
     7
370
    50
100
AcDbLine
 10
-11792.53878255768
 20
2221.292102425417
 30
0.0
 11
-11415.03878255768
 21
2221.292102425417
 31
0.0
  0
LINE
  5
1FC88
330
A
100
AcDbEntity
  8
天板
 62
     7
370
    50
100
AcDbLine
 10
-11840.03878258308
 20
2196.292103619001
 30
0.0
 11
-11829.1894169759
 21
2196.292103596959
 31
0.0
  0
LINE
  5
2007B
330
A
100
AcDbEntity
  8
貫
 62
     7
370
    25
100
AcDbLine
 10
-12709.99381872773
 20
2136.292099879366
 30
0.0
 11
-12477.90669720251
 21
2136.292099879367
 31
0.0
  0
LINE
  5
2007D
330
A
100
AcDbEntity
  8
貫
  6
STYLE_08
 62
     7
 48
5.0
370
    25
100
AcDbLine
 10
-12709.99381872773
 20
2196.292102425417
 30
0.0
 11
-12422.47319121531
 21
2196.292102425417
 31
0.0
  0
LINE
  5
20082
330
A
100
AcDbEntity
  8
天板
 62
     7
370
    50
100
AcDbLine
 10
-13010.99381872773
 20
2196.292102425416
 30
0.0
 11
-12422.47319121531
 21
2196.292102425417
 31
0.0
  0
CIRCLE
  5
201ED
102
{ACAD_REACTORS
330
201F7
102
}
330
A
100
AcDbEntity
  8
木ネジ、ダボ
 62
     7
370
    25
100
AcDbCircle
 10
-13020.99381872773
 20
2181.292101788904
 30
0.0
 40
4.0
  0
CIRCLE
  5
201EE
102
{ACAD_REACTORS
330
201F7
102
}
330
A
100
AcDbEntity
  8
木ネジ、ダボ
 62
     7
370
    25
100
AcDbCircle
 10
-13020.99381872773
 20
2151.292101788905
 30
0.0
 40
4.0
  0
HATCH
  5
201F7
330
A
100
AcDbEntity
  8
木ネジ、ダボ
 62
     7
370
    25
100
AcDbHatch
 10
0.0
 20
0.0
 30
0.0
210
0.0
220
0.0
230
1.0
  2
ANSI31
 70
     0
 71
     1
 91
        2
 92
        7
 72
     1
 73
     1
 93
        2
 10
-13024.99381872773
 20
2181.292101788904
 42
1.0
 10
-13016.99381872773
 20
2181.292101788904
 42
1.0
 97
        1
330
201ED
 92
        7
 72
     1
 73
     1
 93
        2
 10
-13016.99381872773
 20
2151.292101788905
 42
1.0
 10
-13024.99381872773
 20
2151.292101788905
 42
1.0
 97
        1
330
201EE
 75
     0
 76
     1
 52
0.0
 41
1.0
 77
     0
 78
     1
 53
134.9999999999978
 43
-25415.98763745555
 44
106.0142565226683
 45
2.245064030267374
 46
2.245064030267201
 79
     0
 47
0.442748012474673
 98
        2
 10
-13018.96753913897
 20
2181.189484050294
 10
-13020.73955735032
 20
2151.525368112363
1001
ACAD
1010
0.0
1020
0.0
1030
0.0
  0
LINE
  5
20571
330
A
100
AcDbEntity
  8
天板
 62
     7
370
    50
100
AcDbLine
 10
-12709.99381872773
 20
3068.421581229216
 30
0.0
 11
-12989.99381872773
 21
3068.421581229216
 31
0.0
  0
LINE
  5
20572
330
A
100
AcDbEntity
  8
天板
 62
     7
370
    50
100
AcDbLine
 10
-12709.99381872773
 20
3053.421581229216
 30
0.0
 11
-12989.99381872773
 21
3053.421581229216
 31
0.0
  0
INSERT
  5
20FC3
330
A
100
AcDbEntity
  8
ボルト
 62
     7
370
    25
100
AcDbBlockReference
  2
A$C153C7E87
 10
-12971.49383511423
 20
2174.792100444232
 30
0.0
  0
CIRCLE
  5
20FC7
330
A
100
AcDbEntity
  8
貫
 62
     7
370
    50
100
AcDbCircle
 10
-12964.99381872773
 20
2181.292101788904
 30
0.0
 40
7.0
  0
INSERT
  5
20FC8
330
A
100
AcDbEntity
  8
ボルト
 62
     7
370
    25
100
AcDbBlockReference
  2
A$C153C7E87
 10
-12971.49383511423
 20
2144.792100444231
 30
0.0
  0
CIRCLE
  5
20FC9
330
A
100
AcDbEntity
  8
貫
 62
     7
370
    50
100
AcDbCircle
 10
-12964.99381872773
 20
2151.292101788905
 30
0.0
 40
7.0
  0
LINE
  5
2101B
330
A
100
AcDbEntity
  8
貫
  6
Continuous
 62
     7
 48
3.0
370
    50
100
AcDbLine
 10
-11782.53878255768
 20
2126.292103502183
 30
0.0
 11
-11470.45166104168
 21
2126.292102868137
 31
0.0
  0
LINE
  5
2101C
330
A
100
AcDbEntity
  8
貫
  6
Continuous
 62
     7
370
    13
100
AcDbLine
 10
-11782.53878255768
 20
2136.292793026165
 30
0.0
 11
-11470.45166101846
 21
2136.292793019304
 31
0.0
  0
LINE
  5
2101E
330
A
100
AcDbEntity
  8
天板
 62
     7
370
    50
100
AcDbLine
 10
-11785.88814808867
 20
2196.292103508987
 30
0.0
 11
-11415.03602239756
 21
2196.292102755552
 31
0.0
  0
LINE
  5
21218
330
A
100
AcDbEntity
  8
天板
 62
     7
370
    50
100
AcDbLine
 10
-12424.99381872773
 20
2221.292102425417
 30
0.0
 11
-12422.49381872773
 21
2221.292102425417
 31
0.0
  0
LINE
  5
21219
330
A
100
AcDbEntity
  8
天板
 62
     7
370
    50
100
AcDbLine
 10
-12424.99381872773
 20
2221.492102425417
 30
0.0
 11
-12424.99381872773
 21
2221.292102425417
 31
0.0
  0
LINE
  5
21346
330
A
100
AcDbEntity
  8
天板
 62
     7
370
    50
100
AcDbLine
 10
-12997.49381872773
 20
2221.492102425417
 30
0.0
 11
-12997.49381872773
 21
2221.292102425417
 31
0.0
  0
LINE
  5
21347
330
A
100
AcDbEntity
  8
天板
 62
     7
370
    50
100
AcDbLine
 10
-12997.49381872773
 20
2221.292102425417
 30
0.0
 11
-12424.99381872773
 21
2221.392102425417
 31
0.0
  0
ARC
  5
2284B
330
A
100
AcDbEntity
  8
脚
 62
     7
370
    50
100
AcDbCircle
 10
11422.53878255768
 20
1691.292102415262
 30
0.0
 40
5.0
210
0.0
220
0.0
230
-1.0
100
AcDbArc
 50
0.0
 51
90.0
  0
LINE
  5
2284C
330
A
100
AcDbEntity
  8
脚
 62
     7
370
    25
100
AcDbLine
 10
-11422.53878255768
 20
1696.292102415262
 30
0.0
 11
-11472.53878255768
 21
1696.292102415262
 31
0.0
  0
LINE
  5
2284D
330
A
100
AcDbEntity
  8
脚
 62
     7
370
    50
100
AcDbLine
 10
-11467.53878255768
 20
1691.292102415262
 30
0.0
 11
-11427.53878255768
 21
1691.292102415262
 31
0.0
  0
ARC
  5
2284E
330
A
100
AcDbEntity
  8
脚
 62
     7
370
    50
100
AcDbCircle
 10
-11472.53878255768
 20
1691.292102415262
 30
0.0
 40
5.0
100
AcDbArc
 50
0.0
 51
90.0
  0
ARC
  5
22854
330
A
100
AcDbEntity
  8
脚
 62
     7
370
    50
100
AcDbCircle
 10
-11832.53878255768
 20
1691.29210242542
 30
0.0
 40
5.0
100
AcDbArc
 50
0.0
 51
90.0
  0
LINE
  5
22855
330
A
100
AcDbEntity
  8
脚
 62
     7
370
    25
100
AcDbLine
 10
-11782.53878255768
 20
1696.29210242542
 30
0.0
 11
-11832.53878255768
 21
1696.29210242542
 31
0.0
  0
LINE
  5
22856
330
A
100
AcDbEntity
  8
脚
 62
     7
370
    50
100
AcDbLine
 10
-11827.53878255768
 20
1691.29210242542
 30
0.0
 11
-11787.53878255768
 21
1691.29210242542
 31
0.0
  0
ARC
  5
22857
330
A
100
AcDbEntity
  8
脚
 62
     7
370
    50
100
AcDbCircle
 10
11782.53878255768
 20
1691.29210242542
 30
0.0
 40
5.0
210
0.0
220
0.0
230
-1.0
100
AcDbArc
 50
0.0
 51
90.0
  0
LINE
  5
2285B
330
A
100
AcDbEntity
  8
脚
 62
     7
370
    25
100
AcDbLine
 10
-13049.99381872773
 20
1696.292102425419
 30
0.0
 11
-13010.99381872773
 21
1696.29210242542
 31
0.0
  0
ARC
  5
2285C
330
A
100
AcDbEntity
  8
脚
 62
     7
370
    50
100
AcDbCircle
 10
13010.99381872773
 20
1691.29210242542
 30
0.0
 40
5.0
210
0.0
220
0.0
230
-1.0
100
AcDbArc
 50
0.0
 51
90.0
  0
ARC
  5
2285D
330
A
100
AcDbEntity
  8
脚
 62
     7
370
    50
100
AcDbCircle
 10
-13050.99381872773
 20
1691.29210242542
 30
0.0
 40
5.0
100
AcDbArc
 50
0.0
 51
90.0
  0
LINE
  5
2285E
330
A
100
AcDbEntity
  8
脚
 62
     7
370
    50
100
AcDbLine
 10
-13015.99381872773
 20
1691.29210242542
 30
0.0
 11
-13045.99381872773
 21
1691.29210242542
 31
0.0
  0
LINE
  5
2285F
330
A
100
AcDbEntity
  8
脚
 62
     7
370
    25
100
AcDbLine
 10
-12944.99381872773
 20
1691.29210242542
 30
0.0
 11
-12984.99381872773
 21
1691.29210242542
 31
0.0
  0
LINE
  5
22860
330
A
100
AcDbEntity
  8
脚
 62
     7
370
    25
100
AcDbLine
 10
-12989.99381872773
 20
1696.29210242542
 30
0.0
 11
-12939.99381872773
 21
1696.29210242542
 31
0.0
  0
ARC
  5
22861
330
A
100
AcDbEntity
  8
脚
 62
     7
370
    25
100
AcDbCircle
 10
12939.99381872773
 20
1691.29210242542
 30
0.0
 40
5.0
210
0.0
220
0.0
230
-1.0
100
AcDbArc
 50
0.0
 51
90.0
  0
ARC
  5
22862
330
A
100
AcDbEntity
  8
脚
 62
     7
370
    25
100
AcDbCircle
 10
-12989.99381872773
 20
1691.29210242542
 30
0.0
 40
5.0
100
AcDbArc
 50
0.0
 51
90.0
  0
LINE
  5
23184
330
A
100
AcDbEntity
  8
天板
 62
     7
370
    50
100
AcDbLine
 10
-12994.99381872773
 20
3048.421581229216
 30
0.0
 11
-12994.99381872773
 21
2638.421581229215
 31
0.0
  0
LINE
  5
23236
330
A
100
AcDbEntity
  8
貫
 62
     7
370
    50
100
AcDbLine
 10
-13009.99381872773
 20
2673.421581229216
 30
0.0
 11
-13010.99381872773
 21
2673.421581229216
 31
0.0
  0
LINE
  5
23237
330
A
100
AcDbEntity
  8
貫
 62
     7
370
    50
100
AcDbLine
 10
-13009.99381872773
 20
2653.421581229216
 30
0.0
 11
-13010.99381872773
 21
2653.421581229216
 31
0.0
  0
INSERT
  5
23282
330
A
100
AcDbEntity
  8
寸法
 62
     7
100
AcDbBlockReference
  2
A$C73231E16
 10
-13035.99381872773
 20
1689.292106425003
 30
0.0
  0
LINE
  5
23283
330
A
100
AcDbEntity
  8
木ネジ・ダボ
 62
     7
100
AcDbLine
 10
-13029.99381872773
 20
1691.29210242542
 30
0.0
 11
-13029.99381872773
 21
1701.29210242542
 31
0.0
  0
LINE
  5
23284
330
A
100
AcDbEntity
  8
木ネジ・ダボ
 62
     7
100
AcDbLine
 10
-13031.99381872773
 20
1691.29210242542
 30
0.0
 11
-13031.99381872773
 21
1701.29210242542
 31
0.0
  0
LINE
  5
23285
330
A
100
AcDbEntity
  8
木ネジ・ダボ
 62
     7
100
AcDbLine
 10
-13031.99381872773
 20
1701.29210242542
 30
0.0
 11
-13029.99381872773
 21
1701.29210242542
 31
0.0
  0
INSERT
  5
23288
330
A
100
AcDbEntity
  8
寸法
 62
     7
100
AcDbBlockReference
  2
A$C73231E16
 10
-12969.99381872773
 20
1689.292106425003
 30
0.0
  0
LINE
  5
23289
330
A
100
AcDbEntity
  8
木ネジ・ダボ
 62
     7
100
AcDbLine
 10
-12963.99381872773
 20
1691.29210242542
 30
0.0
 11
-12963.99381872773
 21
1701.29210242542
 31
0.0
  0
LINE
  5
2328A
330
A
100
AcDbEntity
  8
木ネジ・ダボ
 62
     7
100
AcDbLine
 10
-12965.99381872773
 20
1691.29210242542
 30
0.0
 11
-12965.99381872773
 21
1701.29210242542
 31
0.0
  0
LINE
  5
2328B
330
A
100
AcDbEntity
  8
木ネジ・ダボ
 62
     7
100
AcDbLine
 10
-12965.99381872773
 20
1701.29210242542
 30
0.0
 11
-12963.99381872773
 21
1701.29210242542
 31
0.0
  0
INSERT
  5
23294
330
A
100
AcDbEntity
  8
寸法
 62
     7
100
AcDbBlockReference
  2
A$C73231E16
 10
-11812.53878255768
 20
1689.292106425003
 30
0.0
  0
LINE
  5
23295
330
A
100
AcDbEntity
  8
木ネジ・ダボ
 62
     7
100
AcDbLine
 10
-11806.53878255768
 20
1691.29210242542
 30
0.0
 11
-11806.53878255768
 21
1701.29210242542
 31
0.0
  0
LINE
  5
23296
330
A
100
AcDbEntity
  8
木ネジ・ダボ
 62
     7
100
AcDbLine
 10
-11808.53878255768
 20
1691.29210242542
 30
0.0
 11
-11808.53878255768
 21
1701.29210242542
 31
0.0
  0
LINE
  5
23297
330
A
100
AcDbEntity
  8
木ネジ・ダボ
 62
     7
100
AcDbLine
 10
-11808.53878255768
 20
1701.29210242542
 30
0.0
 11
-11806.53878255768
 21
1701.29210242542
 31
0.0
  0
INSERT
  5
23298
330
A
100
AcDbEntity
  8
寸法
 62
     7
100
AcDbBlockReference
  2
A$C73231E16
 10
-11452.53878255768
 20
1689.292106414845
 30
0.0
  0
LINE
  5
23299
330
A
100
AcDbEntity
  8
木ネジ・ダボ
 62
     7
100
AcDbLine
 10
-11446.53878255768
 20
1691.292102415262
 30
0.0
 11
-11446.53878255768
 21
1701.292102415262
 31
0.0
  0
LINE
  5
2329A
330
A
100
AcDbEntity
  8
木ネジ・ダボ
 62
     7
100
AcDbLine
 10
-11448.53878255768
 20
1691.292102415262
 30
0.0
 11
-11448.53878255768
 21
1701.292102415262
 31
0.0
  0
LINE
  5
2329B
330
A
100
AcDbEntity
  8
木ネジ・ダボ
 62
     7
100
AcDbLine
 10
-11448.53878255768
 20
1701.292102415262
 30
0.0
 11
-11446.53878255768
 21
1701.292102415262
 31
0.0
  0
ARC
  5
23363
330
A
100
AcDbEntity
  8
天板
 62
     7
370
    50
100
AcDbCircle
 10
-12429.99381872773
 20
3048.421581229216
 30
0.0
 40
20.0
100
AcDbArc
 50
0.000000000000007
 51
90.0
  0
ARC
  5
23364
330
A
100
AcDbEntity
  8
天板
 62
     7
370
    50
100
AcDbCircle
 10
-12429.99381872773
 20
3048.421581229216
 30
0.0
 40
5.0
100
AcDbArc
 50
0.000000000000007
 51
90.0
  0
LINE
  5
23365
330
A
100
AcDbEntity
  8
天板
 62
     7
370
    25
100
AcDbLine
 10
-12426.4582848218
 20
3051.957115135149
 30
0.0
 11
-12415.851683104
 21
3062.563716852947
 31
0.0
  0
LINE
  5
23366
330
A
100
AcDbEntity
  8
天板
 62
     7
370
    50
100
AcDbLine
 10
-12409.99381872773
 20
3048.421581229216
 30
0.0
 11
-12409.99381872773
 21
2638.421581229215
 31
0.0
  0
LINE
  5
23367
330
A
100
AcDbEntity
  8
天板
 62
     7
370
    50
100
AcDbLine
 10
-12424.99381872773
 20
3048.421581229216
 30
0.0
 11
-12424.99381872773
 21
2638.421581229215
 31
0.0
  0
LINE
  5
23368
330
A
100
AcDbEntity
  8
脚
 62
     7
370
    50
100
AcDbLine
 10
-12408.99381872773
 20
2683.421581229215
 30
0.0
 11
-12408.99381872773
 21
2643.421581229216
 31
0.0
  0
ARC
  5
23369
330
A
100
AcDbEntity
  8
脚
 62
     7
370
    50
100
AcDbCircle
 10
-12393.99381872773
 20
2663.421581229215
 30
0.0
 40
25.0
100
AcDbArc
 50
270.0000000060448
 51
90.00000049984112
  0
LINE
  5
2336A
330
A
100
AcDbEntity
  8
脚
 62
     7
370
    50
100
AcDbLine
 10
-12393.99381872773
 20
2688.421581229216
 30
0.0
 11
-12403.99381872773
 21
2688.421581229216
 31
0.0
  0
ARC
  5
2336B
330
A
100
AcDbEntity
  8
脚
 62
     7
370
    50
100
AcDbCircle
 10
12403.99381872773
 20
2683.421581229215
 30
0.0
 40
5.0
210
0.0
220
0.0
230
-1.0
100
AcDbArc
 50
0.000000000000007
 51
90.0
  0
ARC
  5
2336C
330
A
100
AcDbEntity
  8
天板
 62
     7
370
    50
100
AcDbCircle
 10
-12429.99381872773
 20
2638.421581229215
 30
0.0
 40
20.0
100
AcDbArc
 50
270.0
 51
0.000000000000007
  0
ARC
  5
2336D
330
A
100
AcDbEntity
  8
天板
 62
     7
370
    50
100
AcDbCircle
 10
-12429.99381872773
 20
2638.421581229215
 30
0.0
 40
5.0
100
AcDbArc
 50
270.0
 51
0.000000000000007
  0
LINE
  5
2336E
330
A
100
AcDbEntity
  8
天板
 62
     7
370
    25
100
AcDbLine
 10
-12426.4582848218
 20
2634.886047323283
 30
0.0
 11
-12415.851683104
 21
2624.279445605484
 31
0.0
  0
LINE
  5
2336F
330
A
100
AcDbEntity
  8
脚
 62
     7
370
    50
100
AcDbLine
 10
-12393.99381872773
 20
2638.421581229215
 30
0.0
 11
-12403.99381872773
 21
2638.421581229215
 31
0.0
  0
ARC
  5
23370
330
A
100
AcDbEntity
  8
脚
 62
     7
370
    50
100
AcDbCircle
 10
12403.99381872773
 20
2643.421581229216
 30
0.0
 40
5.0
210
0.0
220
0.0
230
-1.0
100
AcDbArc
 50
270.0
 51
0.000000000000007
  0
LINE
  5
23371
330
A
100
AcDbEntity
  8
天板
 62
     7
370
    50
100
AcDbLine
 10
-12709.99381872773
 20
3068.421581229216
 30
0.0
 11
-12429.99381872773
 21
3068.421581229216
 31
0.0
  0
LINE
  5
23372
330
A
100
AcDbEntity
  8
天板
 62
     7
370
    50
100
AcDbLine
 10
-12709.99381872773
 20
3053.421581229216
 30
0.0
 11
-12429.99381872773
 21
3053.421581229216
 31
0.0
  0
LINE
  5
23373
330
A
100
AcDbEntity
  8
天板
 62
     7
370
    50
100
AcDbLine
 10
-12429.99381872773
 20
2618.421581229215
 30
0.0
 11
-12709.99381872773
 21
2618.421581229215
 31
0.0
  0
LINE
  5
23374
330
A
100
AcDbEntity
  8
天板
 62
     7
370
    50
100
AcDbLine
 10
-12429.99381872773
 20
2633.421581229216
 30
0.0
 11
-12709.99381872773
 21
2633.421581229216
 31
0.0
  0
LINE
  5
23375
330
A
100
AcDbEntity
  8
貫
 62
     7
370
    50
100
AcDbLine
 10
-12409.99381872773
 20
2673.421581229216
 30
0.0
 11
-12408.99381872773
 21
2673.421581229216
 31
0.0
  0
LINE
  5
23376
330
A
100
AcDbEntity
  8
貫
 62
     7
370
    50
100
AcDbLine
 10
-12409.99381872773
 20
2653.421581229216
 30
0.0
 11
-12408.99381872773
 21
2653.421581229216
 31
0.0
  0
LINE
  5
2337D
330
A
100
AcDbEntity
  8
脚
 62
     7
370
    50
100
AcDbLine
 10
-12368.99381872773
 20
1696.29210242542
 30
0.0
 11
-12368.99381872773
 21
2183.292102425417
 31
0.0
  0
LINE
  5
2337E
330
A
100
AcDbEntity
  8
脚
 62
     7
370
    50
100
AcDbLine
 10
-12408.99381872774
 20
2203.292102425416
 30
0.0
 11
-12408.99381872774
 21
1696.29210242542
 31
0.0
  0
LINE
  5
2337F
330
A
100
AcDbEntity
  8
脚
 62
     7
370
    50
100
AcDbLine
 10
-12409.99381872774
 20
2208.292102425417
 30
0.0
 11
-12409.99381872774
 21
2208.292102425417
 31
0.0
  0
ARC
  5
23380
330
A
100
AcDbEntity
  8
脚
 62
     7
370
    50
100
AcDbCircle
 10
-12393.99381872773
 20
2183.292102425417
 30
0.0
 40
25.0
100
AcDbArc
 50
0.000000000000007
 51
90.0
  0
LINE
  5
23381
330
A
100
AcDbEntity
  8
脚
 62
     7
370
    50
100
AcDbLine
 10
-12393.99381872773
 20
2208.292102425417
 30
0.0
 11
-12403.99381872773
 21
2208.292102425417
 31
0.0
  0
ARC
  5
23382
330
A
100
AcDbEntity
  8
脚
 62
     7
370
    50
100
AcDbCircle
 10
12403.99381872773
 20
2203.292102425416
 30
0.0
 40
5.0
210
0.0
220
0.0
230
-1.0
100
AcDbArc
 50
0.000000000000007
 51
90.0
  0
LINE
  5
23383
330
A
100
AcDbEntity
  8
脚
 62
     7
370
    25
100
AcDbLine
 10
-12479.99381872773
 20
1696.29210242542
 30
0.0
 11
-12479.99381872773
 21
2126.292793026164
 31
0.0
  0
LINE
  5
23384
330
A
100
AcDbEntity
  8
脚
 62
     7
370
    25
100
AcDbLine
 10
-12429.99381872774
 20
1696.29210242542
 30
0.0
 11
-12429.99381872774
 21
2126.292793026164
 31
0.0
  0
HATCH
  5
23385
330
A
100
AcDbEntity
  8
木ネジ、ダボ
 62
     7
370
    25
100
AcDbHatch
 10
0.0
 20
0.0
 30
0.0
210
0.0
220
0.0
230
1.0
  2
ANSI31
 70
     0
 71
     1
 91
        2
 92
        7
 72
     1
 73
     1
 93
        2
 10
-12394.99381872773
 20
2181.292101788904
 42
1.0
 10
-12402.99381872773
 20
2181.292101788904
 42
1.0
 97
        1
330
23386
 92
        7
 72
     1
 73
     1
 93
        2
 10
-12394.99381872773
 20
2151.292101788905
 42
1.0
 10
-12402.99381872773
 20
2151.292101788905
 42
1.0
 97
        1
330
23387
 75
     0
 76
     1
 52
0.0
 41
1.0
 77
     0
 78
     1
 53
45.00000000000218
 43
-3.999999999923602
 44
106.0142565226683
 45
-2.245064030267374
 46
2.245064030267201
 79
     0
 47
0.442748012474673
 98
        2
 10
-12401.0200983165
 20
2181.189484050294
 10
-12399.24808010514
 20
2151.525368112363
1001
ACAD
1010
0.0
1020
0.0
1030
0.0
  0
CIRCLE
  5
23386
102
{ACAD_REACTORS
330
23385
102
}
330
A
100
AcDbEntity
  8
木ネジ、ダボ
 62
     7
370
    25
100
AcDbCircle
 10
-12398.99381872773
 20
2181.292101788904
 30
0.0
 40
4.0
  0
CIRCLE
  5
23387
102
{ACAD_REACTORS
330
23385
102
}
330
A
100
AcDbEntity
  8
木ネジ、ダボ
 62
     7
370
    25
100
AcDbCircle
 10
-12398.99381872773
 20
2151.292101788905
 30
0.0
 40
4.0
  0
LINE
  5
23388
330
A
100
AcDbEntity
  8
脚
 62
     7
370
    25
100
AcDbLine
 10
-12369.99381872773
 20
1696.292102425419
 30
0.0
 11
-12408.99381872774
 21
1696.29210242542
 31
0.0
  0
ARC
  5
23389
330
A
100
AcDbEntity
  8
脚
 62
     7
370
    50
100
AcDbCircle
 10
12408.99381872774
 20
1691.29210242542
 30
0.0
 40
5.0
210
0.0
220
0.0
230
-1.0
100
AcDbArc
 50
90.0
 51
180.0
  0
ARC
  5
2338A
330
A
100
AcDbEntity
  8
脚
 62
     7
370
    50
100
AcDbCircle
 10
-12368.99381872773
 20
1691.29210242542
 30
0.0
 40
5.0
100
AcDbArc
 50
90.0
 51
180.0
  0
LINE
  5
2338B
330
A
100
AcDbEntity
  8
脚
 62
     7
370
    50
100
AcDbLine
 10
-12403.99381872773
 20
1691.29210242542
 30
0.0
 11
-12373.99381872773
 21
1691.29210242542
 31
0.0
  0
LINE
  5
2338C
330
A
100
AcDbEntity
  8
脚
 62
     7
370
    25
100
AcDbLine
 10
-12474.99381872773
 20
1691.29210242542
 30
0.0
 11
-12434.99381872773
 21
1691.29210242542
 31
0.0
  0
LINE
  5
2338D
330
A
100
AcDbEntity
  8
脚
 62
     7
370
    25
100
AcDbLine
 10
-12429.99381872774
 20
1696.29210242542
 30
0.0
 11
-12479.99381872773
 21
1696.29210242542
 31
0.0
  0
ARC
  5
2338E
330
A
100
AcDbEntity
  8
脚
 62
     7
370
    25
100
AcDbCircle
 10
12479.99381872773
 20
1691.29210242542
 30
0.0
 40
5.0
210
0.0
220
0.0
230
-1.0
100
AcDbArc
 50
90.0
 51
180.0
  0
ARC
  5
2338F
330
A
100
AcDbEntity
  8
脚
 62
     7
370
    25
100
AcDbCircle
 10
-12429.99381872774
 20
1691.29210242542
 30
0.0
 40
5.0
100
AcDbArc
 50
90.0
 51
180.0
  0
INSERT
  5
23390
330
A
100
AcDbEntity
  8
寸法
 62
     7
100
AcDbBlockReference
  2
A$C73231E16
 10
-12383.99381872773
 20
1689.292106425003
 30
0.0
 41
-1.0
  0
LINE
  5
23391
330
A
100
AcDbEntity
  8
木ネジ・ダボ
 62
     7
100
AcDbLine
 10
-12389.99381872774
 20
1691.29210242542
 30
0.0
 11
-12389.99381872774
 21
1701.29210242542
 31
0.0
  0
LINE
  5
23392
330
A
100
AcDbEntity
  8
木ネジ・ダボ
 62
     7
100
AcDbLine
 10
-12387.99381872774
 20
1691.29210242542
 30
0.0
 11
-12387.99381872774
 21
1701.29210242542
 31
0.0
  0
LINE
  5
23393
330
A
100
AcDbEntity
  8
木ネジ・ダボ
 62
     7
100
AcDbLine
 10
-12387.99381872774
 20
1701.29210242542
 30
0.0
 11
-12389.99381872774
 21
1701.29210242542
 31
0.0
  0
INSERT
  5
23394
330
A
100
AcDbEntity
  8
寸法
 62
     7
100
AcDbBlockReference
  2
A$C73231E16
 10
-12449.99381872774
 20
1689.292106425003
 30
0.0
 41
-1.0
  0
LINE
  5
23395
330
A
100
AcDbEntity
  8
木ネジ・ダボ
 62
     7
100
AcDbLine
 10
-12455.99381872773
 20
1691.29210242542
 30
0.0
 11
-12455.99381872773
 21
1701.29210242542
 31
0.0
  0
LINE
  5
23396
330
A
100
AcDbEntity
  8
木ネジ・ダボ
 62
     7
100
AcDbLine
 10
-12453.99381872773
 20
1691.29210242542
 30
0.0
 11
-12453.99381872773
 21
1701.29210242542
 31
0.0
  0
LINE
  5
23397
330
A
100
AcDbEntity
  8
木ネジ・ダボ
 62
     7
100
AcDbLine
 10
-12453.99381872773
 20
1701.29210242542
 30
0.0
 11
-12455.99381872773
 21
1701.29210242542
 31
0.0
  0
INSERT
  5
23398
330
A
100
AcDbEntity
  8
ボルト
 62
     7
370
    25
100
AcDbBlockReference
  2
A$C153C7E87
 10
-12461.97317482881
 20
2174.792100444232
 30
0.0
 41
-1.0
  0
CIRCLE
  5
23399
330
A
100
AcDbEntity
  8
貫
 62
     7
370
    50
100
AcDbCircle
 10
-12468.47319121531
 20
2181.292101788904
 30
0.0
 40
7.0
  0
INSERT
  5
2339A
330
A
100
AcDbEntity
  8
ボルト
 62
     7
370
    25
100
AcDbBlockReference
  2
A$C153C7E87
 10
-12461.97317482881
 20
2144.792100444231
 30
0.0
 41
-1.0
  0
CIRCLE
  5
2339B
330
A
100
AcDbEntity
  8
貫
 62
     7
370
    50
100
AcDbCircle
 10
-12468.47319121531
 20
2151.292101788905
 30
0.0
 40
7.0
  0
VIEWPORT
  5
23359
330
23352
100
AcDbEntity
 67
     1
  8
0
370
     5
100
AcDbViewport
 10
128.5
 20
97.5
 30
0.0
 40
428.26
 41
222.18
 68
     1
 69
     1
 12
128.5
 22
97.5
 13
0.0
 23
0.0
 14
10.0
 24
10.0
 15
10.0
 25
10.0
 16
0.0
 26
0.0
 36
1.0
 17
0.0
 27
0.0
 37
0.0
 42
50.0
 43
0.0
 44
0.0
 45
222.18
 50
0.0
 51
0.0
 72
  2000
 90
   819232
  1

281
     0
 71
     1
 74
     0
110
0.0
120
0.0
130
0.0
111
1.0
121
0.0
131
0.0
112
0.0
122
1.0
132
0.0
 79
     0
146
0.0
170
     0
 61
     5
348
977
292
     1
282
     1
141
0.0
142
0.0
 63
   250
421
  3355443
  0
ENDSEC
  0
SECTION
  2
OBJECTS
  0
DICTIONARY
  5
19
330
0
100
AcDbDictionary
281
     1
  3
ACAD_BGPLOT_KEY
350
1108E
  3
ACAD_COLOR
350
982
  3
ACAD_GROUP
350
1A
  3
ACAD_LAYOUT
350
1E
  3
ACAD_MATERIAL
350
96D
  3
ACAD_MLINESTYLE
350
1B
  3
ACAD_PLOTSETTINGS
350
22
  3
ACAD_PLOTSTYLENAME
350
1F
  3
ACAD_TABLESTYLE
350
983
  3
ACAD_VISUALSTYLE
350
971
  3
ACAD_WIPEOUT_VARS
350
23
  3
AcDbVariableDictionary
350
98E
  3
ASE_INDEX_DICTIONARY
350
1F730
  0
DICTIONARY
  5
3A0F
330
7
100
AcDbDictionary
280
     1
281
     1
  0
DICTIONARY
  5
C1E
330
2
100
AcDbDictionary
280
     1
281
     1
  3
ACAD_LAYERFILTERS
360
2006D
  3
ACAD_LAYERSTATES
360
C1F
  3
ACLYDICTIONARY
360
2006C
  0
DICTIONARY
  5
9CE
330
A
100
AcDbDictionary
280
     1
281
     1
  3
ACAD_SORTENTS
360
9CF
  0
DICTIONARY
  5
20FBF
330
20FB6
100
AcDbDictionary
280
     1
281
     1
  3
ACAD_SORTENTS
360
20FC0
  0
DICTIONARY
  5
2326A
330
23269
100
AcDbDictionary
280
     1
281
     1
  3
ACAD_SORTENTS
360
2326B
  0
DICTIONARY
  5
233B7
330
233B6
100
AcDbDictionary
280
     1
281
     1
  3
ACAD_SORTENTS
360
233B8
  0
DICTIONARY
  5
233CD
330
233CC
100
AcDbDictionary
280
     1
281
     1
  3
ACAD_SORTENTS
360
233CE
  0
DICTIONARY
  5
2350A
330
23509
100
AcDbDictionary
280
     1
281
     1
  3
ACAD_SORTENTS
360
2350B
  0
DICTIONARY
  5
23610
330
2360F
100
AcDbDictionary
280
     1
281
     1
  3
ACAD_SORTENTS
360
23611
  0
DICTIONARY
  5
2361B
330
2361A
100
AcDbDictionary
280
     1
281
     1
  3
ACAD_SORTENTS
360
2361C
  0
DICTIONARY
  5
23666
330
23665
100
AcDbDictionary
280
     1
281
     1
  3
ACAD_SORTENTS
360
23667
  0
DICTIONARY
  5
1108E
102
{ACAD_REACTORS
330
19
102
}
330
19
100
AcDbDictionary
280
     1
281
     1
  0
DICTIONARY
  5
982
102
{ACAD_REACTORS
330
19
102
}
330
19
100
AcDbDictionary
281
     1
  0
DICTIONARY
  5
1A
102
{ACAD_REACTORS
330
19
102
}
330
19
100
AcDbDictionary
281
     1
  0
DICTIONARY
  5
1E
102
{ACAD_REACTORS
330
19
102
}
330
19
100
AcDbDictionary
281
     1
  3
Model
350
20
  3
レイアウト1
350
23353
  0
DICTIONARY
  5
96D
102
{ACAD_REACTORS
330
19
102
}
330
19
100
AcDbDictionary
281
     1
  3
ByBlock
350
96F
  3
ByLayer
350
96E
  3
Global
350
970
  0
DICTIONARY
  5
1B
102
{ACAD_REACTORS
330
19
102
}
330
19
100
AcDbDictionary
281
     1
  3
Standard
350
1C
  0
DICTIONARY
  5
22
102
{ACAD_REACTORS
330
19
102
}
330
19
100
AcDbDictionary
281
     1
  0
ACDBDICTIONARYWDFLT
  5
1F
102
{ACAD_REACTORS
330
19
102
}
330
19
100
AcDbDictionary
281
     1
  3
Normal
350
1D
100
AcDbDictionaryWithDefault
340
1D
  0
DICTIONARY
  5
983
102
{ACAD_REACTORS
330
19
102
}
330
19
100
AcDbDictionary
281
     1
  3
Standard
350
984
  0
DICTIONARY
  5
971
102
{ACAD_REACTORS
330
19
102
}
330
19
100
AcDbDictionary
281
     1
  3
2dWireframe
350
977
  3
3D Hidden
350
979
  3
3dWireframe
350
978
  3
Basic
350
976
  3
Brighten
350
97D
  3
ColorChange
350
981
  3
Conceptual
350
97A
  3
Dim
350
97C
  3
Facepattern
350
980
  3
Flat
350
972
  3
FlatWithEdges
350
973
  3
Gouraud
350
974
  3
GouraudWithEdges
350
975
  3
Linepattern
350
97F
  3
Realistic
350
97B
  3
Thicken
350
97E
  0
WIPEOUTVARIABLES
  5
23
330
19
100
AcDbWipeoutVariables
 70
     0
  0
DICTIONARY
  5
98E
102
{ACAD_REACTORS
330
19
102
}
330
19
100
AcDbDictionary
281
     1
  3
CTABLESTYLE
350
98F
  3
FIELDEVAL
350
1108F
  0
DICTIONARY
  5
1F730
102
{ACAD_REACTORS
330
19
102
}
330
19
100
AcDbDictionary
281
     1
  3
ASEBlockHierarchyIndexRecord
350
1F731
1001
DCO15
1040
1970653301.449
  0
DICTIONARY
  5
2006D
102
{ACAD_REACTORS
330
C1E
102
}
330
C1E
100
AcDbDictionary
281
     1
  0
DICTIONARY
  5
C1F
102
{ACAD_REACTORS
330
C1E
102
}
330
C1E
100
AcDbDictionary
281
     1
  0
DICTIONARY
  5
2006C
102
{ACAD_REACTORS
330
C1E
102
}
330
C1E
100
AcDbDictionary
281
     1
1001
ACAD
1000
<All
  0
SORTENTSTABLE
  5
9CF
102
{ACAD_REACTORS
330
9CE
102
}
330
9CE
100
AcDbSortentsTable
330
A
331
1FBD1
  5
1FBDA
331
20FC3
  5
2101D
331
1FC3B
  5
1FC4D
331
1FC27
  5
1FC36
331
1FC32
  5
1FC40
331
20571
  5
1FC86
331
21347
  5
21A79
331
20082
  5
20219
331
2285B
  5
2285F
331
1FC28
  5
1FC37
331
1FC33
  5
1FC41
331
20572
  5
20044
331
1FBD3
  5
1FBDF
331
2285C
  5
22860
331
1FC29
  5
1FC38
331
1FC4F
  5
1FC62
331
1FC87
  5
201E9
331
1FBDE
  5
1FC0F
331
1FBB2
  5
1FBB6
331
1FC34
  5
1FC46
331
1FBD4
  5
1FBE0
331
1FC50
  5
1FC63
331
2285D
  5
22861
331
1FBDF
  5
1FC10
331
1FC5B
  5
1FC75
331
1FC01
  5
1FC18
331
1FBB3
  5
1FBB7
331
1FC17
  5
1FC26
331
2007B
  5
201BE
331
22854
  5
22858
331
1FBD5
  5
1FBE2
331
20FC7
  5
2101E
331
2101E
  5
201EB
331
1FC51
  5
1FC65
331
2285E
  5
22862
331
20FC8
  5
2111A
331
1FBE0
  5
1FC11
331
2284B
  5
2284F
331
1FC02
  5
1FC1A
331
1FBB4
  5
1FBB8
331
1FC5C
  5
1FC76
331
22855
  5
22859
331
1FC80
  5
200D5
331
1FC52
  5
1FC66
331
2285F
  5
22864
331
20FC9
  5
2111B
331
22860
  5
22865
331
1FBE1
  5
1FC16
331
1FC37
  5
1FC47
331
2284C
  5
22850
331
1FC77
  5
20085
331
21218
  5
201E1
331
22856
  5
2285A
331
1FC53
  5
1FC67
331
1FC81
  5
201DD
331
22861
  5
22876
331
1FBE2
  5
1FC17
331
201ED
  5
201F7
331
1FC38
  5
1FC4B
331
1FC1A
  5
1FC27
331
2284D
  5
22851
331
1FC78
  5
200B0
331
1FC4A
  5
1FC5D
331
22857
  5
2285B
331
21219
  5
212EA
331
1FC82
  5
201DF
331
1FC54
  5
1FC74
331
22862
  5
22954
331
1FC11
  5
1FC20
331
201EE
  5
20206
331
23184
  5
1FBDE
331
1FC1B
  5
1FC2A
331
2284E
  5
22852
331
1FC4B
  5
1FC61
331
1FBDA
  5
1FC02
331
1FC30
  5
1FC3F
331
1FC3A
  5
1FC4C
331
21346
  5
21A78
  0
SORTENTSTABLE
  5
20FC0
102
{ACAD_REACTORS
330
20FBF
102
}
330
20FBF
100
AcDbSortentsTable
330
20FB6
  0
SORTENTSTABLE
  5
2326B
102
{ACAD_REACTORS
330
2326A
102
}
330
2326A
100
AcDbSortentsTable
330
23269
  0
SORTENTSTABLE
  5
233B8
102
{ACAD_REACTORS
330
233B7
102
}
330
233B7
100
AcDbSortentsTable
330
233B6
  0
SORTENTSTABLE
  5
233CE
102
{ACAD_REACTORS
330
233CD
102
}
330
233CD
100
AcDbSortentsTable
330
233CC
  0
SORTENTSTABLE
  5
2350B
102
{ACAD_REACTORS
330
2350A
102
}
330
2350A
100
AcDbSortentsTable
330
23509
  0
SORTENTSTABLE
  5
23611
102
{ACAD_REACTORS
330
23610
102
}
330
23610
100
AcDbSortentsTable
330
2360F
  0
SORTENTSTABLE
  5
2361C
102
{ACAD_REACTORS
330
2361B
102
}
330
2361B
100
AcDbSortentsTable
330
2361A
  0
SORTENTSTABLE
  5
23667
102
{ACAD_REACTORS
330
23666
102
}
330
23666
100
AcDbSortentsTable
330
23665
  0
LAYOUT
  5
20
102
{ACAD_REACTORS
330
1E
102
}
330
1E
100
AcDbPlotSettings
  1

  2
none_device
  4
ISO_A4_(210.00_x_297.00_MM)
  6

 40
7.5
 41
20.0
 42
7.5
 43
20.0
 44
210.0
 45
297.0
 46
0.0
 47
0.0
 48
0.0
 49
0.0
140
0.0
141
0.0
142
1.0
143
1.0
 70
 11264
 72
     1
 73
     1
 74
     0
  7

 75
     0
147
1.0
 76
     0
 77
     2
 78
   300
148
916.8712341080579
149
627.2450171497188
100
AcDbLayout
  1
Model
 70
     0
 71
     0
 10
0.0
 20
0.0
 11
0.0
 21
0.0
 12
0.0
 22
0.0
 32
0.0
 14
0.0
 24
0.0
 34
0.0
 15
0.0
 25
0.0
 35
0.0
146
0.0
 13
0.0
 23
0.0
 33
0.0
 16
0.0
 26
0.0
 36
0.0
 17
0.0
 27
0.0
 37
0.0
 76
     0
330
A
331
15
1001
ACAD_PSEXT
1000
なし
1000
なし
1000
適切ではありません
1000
新しいプロッタ環境設定名を選択しない限り、レイアウトは印刷されません。
1070
     0
  0
LAYOUT
  5
23353
102
{ACAD_XDICTIONARY
360
23360
102
}
102
{ACAD_REACTORS
330
1E
102
}
330
1E
100
AcDbPlotSettings
  1

  2
none_device
  4
ISO_A4_(210.00_x_297.00_MM)
  6

 40
7.5
 41
20.0
 42
7.5
 43
20.0
 44
210.0
 45
297.0
 46
0.0
 47
0.0
 48
0.0
 49
0.0
140
0.0
141
0.0
142
1.0
143
1.0
 70
   688
 72
     1
 73
     1
 74
     5
  7

 75
    16
147
1.0
 76
     0
 77
     2
 78
   300
148
0.0
149
0.0
100
AcDbLayout
  1
レイアウト1
 70
     1
 71
     1
 10
-20.0
 20
-7.5
 11
277.0
 21
202.5
 12
0.0
 22
0.0
 32
0.0
 14
25.69999999999999
 24
19.5
 34
0.0
 15
231.3
 25
175.5
 35
0.0
146
0.0
 13
0.0
 23
0.0
 33
0.0
 16
1.0
 26
0.0
 36
0.0
 17
0.0
 27
1.0
 37
0.0
 76
     0
330
23352
331
23359
1001
ACAD_PSEXT
1000
なし
1000
なし
1000
適切ではありません
1000
新しいプロッタ環境設定名を選択しない限り、レイアウトは印刷されません。
1070
     0
  0
MATERIAL
  5
96F
102
{ACAD_REACTORS
330
96D
102
}
330
96D
100
AcDbMaterial
  1
ByBlock
  0
MATERIAL
  5
96E
102
{ACAD_REACTORS
330
96D
102
}
330
96D
100
AcDbMaterial
  1
ByLayer
  0
MATERIAL
  5
970
102
{ACAD_REACTORS
330
96D
102
}
330
96D
100
AcDbMaterial
  1
Global
  0
MLINESTYLE
  5
1C
102
{ACAD_REACTORS
330
1B
102
}
330
1B
100
AcDbMlineStyle
  2
STANDARD
 70
     0
  3

 62
     0
 51
90.0
 52
90.0
 71
     2
 49
0.5
 62
   256
  6
BYLAYER
 49
-0.5
 62
   256
  6
BYLAYER
  0
ACDBPLACEHOLDER
  5
1D
102
{ACAD_REACTORS
330
1F
102
}
330
1F
  0
TABLESTYLE
  5
984
102
{ACAD_REACTORS
330
983
102
}
330
983
100
AcDbTableStyle
  3
Standard
 70
     0
 71
     0
 40
1.5
 41
1.5
280
     0
281
     0
  7
Standard
140
4.5
170
     2
 62
     0
 63
     7
283
     0
 90
      512
 91
        0
  1

274
    -2
284
     1
 64
     0
275
    -2
285
     1
 65
     0
276
    -2
286
     1
 66
     0
277
    -2
287
     1
 67
     0
278
    -2
288
     1
 68
     0
279
    -2
289
     1
 69
     0
  7
Standard
140
6.0
170
     5
 62
     0
 63
     7
283
     0
 90
      512
 91
        0
  1

274
    -2
284
     1
 64
     0
275
    -2
285
     1
 65
     0
276
    -2
286
     1
 66
     0
277
    -2
287
     1
 67
     0
278
    -2
288
     1
 68
     0
279
    -2
289
     1
 69
     0
  7
Standard
140
4.5
170
     5
 62
     0
 63
     7
283
     0
 90
      512
 91
        0
  1

274
    -2
284
     1
 64
     0
275
    -2
285
     1
 65
     0
276
    -2
286
     1
 66
     0
277
    -2
287
     1
 67
     0
278
    -2
288
     1
 68
     0
279
    -2
289
     1
 69
     0
  0
VISUALSTYLE
  5
977
102
{ACAD_REACTORS
330
971
102
}
330
971
100
AcDbVisualStyle
  2
2dWireframe
 70
     4
 71
     0
 72
     2
 73
     0
 90
        0
 40
-0.6
 41
-30.0
 62
     5
 63
     7
421
 16777215
 74
     1
 91
        4
 64
     7
 65
   257
 75
     1
175
     1
 42
1.0
 92
        0
 66
   257
 43
1.0
 76
     1
 77
     6
 78
     2
 67
     7
 79
     5
170
     0
171
     0
290
     0
174
     0
 93
        1
 44
0.0
173
     0
291
     0
 45
0.0
  0
VISUALSTYLE
  5
979
102
{ACAD_REACTORS
330
971
102
}
330
971
100
AcDbVisualStyle
  2
3D Hidden
 70
     6
 71
     1
 72
     2
 73
     2
 90
        0
 40
-0.6
 41
-30.0
 62
     5
 63
     7
421
 16777215
 74
     2
 91
        2
 64
     7
 65
   257
 75
     2
175
     1
 42
40.0
 92
        0
 66
   257
 43
1.0
 76
     1
 77
     6
 78
     2
 67
     7
 79
     3
170
     0
171
     0
290
     0
174
     0
 93
        1
 44
0.0
173
     0
291
     0
 45
0.0
  0
VISUALSTYLE
  5
978
102
{ACAD_REACTORS
330
971
102
}
330
971
100
AcDbVisualStyle
  2
3dWireframe
 70
     5
 71
     0
 72
     2
 73
     0
 90
        0
 40
-0.6
 41
-30.0
 62
     5
 63
     7
421
 16777215
 74
     1
 91
        4
 64
     7
 65
   257
 75
     1
175
     1
 42
1.0
 92
        0
 66
   257
 43
1.0
 76
     1
 77
     6
 78
     2
 67
     7
 79
     5
170
     0
171
     0
290
     0
174
     0
 93
        1
 44
0.0
173
     0
291
     0
 45
0.0
  0
VISUALSTYLE
  5
976
102
{ACAD_REACTORS
330
971
102
}
330
971
100
AcDbVisualStyle
  2
Basic
 70
     7
 71
     1
 72
     0
 73
     1
 90
        0
 40
-0.6
 41
-30.0
 62
     5
 63
     7
421
 16777215
 74
     0
 91
        4
 64
     7
 65
   257
 75
     1
175
     1
 42
1.0
 92
        8
 66
     7
 43
1.0
 76
     1
 77
     6
 78
     2
 67
     7
 79
     5
170
     0
171
     0
290
     0
174
     0
 93
        1
 44
0.0
173
     0
291
     1
 45
0.0
  0
VISUALSTYLE
  5
97D
102
{ACAD_REACTORS
330
971
102
}
330
971
100
AcDbVisualStyle
  2
Brighten
 70
    12
 71
     2
 72
     2
 73
     0
 90
        0
 40
-0.6
 41
-30.0
 62
     5
 63
     7
421
 16777215
 74
     1
 91
        4
 64
     7
 65
   257
 75
     1
175
     1
 42
1.0
 92
        8
 66
     7
 43
1.0
 76
     1
 77
     6
 78
     2
 67
     7
 79
     5
170
     0
171
     0
290
     0
174
     0
 93
        1
 44
50.0
173
     0
291
     1
 45
0.0
  0
VISUALSTYLE
  5
981
102
{ACAD_REACTORS
330
971
102
}
330
971
100
AcDbVisualStyle
  2
ColorChange
 70
    16
 71
     2
 72
     2
 73
     3
 90
        0
 40
-0.6
 41
-30.0
 62
     5
 63
     8
421
  8421504
 74
     1
 91
        4
 64
     7
 65
   257
 75
     1
175
     1
 42
1.0
 92
        8
 66
     8
424
  8421504
 43
1.0
 76
     1
 77
     6
 78
     2
 67
     7
 79
     5
170
     0
171
     0
290
     0
174
     0
 93
        1
 44
0.0
173
     0
291
     1
 45
0.0
  0
VISUALSTYLE
  5
97A
102
{ACAD_REACTORS
330
971
102
}
330
971
100
AcDbVisualStyle
  2
Conceptual
 70
     9
 71
     3
 72
     2
 73
     0
 90
        0
 40
-0.6
 41
-30.0
 62
     5
 63
     7
421
 16777215
 74
     2
 91
        2
 64
     7
 65
   257
 75
     1
175
     1
 42
40.0
 92
        8
 66
     7
 43
1.0
 76
     1
 77
     6
 78
     2
 67
     7
 79
     3
170
     0
171
     0
290
     0
174
     0
 93
        1
 44
0.0
173
     0
291
     0
 45
0.0
  0
VISUALSTYLE
  5
97C
102
{ACAD_REACTORS
330
971
102
}
330
971
100
AcDbVisualStyle
  2
Dim
 70
    11
 71
     2
 72
     2
 73
     0
 90
        0
 40
-0.6
 41
-30.0
 62
     5
 63
     7
421
 16777215
 74
     1
 91
        4
 64
     7
 65
   257
 75
     1
175
     1
 42
1.0
 92
        8
 66
     7
 43
1.0
 76
     1
 77
     6
 78
     2
 67
     7
 79
     5
170
     0
171
     0
290
     0
174
     0
 93
        1
 44
-50.0
173
     0
291
     1
 45
0.0
  0
VISUALSTYLE
  5
980
102
{ACAD_REACTORS
330
971
102
}
330
971
100
AcDbVisualStyle
  2
Facepattern
 70
    15
 71
     2
 72
     2
 73
     0
 90
        0
 40
-0.6
 41
-30.0
 62
     5
 63
     7
421
 16777215
 74
     1
 91
        4
 64
     7
 65
   257
 75
     1
175
     1
 42
1.0
 92
        8
 66
     7
 43
1.0
 76
     1
 77
     6
 78
     2
 67
     7
 79
     5
170
     0
171
     0
290
     0
174
     0
 93
        1
 44
0.0
173
     0
291
     1
 45
0.0
  0
VISUALSTYLE
  5
972
102
{ACAD_REACTORS
330
971
102
}
330
971
100
AcDbVisualStyle
  2
Flat
 70
     0
 71
     2
 72
     1
 73
     1
 90
        2
 40
-0.6
 41
30.0
 62
     5
 63
     7
421
 16777215
 74
     0
 91
        4
 64
     7
 65
   257
 75
     1
175
     1
 42
1.0
 92
        8
 66
     7
 43
1.0
 76
     1
 77
     6
 78
     2
 67
     7
 79
     5
170
     0
171
     0
290
     0
174
     0
 93
       13
 44
0.0
173
     0
291
     1
 45
0.0
  0
VISUALSTYLE
  5
973
102
{ACAD_REACTORS
330
971
102
}
330
971
100
AcDbVisualStyle
  2
FlatWithEdges
 70
     1
 71
     2
 72
     1
 73
     1
 90
        2
 40
-0.6
 41
30.0
 62
     5
 63
     7
421
 16777215
 74
     1
 91
        4
 64
     7
 65
   257
 75
     1
175
     1
 42
1.0
 92
        0
 66
   257
 43
1.0
 76
     1
 77
     6
 78
     2
 67
     7
 79
     5
170
     0
171
     0
290
     0
174
     0
 93
       13
 44
0.0
173
     0
291
     1
 45
0.0
  0
VISUALSTYLE
  5
974
102
{ACAD_REACTORS
330
971
102
}
330
971
100
AcDbVisualStyle
  2
Gouraud
 70
     2
 71
     2
 72
     2
 73
     1
 90
        2
 40
-0.6
 41
30.0
 62
     5
 63
     7
421
 16777215
 74
     0
 91
        4
 64
     7
 65
   257
 75
     1
175
     1
 42
1.0
 92
        0
 66
     7
 43
1.0
 76
     1
 77
     6
 78
     2
 67
     7
 79
     5
170
     0
171
     0
290
     0
174
     0
 93
       13
 44
0.0
173
     0
291
     1
 45
0.0
  0
VISUALSTYLE
  5
975
102
{ACAD_REACTORS
330
971
102
}
330
971
100
AcDbVisualStyle
  2
GouraudWithEdges
 70
     3
 71
     2
 72
     2
 73
     1
 90
        2
 40
-0.6
 41
30.0
 62
     5
 63
     7
421
 16777215
 74
     1
 91
        4
 64
     7
 65
   257
 75
     1
175
     1
 42
1.0
 92
        0
 66
   257
 43
1.0
 76
     1
 77
     6
 78
     2
 67
     7
 79
     5
170
     0
171
     0
290
     0
174
     0
 93
       13
 44
0.0
173
     0
291
     1
 45
0.0
  0
VISUALSTYLE
  5
97F
102
{ACAD_REACTORS
330
971
102
}
330
971
100
AcDbVisualStyle
  2
Linepattern
 70
    14
 71
     2
 72
     2
 73
     0
 90
        0
 40
-0.6
 41
-30.0
 62
     5
 63
     7
421
 16777215
 74
     1
 91
        4
 64
     7
 65
   257
 75
     7
175
     7
 42
1.0
 92
        8
 66
     7
 43
1.0
 76
     1
 77
     6
 78
     2
 67
     7
 79
     5
170
     0
171
     0
290
     0
174
     0
 93
        1
 44
0.0
173
     0
291
     1
 45
0.0
  0
VISUALSTYLE
  5
97B
102
{ACAD_REACTORS
330
971
102
}
330
971
100
AcDbVisualStyle
  2
Realistic
 70
     8
 71
     2
 72
     2
 73
     0
 90
        0
 40
-0.6
 41
-30.0
 62
     5
 63
     7
421
 16777215
 74
     1
 91
        0
 64
     7
 65
   257
 75
     1
175
     1
 42
1.0
 92
        8
 66
     8
424
  7895160
 43
1.0
 76
     1
 77
     6
 78
     2
 67
     7
 79
     5
170
     0
171
     0
290
     0
174
     0
 93
       13
 44
0.0
173
     0
291
     0
 45
0.0
  0
VISUALSTYLE
  5
97E
102
{ACAD_REACTORS
330
971
102
}
330
971
100
AcDbVisualStyle
  2
Thicken
 70
    13
 71
     2
 72
     2
 73
     0
 90
        0
 40
-0.6
 41
-30.0
 62
     5
 63
     7
421
 16777215
 74
     1
 91
        4
 64
     7
 65
   257
 75
     1
175
     1
 42
1.0
 92
       12
 66
     7
 43
1.0
 76
     1
 77
     6
 78
     2
 67
     7
 79
     5
170
     0
171
     0
290
     0
174
     0
 93
        1
 44
0.0
173
     0
291
     1
 45
0.0
  0
DICTIONARYVAR
  5
98F
102
{ACAD_REACTORS
330
98E
102
}
330
98E
100
DictionaryVariables
280
     0
  1
STANDARD
  0
DICTIONARYVAR
  5
1108F
102
{ACAD_REACTORS
330
98E
102
}
330
98E
100
DictionaryVariables
280
     0
  1
4
  0
XRECORD
  5
1F731
102
{ACAD_REACTORS
330
1F730
102
}
330
1F730
100
AcDbXrecord
280
     1
330
20FC3
330
20FC8
330
23398
330
2339A
330
23282
330
23288
330
23294
330
23298
330
23390
330
23394
330
233AE
330
233AF
330
2394C
330
2394D
330
23955
330
23956
330
2395E
330
2395F
330
23967
330
23968
330
23970
330
23971
330
23979
330
2397A
330
23982
330
23983
330
2398B
330
2398C
  0
DICTIONARY
  5
23360
330
23353
100
AcDbDictionary
280
     1
281
     1
  3
ADSK_XREC_LAYOUTTHUMBNAIL
360
23361
  0
XRECORD
  5
23361
102
{ACAD_REACTORS
330
23360
102
}
330
23360
100
AcDbXrecord
280
     1
310
28000000B40000007F00000001000800000000004C59000000000000000000000001000000000000FFFFFF0000000000FFFFFF000000000000000000000000000000000000000000000000000000000000000000330000006600000099000000CC000000FF00000000330000333300006633000099330000CC330000FF3300
310
0000660000336600006666000099660000CC660000FF66000000990000339900006699000099990000CC990000FF99000000CC000033CC000066CC000099CC0000CCCC0000FFCC000000FF000033FF000066FF000099FF0000CCFF0000FFFF000000003300330033006600330099003300CC003300FF003300003333003333
310
33006633330099333300CC333300FF33330000663300336633006666330099663300CC663300FF66330000993300339933006699330099993300CC993300FF99330000CC330033CC330066CC330099CC3300CCCC3300FFCC330000FF330033FF330066FF330099FF3300CCFF3300FFFF330000006600330066006600660099
310
006600CC006600FF00660000336600333366006633660099336600CC336600FF33660000666600336666006666660099666600CC666600FF66660000996600339966006699660099996600CC996600FF99660000CC660033CC660066CC660099CC6600CCCC6600FFCC660000FF660033FF660066FF660099FF6600CCFF6600
310
FFFF660000009900330099006600990099009900CC009900FF00990000339900333399006633990099339900CC339900FF33990000669900336699006666990099669900CC669900FF66990000999900339999006699990099999900CC999900FF99990000CC990033CC990066CC990099CC9900CCCC9900FFCC990000FF99
310
0033FF990066FF990099FF9900CCFF9900FFFF99000000CC003300CC006600CC009900CC00CC00CC00FF00CC000033CC003333CC006633CC009933CC00CC33CC00FF33CC000066CC003366CC006666CC009966CC00CC66CC00FF66CC000099CC003399CC006699CC009999CC00CC99CC00FF99CC0000CCCC0033CCCC0066CC
310
CC0099CCCC00CCCCCC00FFCCCC0000FFCC0033FFCC0066FFCC0099FFCC00CCFFCC00FFFFCC000000FF003300FF006600FF009900FF00CC00FF00FF00FF000033FF003333FF006633FF009933FF00CC33FF00FF33FF000066FF003366FF006666FF009966FF00CC66FF00FF66FF000099FF003399FF006699FF009999FF00CC
310
99FF00FF99FF0000CCFF0033CCFF0066CCFF0099CCFF00CCCCFF00FFCCFF0000FFFF0033FFFF0066FFFF0099FFFF00CCFFFF00FFFFFF00000000000D0D0D001A1A1A00282828003535350043434300505050005D5D5D006B6B6B00787878008686860093939300A1A1A100AEAEAE00BBBBBB00C9C9C900D6D6D600E4E4E400
310
F1F1F100FFFFFF0000000000000000000000000000000000000000000000000000000000000000000000000000000000E2E2E2E2E2E2E2E2E2E2E2E2E2E2E2E2E2E2E2E2E2E2E2E2E2E2E2E2E2E2E2E2E2E2E2E2E2E2E2E2E2E2E2E2E2E2E2E2E2E2E2E2E2E2E2E2E2E2E2E2E2E2E2E2E2E2E2E2E2E2E2E2E2E2E2E2E2E2E2
310
E2E2E2E2E2E2E2E2E2E2E2E2E2E2E2E2E2E2E2E2E2E2E2E2E2E2E2E2E2E2E2E2E2E2E2E2E2E2E2E2E2E2E2E2E2E2E2E2E2E2E2E2E2E2E2E2E2E2E2E2E2E2E2E2E2E2E2E2E2E2E2E2E2E2E2E2E2E2E2E2E2E2E2E2E2E2E2E2E2E2E2E2E2E2E2E2E2E2E2E2E2E2F5F5F5F5F5F5F5F5F5F5F5F5F5F5F5F5F5F5F5F5F5F5F5F5F5
310
F5F5F5F5F5F5F5F5F5F5F5F5F5F5F5F5F5F5F5F5F5F5F5F5F5F5F5F5F5F5F5F5F5F5F5F5F5F5F5F5F5F5F5F5F5F5F5F5F5F5F5F5F5F5F5F5F5F5F5F5F5F5F5F5F5F5F5F5F5F5F5F5F5F5F5F5F5F5F5F5F5F5F5F5F5F5F5F5F5F5F5F5F5F5F5F5F5F5F5F5F5F5F5F5F5F5F5F5F5F5F5F5F5F5F5F5F5F5F5F5F5F5F5F5F5F5F5
310
F5F5F5F5F5F5F5F5F5F5F5F5F5F5F5F5F5F5F5F5F5F5F5F5F5F5E2E2F5F5F5F5F5F5F5F5F5F5F5F5F5F5F5F5F5F5F5F5F5F5F5F5F5F5F5F5F5F5F5F5F5F5F5F5F5F5F5F5F5F5F5F5F5F5F5F5F5F5F5F5F5F5F5F5F5F5F5F5F5F5F5F5F5F5F5F5F5F5F5F5F5F5F5F5F5F5F5F5F5F5F5F5F5F5F5F5F5F5F5F5F5F5F5F5F5F5F5
310
F5F5F5F5F5F5F5F5F5F5F5F5F5F5F5F5F5F5F5F5F5F5F5F5F5F5F5F5F5F5F5F5F5F5F5F5F5F5F5F5F5F5F5F5F5F5F5F5F5F5F5F5F5F5F5F5F5F5F5F5F5F5F5F5F5F5F5F5F5F5F5F5F5F5F5F5F5F5F5E2E2F5F5F5F5F5F5F5F5F5F5F5F5F5F5F5F5F5F5F5F5F5F5F5F5F5F5F5F5F5F5F5F5F5F5F5F5F5F5F5F5F5F5F5F5F5F5
310
F5F5F5F5F5F5F5F5F5F5F5F5F5F5F5F5F5F5F5F5F5F5F5F5F5F5F5F5F5F5F5F5F5F5F5F5F5F5F5F5F5F5F5F5F5F5F5F5F5F5F5F5F5F5F5F5F5F5F5F5F5F5F5F5F5F5F5F5F5F5F5F5F5F5F5F5F5F5F5F5F5F5F5F5F5F5F5F5F5F5F5F5F5F5F5F5F5F5F5F5F5F5F5F5F5F5F5F5F5F5F5F5F5F5F5F5F5F5F5F5F5F5F5F5F5F5F5
310
F5F5F5F5F5E2E2F5F5F5F5F5F5F5F5F5F5F5F5F5F5F5F5F5F5F5F5F5F5F5F5F5F5F5F5F5F5F5F5F5F5F5F5F5F5F5F5F5F5F5F5F5F5F5F5F5F5F5F5F5F5F5F5F5F5F5F5F5F5F5F5F5F5F5F5F5F5F5F5F5F5F5F5F5F5F5F5F5F5F5F5F5F5F5F5F5F5F5F5F5F5F5F5F5F5F5F5F5F5F5F5F5F5F5F5F5F5F5F5F5F5F5F5F5F5F5F5
310
F5F5F5F5F5F5F5F5F5F5F5F5F5F5F5F5F5F5F5F5F5F5F5F5F5F5F5F5F5F5F5F5F5F5F5F5F5F5F5F5F5F5F5F5F5F5F5F5F5F5F5F5F5F5F5F5F5F5E2E2F5F5F5F5F5F5F5F5F5F5F5E2E2E2E2E2E2E2E2E2F5F5F5F5F5F5F5F5F5E2E2E2E2E2E2E2E2E2E2E2E2E2E2E2E2E2F5F5F5F5F5F5F5F5F5E2E2E2E2E2E2E2E2E2E2E2E2
310
E2E2E2E2F5F5F5F5F5F5F5F5F5F5E2E2E2E2E2E2E2E2E2E2E2E2E2E2E2E2F5F5F5F5F5F5F5F5F5F5E2E2E2E2E2E2E2E2E2E2E2E2E2E2E2E2F5F5F5F5F5F5F5F5F5E2E2E2E2E2E2E2E2E2E2E2E2E2E2E2E2E2F5F5F5F5F5F5F5F5F5E2E2E2E2E2E2E2E2E2F5F5F5F5F5F5F5F5F5F5F5E2E2F5F5F5F5F5F5F5F5F5F5F5E2F5F5
310
F5F5F5F5F5F5F5F5F5F5F5F5F5F5F5F5F5F5F5F5F5F5F5F5F5F5F5F5F5F5F5F5F5F5F5F5F5F5F5F5F5F5F5F5F5F5F5F5F5F5F5F5F5F5F5F5F5F5F5F5F5F5F5F5F5F5F5F5F5F5F5F5F5F5F5F5F5F5F5F5F5F5F5F5F5F5F5F5F5F5F5F5F5F5F5F5F5F5F5F5F5F5F5F5F5F5F5F5F5F5F5F5F5F5F5F5F5F5F5F5F5F5F5F5F5F5F5
310
F5F5F5F5F5F5F5F5F5F5F5F5F5F5F5F5F5F5F5F5F5F5F5F5F5E2F5F5F5F5F5F5F5F5F5F5F5E2E2F5F5F5F5F5F5F5F5F5F5F5E2F5F5F5F5F5F5F5F5F5F5F5F5F5F5F5F5F5F5F5F5F5F5F5F5F5F5F5F5F5F5F5F5F5F5F5F5F5F5F5F5F5F5F5F5F5F5F5F5F5F5F5F5F5F5F5F5F5F5F5F5F5F5F5F5F5F5F5F5F5F5F5F5F5F5F5F5
310
F5F5F5F5F5F5F5F5F5F5F5F5F5F5F5F5F5F5F5F5F5F5F5F5F5F5F5F5F5F5F5F5F5F5F5F5F5F5F5F5F5F5F5F5F5F5F5F5F5F5F5F5F5F5F5F5F5F5F5F5F5F5F5F5F5F5F5F5F5F5F5F5F5F5F5F5F5F5E2F5F5F5F5F5F5F5F5F5F5F5E2E2F5F5F5F5F5F5F5F5F5F5F5E2F5F5F5F5F5F5F5F5F5F5F5F5F5F5F5F5F5F5F5F5F5F5F5
310
F5F5F5F5F5F5F5F5F5F5F5F5F5F5F5F5F5F5F5F5F5F5F5F5F5F5F5F5F5F5F5F5F5F5F5F5F5F5F5F5F5F5F5F5F5F5F5F5F5F5F5F5F5F5F5F5F5F5F5F5F5F5F5F5F5F5F5F5F5F5F5F5F5F5F5F5F5F5F5F5F5F5F5F5F5F5F5F5F5F5F5F5F5F5F5F5F5F5F5F5F5F5F5F5F5F5F5F5F5F5F5F5F5F5F5F5F5F5F5F5F5F5F5F5F5F5F5
310
F5F5F5F5E2F5F5F5F5F5F5F5F5F5F5F5E2E2F5F5F5F5F5F5F5F5F5F5F5E2F5F5F5F5F5F5F5F5F5F5F5F5F5F5F5F5F5F5F5F5F5F5F5F5F5F5F5F5F5F5F5F5F5F5F5F5F5F5F5F5F5F5F5F5F5F5F5F5F5F5F5F5F5F5F5F5F5F5F5F5F5F5F5F5F5F5F5F5F5F5F5F5F5F5F5F5F5F5F5F5F5F5F5F5F5F5F5F5F5F5F5F5F5F5F5F5F5
310
F5F5F5F5F5F5F5F5F5F5F5F5F5F5F5F5F5F5F5F5F5F5F5F5F5F5F5F5F5F5F5F5F5F5F5F5F5F5F5F5F5F5F5F5F5F5F5F5F5F5F5F5F5F5F5F5F5E2F5F5F5F5F5F5F5F5F5F5F5E2E2F5F5F5F5F5F5F5F5F5F5F5E2F5F5F5F5F5F5F5F5F5F5F5F5F5F5F5F5F5F5F5F5F5F5F5F5F5F5F5F5F5F5F5F5F5F5F5F5F5F5F5F5F5F5F5F5
310
F5F5F5F5F5F5F5F5F5F5F5F5F5F5F5F5F5F5F5F5F5F5F5F5F5F5F5F5F5F5F5F5F5F5F5F5F5F5F5F5F5F5F5F5F5F5F5F5F5F5F5F5F5F5F5F5F5F5F5F5F5F5F5F5F5F5F5F5F5F5F5F5F5F5F5F5F5F5F5F5F5F5F5F5F5F5F5F5F5F5F5F5F5F5F5F5F5F5F5F5F5F5F5F5F5F5F5F5F5F5E2F5F5F5F5F5F5F5F5F5F5F5E2E2F5F5F5
310
F5F5F5F5F5F5F5F5E2F5F5F5F5F5F5F5F5F5F5F5F5F5F5F5F5F5F5F5F5F5F5F5F5F5F5F5F5F5F5F5F5F5F5F5F5F5F5F5F5F5F5F5F5F5F5F5F5F5F5F5F5F5F5F5F5F5F5F5F5F5F5F5F5F5F5F5F5F5F5F5F5F5F5F5F5F5F5F5F5F5F5F5F5F5F5F5F5F5F5F5F5F5F5F5F5F5F5F5F5F5F5F5F5F5F5F5F5F5F5F5F5F5F5F5F5F5F5
310
F5F5F5F5F5F5F5F5F5F5F5F5F5F5F5F5F5F5F5F5F5F5F5F5F5F5F5F5F5F5F5F5F5F5F5F5E2F5F5F5F5F5F5F5F5F5F5F5E2E2F5F5F5F5F5F5F5F5F5F5F5E2F5F5F5F5F5F5F5F5F5F5F5F5F5F5F5F5F5F5F5F5F5F5F5F5F5F5F5F5F5F5F5F5F5F5F5F5F5F5F5F5F5F5F5F5F5F5F5F5F5F5F5F5F5F5F5F5F5F5F5F5F5F5F5F5F5
310
F5F5F5F5F5F5F5F5F5F5F5F5F5F5F5F5F5F5F5F5F5F5F5F5F5F5F5F5F5F5F5F5F5F5F5F5F5F5F5F5F5F5F5F5F5F5F5F5F5F5F5F5F5F5F5F5F5F5F5F5F5F5F5F5F5F5F5F5F5F5F5F5F5F5F5F5F5F5F5F5F5F5F5F5F5F5F5F5F5E2F5F5F5F5F5F5F5F5F5F5F5E2E2F5F5F5F5F5F5F5F5F5F5F5F5F5F5F5F5F5F5F5F5F5F5F5F5
310
F5F5F5F5F5F5F5F5F5F5F5F5F5F5F5F5F5F5F5F5F5F5F5F5F5F5F5F5F5F5F5F5F5F5F5F5F5F5F5F5F5F5F5F5F5F5F5F5F5F5F5F5F5F5F5F5F5F5F5F5F5F5F5F5F5F5F5F5F5F5F5F5F5F5F5F5F5F5F5F5F5F5F5F5F5F5F5F5F5F5F5F5F5F5F5F5F5F5F5F5F5F5F5F5F5F5F5F5F5F5F5F5F5F5F5F5F5F5F5F5F5F5F5F5F5F5F5
310
F5F5F5F5F5F5F5F5F5F5F5F5F5F5F5F5F5F5F5F5F5F5F5F5F5F5F5E2E2F5F5F5F5F5F5F5F5F5F5F5F5F5F5F5F5F5F5F5F5F5F5F5F5F5F5F5F5F5F5F5F5F5F5F5F5F5F5F5F5F5F5F5F5F5F5F5F5F5F5F5F5F5F5F5F5F5F5F5F5F5F5F5F5F5F5F5F5F5F5F5F5F5F5F5F5F5F5F5F5F5F5F5F5F5F5F5F5F5F5F5F5F5F5F5F5F5F5
310
F5F5F5F5F5F5F5F5F5F5F5F5F5F5F5F5F5F5F5F5F5F5F5F5F5F5F5F5F5F5F5F5F5F5F5F5F5F5F5F5F5F5F5F5F5F5F5F5F5F5F5F5F5F5F5F5F5F5F5F5F5F5F5F5F5F5F5F5F5F5F5F5F5F5F5F5F5F5F5F5E2E2F5F5F5F5F5F5F5F5F5F5F5F5F5F5F5F5F5F5F5F5F5F5F5F5F5F5F5F5F5F5F5F5F5F5F5F5F5F5F5F5F5F5F5F5F5
310
F5F5F5F5F5F5F5F5F5F5F5F5F5F5F5F5F5F5F5F5F5F5F5F5F5F5F5F5F5F5F5F5F5F5F5F5F5F5F5F5F5F5F5F5F5F5F5F5F5F5F5F5F5F5F5F5F5F5F5F5F5F5F5F5F5F5F5F5F5F5F5F5F5F5F5F5F5F5F5F5F5F5F5F5F5F5F5F5F5F5F5F5F5F5F5F5F5F5F5F5F5F5F5F5F5F5F5F5F5F5F5F5F5F5F5F5F5F5F5F5F5F5F5F5F5F5F5
310
F5F5F5F5F5F5E2E2F5F5F5F5F5F5F5F5F5F5F5F5F5F5F5F5F5F5F5F5F5F5F5F5F5F5F5F5F5F5F5F5F5F5F5F5F5F5F5F5F5F5F5F5F5F5F5F5F5F5F5F5F5F5F5F5F5F5F5F5F5F5F5F5F5F5F5F5F5F5F5F5F5F5F5F5F5F5F5F5F5F5F5F5F5F5F5F5F5F5F5F5F5F5F5F5F5F5F5F5F5F5F5F5F5F5F5F5F5F5F5F5F5F5F5F5F5F5F5
310
F5F5F5F5F5F5F5F5F5F5F5F5F5F5F5F5F5F5F5F5F5F5F5F5F5F5F5F5F5F5F5F5F5F5F5F5F5F5F5F5F5F5F5F5F5F5F5F5F5F5F5F5F5F5F5F5F5F5F5E2E2F5F5F5F5F5F5F5F5F5F5F5F5F5F5F5F5F5F5F5F5F5F5F5F5F5F5F5F5F5F5F5F5F5F5F5F5F5F5F5F5F5F5F5F5F5F5F5F5F5F5F5F5F5F5F5F5F5F5F5F5F5F5F5F5F5F5
310
F5F5F5F5F5F5F5F5F5F5F5F5F5F5F5F5F5F5F5F5F5F5F5F5F5F5F5F5F5F5F5F5F5F5F5F5F5F5F5F5F5F5F5F5F5F5F5F5F5F5F5F5F5F5F5F5F5F5F5F5F5F5F5F5F5F5F5F5F5F5F5F5F5F5F5F5F5F5F5F5F5F5F5F5F5F5F5F5F5F5F5F5F5F5F5F5F5F5F5F5F5F5F5F5F5F5F5F5F5F5F5F5E2E2F5F5F5F5F5F5F5F5F5F5F5F5F5
310
F5F5F5F5F5F5F5F5F5F5F5F5F5F5F5F5F5F5F5F5F5F5F5F5F5F5F5F5F5F5F5F5F5F5F5F5F5F5F5F5F5F5F5F5F5F5F5F5F5F5F5F5F5F5F5F5F5F5F5F5F5F5F5F5F5F5F5F5F5F5F5F5F5F5F5F5F5F5F5F5F5F5F5F5F5F5F5F5F5F5F5F5F5F5F5F5F5F5F5F5F5F5F5F5F5F5F5F5F5F5F5F5F5F5F5F5F5F5F5F5F5F5F5F5F5F5F5
310
F5F5F5F5F5F5F5F5F5F5F5F5F5F5F5F5F5F5F5F5F5F5F5F5F5F5F5F5F5F5F5F5F5F5F5F5F5F5E2E2F5F5F5F5F5F5F5F5F5F5F5F5F5F5F5F5F5F5F5F5F5F5F5F5F5F5F5F5F5F5F5F5F5F5F5F5F5F5F5F5F5F5F5F5F5F5F5F5F5F5F5F5F5F5F5F5F5F5F5F5F5F5F5F5F5F5F5F5F5F5F5F5F5F5F5F5F5F5F5F5F5F5F5F5F5F5F5
310
F5F5F5F5F5F5F5F5F5F5F5F5F5F5F5F5F5F5F5F5F5F5F5F5F5F5F5F5F5F5F5F5F5F5F5F5F5F5F5F5F5F5F5F5F5F5F5F5F5F5F5F5F5F5F5F5F5F5F5F5F5F5F5F5F5F5F5F5F5F5F5F5F5F5F5F5F5F5F5F5F5F5F5F5F5F5F5F5F5F5F5E2E2F5F5F5F5F5F5F5F5F5F5F5F5F5F5F5F5F5F5F5F5F5F5F5F5F5F5F5F5F5F5F5F5F5F5
310
F5F5F5F5F5F5F5F5F5F5F5F5F5F5F5F5F5F5F5F5F5F5F5F5F5F5F5F5F5F5F5F5F5F5F5F5F5F5F5F5F5F5F5F5F5F5F5F5F5F5F5F5F5F5F5F5F5F5F5F5F5F5F5F5F5F5F5F5F5F5F5F5F5F5F5F5F5F5F5F5F5F5F5F5F5F5F5F5F5F5F5F5F5F5F5F5F5F5F5F5F5F5F5F5F5F5F5F5F5F5F5F5F5F5F5F5F5F5F5F5F5F5F5F5F5F5F5
310
F5F5F5F5F5F5F5F5F5F5F5F5F5F5F5F5F5E2E2F5F5F5F5F5F5F5F5F5F5F5E2F5F5F5F5F5F5F5F5F5F5F5F5F5F5F5F5F5F5F5F5F5F5F5F5F5F5F5F5F5F5F5F5F5F5F5F5F5F5F5F5F5F5F5F5F5F5F5F5F5F5F5F5F5F5F5F5F5F5F5F5F5F5F5F5F5F5F5F5F5F5F5F5F5F5F5F5F5F5F5F5F5F5F5F5F5F5F5F5F5F5F5F5F5F5F5F5
310
F5F5F5F5F5F5F5F5F5F5F5F5F5F5F5F5F5F5F5F5F5F5F5F5F5F5F5F5F5F5F5F5F5F5F5F5F5F5F5F5F5F5F5F5F5F5F5F5F5F5F5F5F5F5F5F5F5F5E2F5F5F5F5F5F5F5F5F5F5F5E2E2F5F5F5F5F5F5F5F5F5F5F5E2F5F5F5F5F5F5F5F5F5F5F5F5F5F5F5F5F5F5F5F5F5F5F5F5F5F5F5F5F5F5F5F5F5F5F5F5F5F5F5F5F5F5F5
310
F5F5F5F5F5F5F5F5F5F5F5F5F5F5F5F5F5F5F5F5F5F5F5F5F5F5F5F5F5F5F5F5F5F5F5F5F5F5F5F5F5F5F5F5F5F5F5F5F5F5F5F5F5F5F5F5F5F5F5F5F5F5F5F5F5F5F5F5F5F5F5F5F5F5F5F5F5F5F5F5F5F5F5F5F5F5F5F5F5F5F5F5F5F5F5F5F5F5F5F5F5F5F5F5F5F5F5F5F5F5F5E2F5F5F5F5F5F5F5F5F5F5F5E2E2F5F5
310
F5F5F5F5F5F5F5F5F5E2F5F5F5F5F5F5F5F5F5F5F5F5F5F5F5F5F5F5F5F5F5F5F5F5F5F5F5F5F5F5F5F5F5F5F5F5F5F5F5F5F5F5F5F5F5F5F5F5F5F5F5F5F5F5F5F5F5F5F5F5F5F5F5F5F5F5F5F5F5F5F5F5F5F5F5F5F5F5F5F5F5F5F5F5F5F5F5F5F5F5F5F5F5F5F5F5F5F5F5F5F5F5F5F5F5F5F5F5F5F5F5F5F5F5F5F5F5
310
F5F5F5F5F5F5F5F5F5F5F5F5F5F5F5F5F5F5F5F5F5F5F5F5F5F5F5F5F5F5F5F5F5F5F5F5F5E2F5F5F5F5F5F5F5F5F5F5F5E2E2F5F5F5F5F5F5F5F5F5F5F5E2F5F5F5F5F5F5F5F5F5F5F5F5F5F5F5F5F5F5F5F5F5F5F5F5F5F5F5F5F5F5F5F5F5F5F5F5F5F5F5F5F5F5F5F5F5F5F5F5F5F5F5F5F5F5F5F5F5F5F5F5F5F5F5F5
310
F5F5F5F5F5F5F5F5F5F5F5F5F5F5F5F5F5F5F5F5F5F5F5F5F5F5F5F5F5F5F5F5F5F5F5F5F5F5F5F5F5F5F5F5F5F5F5F5F5F5F5F5F5F5F5F5F5F5F5F5F5F5F5F5F5F5F5F5F5F5F5F5F5F5F5F5F5F5F5F5F5F5F5F5F5F5F5F5F5F5E2F5F5F5F5F5F5F5F5F5F5F5E2E2F5F5F5F5F5F5F5F5F5F5F5E2F5F5F5F5F5F5F5F5F5F5F5
310
F5F5F5F5F5F5F5F5F5F5F5F5F5F5F5F5F5F5F5F5F5F5F5F5F5F5F5F5F5F5F5F5F5F5F5F5F5F5F5F5F5F5F5F5F5F5F5F5F5F5F5F5F5F5F5F5F5F5F5F5F5F5F5F5F5F5F5F5F5F5F5F5F5F5F5F5F5F5F5F5F5F5F5F5F5F5F5F5F5F5F5F5F5F5F5F5F5F5F5F5F5F5F5F5F5F5F5F5F5F5F5F5F5F5F5F5F5F5F5F5F5F5F5F5F5F5F5
310
F5F5F5F5F5F5F5F5F5F5F5F5F5F5F5F5E2F5F5F5F5F5F5F5F5F5F5F5E2E2F5F5F5F5F5F5F5F5F5F5F5E2F5F5F5F5F5F5F5F5F5F5F5F5F5F5F5F5F5F5F5F5F5F5F5F5F5F5F5F5F5F5F5F5F5F5F5F5F5F5F5F5F5F5F5F5F5F5F5F5F5F5F5F5F5F5F5F5F5F5F5F5F5F5F5F5F5F5F5F5F5F5F5F5F5F5F5F5F5F5F5F5F5F5F5F5F5
310
F5F5F5F5F5F5F5F5F5F5F5F5F5F5F5F5F5F5F5F5F5F5F5F5F5F5F5F5F5F5F5F5F5F5F5F5F5F5F5F5F5F5F5F5F5F5F5F5F5F5F5F5F5F5F5F5F5F5F5F5F5F5F5F5F5F5F5F5F5E2F5F5F5F5F5F5F5F5F5F5F5E2E2F5F5F5F5F5F5F5F5F5F5F5E2F5F5F5F5F5F5F5F5F5F5F5F5F5F5F5F5F5F5F5F5F5F5F5F5F5F5F5F5F5F5F5F5
310
F5F5F5F5F5F5F5F5F5F5F5F5F5F5F5F5F5F5F5F5F5F5F5F5F5F5F5F5F5F5F5F5F5F5F5F5F5F5F5F5F5F5F5F5F5F5F5F5F5F5F5F5F5F5F5F5F5F5F5F5F5F5F5F5F5F5F5F5F5F5F5F5F5F5F5F5F5F5F5F5F5F5F5F5F5F5F5F5F5F5F5F5F5F5F5F5F5F5F5F5F5F5F5F5F5F5F5F5F5F5F5F5F5F5F5F5F5F5F5F5F5F5E2F5F5F5F5
310
F5F5F5F5F5F5F5E2E2F5F5F5F5F5F5F5F5F5F5F5E2F5F5F5F5F5F5F5F5F5F5F5F5F5F5F5F5F5F5F5F5F5F5F5F5F5F5F5F5F5F5F5F5F5F5F5F5F5F5F5F5F5F5F5F5F5F5F5F5F5F5F5F5F5F5F5F5F5F5F5F5F5F5F5F5F5F5F5F5F5F5F5F5F5F5F5F5F5F5F5F5F5F5F5F5F5F5F5F5F5F5F5F5F5F5F5F5F5F5F5F5F5F5F5F5F5F5
310
F5F5F5F5F5F5F5F5F5F5F5F5F5F5F5F5F5F5F5F5F5F5F5F5F5F5F5F5F5F5F5F5F5F5F5F5F5F5F5F5F5F5F5F5F5F5F5F5E2F5F5F5F5F5F5F5F5F5F5F5E2E2F5F5F5F5F5F5F5F5F5F5F5E2F5F5F5F5F5F5F5F5F5F5F5F5F5F5F5F5F5F5F5F5F5F5F5F5F5F5F5F5F5F5F5F5F5F5F5F5F5F5F5F5F5F5F5F5F5F5F5F5F5F5F5F5F5
310
F5F5F5F5F5F5F5F5F5F5F5F5F5F5F5F5F5F5F5F5F5F5F5F5F5F5F5F5F5F5F5F5F5F5F5F5F5F5F5F5F5F5F5F5F5F5F5F5F5F5F5F5F5F5F5F5F5F5F5F5F5F5F5F5F5F5F5F5F5F5F5F5F5F5F5F5F5F5F5F5F5F5F5F5F5F5F5F5F5F5F5F5F5F5F5F5F5F5F5F5F5E2F5F5F5F5F5F5F5F5F5F5F5E2E2F5F5F5F5F5F5F5F5F5F5F5E2
310
F5F5F5F5F5F5F5F5F5F5F5F5F5F5F5F5F5F5F5F5F5F5F5F5F5F5F5F5F5F5F5F5F5F5F5F5F5F5F5F5F5F5F5F5F5F5F5F5F5F5F5F5F5F5F5F5F5F5F5F5F5F5F5F5F5F5F5F5F5F5F5F5F5F5F5F5F5F5F5F5F5F5F5F5F5F5F5F5F5F5F5F5F5F5F5F5F5F5F5F5F5F5F5F5F5F5F5F5F5F5F5F5F5F5F5F5F5F5F5F5F5F5F5F5F5F5F5
310
F5F5F5F5F5F5F5F5F5F5F5F5F5F5F5F5F5F5F5F5F5F5F5F5F5F5F5E2F5F5F5F5F5F5F5F5F5F5F5E2E2F5F5F5F5F5F5F5F5F5F5F5E2F5F5F5F5F5F5F5F5F5F5F5F5F5F5F5F5F5F5F5F5F5F5F5F5F5F5F5F5F5F5F5F5F5F5F5F5F5F5F5F5F5F5F5F5F5F5F5F5F5F5F5F5F5F5F5F5F5F5F5F5F5F5F5F5F5F5F5F5F5F5F5F5F5F5
310
F5F5F5F5F5F5F5F5F5F5F5F5F5F5F5F5F5F5F5F5F5F5F5F5F5F5F5F5F5F5F5F5F5F5F5F5F5F5F5F5F5F5F5F5F5F5F5F5F5F5F5F5F5F5F5F5F5F5F5F5F5F5F5F5F5F5F5F5F5F5F5F5F5F5F5F5F5F5F5F5E2F5F5F5F5F5F5F5F5F5F5F5E2E2F5F5F5F5F5F5F5F5F5F5F5E2F5F5F5F5F5F5F5F5F5F5F5F5F5F5F5F5F5F5F5F5F5
310
F5F5F5F5F5F5F5F5F5F5F5F5F5F5F5F5F5F5F5F5F5F5F5F5F5F5F5F5F5F5F5F5F5F5F5F5F5F5F5F5F5F5F5F5F5F5F5F5F5F5F5F5F5F5F5F5F5F5F5F5F5F5F5F5F5F5F5F5F5F5F5F5F5F5F5F5F5F5F5F5F5F5F5F5F5F5F5F5F5F5F5F5F5F5F5F5F5F5F5F5F5F5F5F5F5F5F5F5F5F5F5F5F5F5F5F5F5F5F5F5F5F5F5F5F5F5F5
310
F5F5F5F5F5F5E2F5F5F5F5F5F5F5F5F5F5F5E2E2F5F5F5F5F5F5F5F5F5F5F5E2F5F5F5F5F5F5F5F5F5F5F5F5F5F5F5F5F5F5F5F5F5F5F5F5F5F5F5F5F5F5F5F5F5F5F5F5F5F5F5F5F5F5F5F5F5F5F5F5F5F5F5F5F5F5F5F5F5F5F5F5F5F5F5F5F5F5F5F5F5F5F5F5F5F5F5F5F5F5F5F5F5F5F5F5F5F5F5F5F5F5F5F5F5F5F5
310
F5F5F5F5F5F5F5F5F5F5F5F5F5F5F5F5F5F5F5F5F5F5F5F5F5F5F5F5F5F5F5F5F5F5F5F5F5F5F5F5F5F5F5F5F5F5F5F5F5F5F5F5F5F5F5F5F5F5F5E2F5F5F5F5F5F5F5F5F5F5F5E2E2F5F5F5F5F5F5F5F5F5F5F5E2F5F5F5F5F5F5F5F5F5F5F5F5F5F5F5F5F5F5F5F5F5F5F5F5F5F5F5F5F5F5F5F5F5F5F5F5F5F5F5F5F5F5
310
F5F5F5F5F5F5F5F5F5F5F5F5F5F5F5F5F5F5F5F5F5F5F5F5F5F5F5F5F5F5F5F5F5F5F5F5F5F5F5F5F5F5F5F5F5F5F5F5F5F5F5F5F5F5F5F5F5F5F5F5F5F5F5F5F5F5F5F5F5F5F5F5F5F5F5F5F5F5F5F5F5F5F5F5F5F5F5F5F5F5F5F5F5F5F5F5F5F5F5F5F5F5F5F5F5F5F5F5F5F5F5F5E2F5F5F5F5F5F5F5F5F5F5F5E2E2F5
310
F5F5F5F5F5F5F5F5F5F5E2F5F5F5F5F5F5F5F5F5F5F5F5F5F5F5F5F5F5F5F5F5F5F5F5F5F5F5F5F5F5F5F5F5F5F5F5F5F5F5F5F5F5F5F5F5F5F5F5F5F5F5F5F5F5F5F5F5F5F5F5F5F5F5F5F5F5F5F5F5F5F5F5F5F5F5F5F5F5F5F5F5F5F5F5F5F5F5F5F5F5F5F5F5F5F5F5F5F5F5F5F5F5F5F5F5F5F5F5F5F5F5F5F5F5F5F5
310
F5F5F5F5F5F5F5F5F5F5F5F5F5F5F5F5F5F5F5F5F5F5F5F5F5F5F5F5F5F5F5F5F5F5F5F5F5F5E2F5F5F5F5F5F5F5F5F5F5F5E2E2F5F5F5F5F5F5F5F5F5F5F5F5F5F5F5F5F5F5F5F5F5F5F5F5F5F5F5F5F5F5F5F5F5F5F5F5F5F5F5F5F5F5F5F5F5F5F5F5F5F5F5F5F5F5F5F5F5F5F5F5F5F5F5F5F5F5F5F5F5F5F5F5F5F5F5
310
F5F5F5F5F5F5F5F5F5F5F5F5F5F5F5F5F5F5F5F5F5F5F5F5F5F5F5F5F5F5F5F5F5F5F5F5F5F5F5F5F5F5F5F5F5F5F5F5F5F5F5F5F5F5F5F5F5F5F5F5F5F5F5F5F5F5F5F5F5F5F5F5F5F5F5F5F5F5F5F5F5F5F5F5F5F5F5F5F5F5F5F5F5F5F5F5F5F5F5F5F5F5F5E2E2F5F5F5F5F5F5F5F5F5F5F5F5F5F5F5F5F5F5F5F5F5F5
310
F5F5F5F5F5F5F5F5F5F5F5F5F5F5F5F5F5F5F5F5F5F5F5F5F5F5F5F5F5F5F5F5F5F5F5F5F5F5F5F5F5F5F5F5F5F5F5F5F5F5F5F5F5F5F5F5F5F5F5F5F5F5F5F5F5F5F5F5F5F5F5F5F5F5F5F5F5F5F5F5F5F5F5F5F5F5F5F5F5F5F5F5F5F5F5F5F5F5F5F5F5F5F5F5F5F5F5F5F5F5F5F5F5F5F5F5F5F5F5F5F5F5F5F5F5F5F5
310
F5F5F5F5F5F5F5F5F5F5F5F5F5F5F5F5F5F5F5F5F5F5F5F5F5F5F5F5F5E2E2F5F5F5F5F5F5F5F5F5F5F5F5F5F5F5F5F5F5F5F5F5F5F5F5F5F5F5F5F5F5F5F5F5F5F5F5F5F5F5F5F5F5F5F5F5F5F5F5F5F5F5F5F5F5F5F5F5F5F5F5F5F5F5F5F5F5F5F5F5F5F5F5F5F5F5F5F5F5F5F5F5F5F5F5F5F5F5F5F5F5F5F5F5F5F5F5
310
F5F5F5F5F5F5F5F5F5F5F5F5F5F5F5F5F5F5F5F5F5F5F5F5F5F5F5F5F5F5F5F5F5F5F5F5F5F5F5F5F5F5F5F5F5F5F5F5F5F5F5F5F5F5F5F5F5F5F5F5F5F5F5F5F5F5F5F5F5F5F5F5F5F5F5F5F5F5F5F5F5F5E2E2F5F5F5F5F5F5F5F5F5F5F5F5F5F5F5F5F5F5F5F5F5F5F5F5F5F5F5F5F5F5F5F5F5F5F5F5F5F5F5F5F5F5F5
310
F5F5F5F5F5F5F5F5F5F5F5F5F5F5F5F5F5F5F5F5F5F5F5F5F5F5F5F5F5F5F5F5F5F5F5F5F5F5F5F5F5F5F5F5F5F5F5F5F5F5F5F5F5F5F5F5F5F5F5F5F5F5F5F5F5F5F5F5F5F5F5F5F5F5F5F5F5F5F5F5F5F5F5F5F5F5F5F5F5F5F5F5F5F5F5F5F5F5F5F5F5F5F5F5F5F5F5F5F5F5F5F5F5F5F5F5F5F5F5F5F5F5F5F5F5F5F5
310
F5F5F5F5F5F5F5F5E2E2F5F5F5F5F5F5F5F5F5F5F5F5F5F5F5F5F5F5F5F5F5F5F5F5F5F5F5F5F5F5F5F5F5F5F5F5F5F5F5F5F5F5F5F5F5F5F5F5F5F5F5F5F5F5F5F5F5F5F5F5F5F5F5F5F5F5F5F5F5F5F5F5F5F5F5F5F5F5F5F5F5F5F5F5F5F5F5F5F5F5F5F5F5F5F5F5F5F5F5F5F5F5F5F5F5F5F5F5F5F5F5F5F5F5F5F5F5
310
F5F5F5F5F5F5F5F5F5F5F5F5F5F5F5F5F5F5F5F5F5F5F5F5F5F5F5F5F5F5F5F5F5F5F5F5F5F5F5F5F5F5F5F5F5F5F5F5F5F5F5F5F5F5F5F5F5F5F5F5F5E2E2F5F5F5F5F5F5F5F5F5F5F5F5F5F5F5F5F5F5F5F5F5F5F5F5F5F5F5F5F5F5F5F5F5F5F5F5F5F5F5F5F5F5F5F5F5F5F5F5F5F5F5F5F5F5F5F5F5F5F5F5F5F5F5F5
310
F5F5F5F5F5F5F5F5F5F5F5F5F5F5F5F5F5F5F5F5F5F5F5F5F5F5F5F5F5F5F5F5F5F5F5F5F5F5F5F5F5F5F5F5F5F5F5F5F5F5F5F5F5F5F5F5F5F5F5F5F5F5F5F5F5F5F5F5F5F5F5F5F5F5F5F5F5F5F5F5F5F5F5F5F5F5F5F5F5F5F5F5F5F5F5F5F5F5F5F5F5F5F5F5F5F5F5F5F5F5F5F5F5F5E2E2F5F5F5F5F5F5F5F5F5F5F5
310
F5F5F5F5F5F5F5F5F5F5F5F5F5F5F5F5F5F5F5F5F5F5F5F5F5F5F5F5F5F5F5F5F5F5F5F5F5F5F5F5F5F5F5F5F5F5F5F5F5F5F5F5F5F5F5F5F5F5F5F5F5F5F5F5F5F5F5F5F5F5F5F5F5F5F5F5F5F5F5F5F5F5F5F5F5F5F5F5F5F5F5F5F5F5F5F5F5F5F5F5F5F5F5F5F5F5F5F5F5F5F5F5F5F5F5F5F5F5F5F5F5F5F5F5F5F5F5
310
F5F5F5F5F5F5F5F5F5F5F5F5F5F5F5F5F5F5F5F5F5F5F5F5F5F5F5F5F5F5F5F5F5F5F5F5F5F5F5F5E2E2F5F5F5F5F5F5F5F5F5F5F5F5F5F5F5F5F5F5F5F5F5F5F5F5F5F5F5F5F5F5F5F5F5F5F5F5F5F5F5F5F5F5F5F5F5F5F5F5F5F5F5F5F5F5F5F5F5F5F5F5F5F5F5F5F5F5F5F5F5F5F5F5F5F5F5F5F5F5F5F5F5F5F5F5F5
310
F5F5F5F5F5F5F5F5F5F5F5F5F5F5F5F5F5F5F5F5F5F5F5F5F5F5F5F5F5F5F5F5F5F5F5F5F5F5F5F5F5F5F5F5F5F5F5F5F5F5F5F5F5F5F5F5F5F5F5F5F5F5F5F5F5F5F5F5F5F5F5F5F5F5F5F5F5F5F5F5F5F5F5F5F5F5F5F5F5F5F5F5F5E2E2F5F5F5F5F5F5F5F5F5F5F5E2F5F5F5F5F5F5F5F5F5F5F5F5F5F5F5F5F5F5F5F5
310
F5F5F5F5F5F5F5F5F5F5F5F5F5F5F5F5F5F5F5F5F5F5F5F5F5F5F5F5F5F5F5F5F5F5F5F5F5F5F5F5F5F5F5F5F5F5F5F5F5F5F5F5F5F5F5F5F5F5F5F5F5F5F5F5F5F5F5F5F5F5F5F5F5F5F5F5F5F5F5F5F5F5F5F5F5F5F5F5F5F5F5F5F5F5F5F5F5F5F5F5F5F5F5F5F5F5F5F5F5F5F5F5F5F5F5F5F5F5F5F5F5F5F5F5F5F5F5
310
F5F5F5F5F5F5F5E2F5F5F5F5F5F5F5F5F5F5F5E2E2F5F5F5F5F5F5F5F5F5F5F5E2F5F5F5F5F5F5F5F5F5F5F5F5F5F5F5F5F5F5F5F5F5F5F5F5F5F5F5F5F5F5F5F5F5F5F5F5F5F5F5F5F5F5F5F5F5F5F5F5F5F5F5F5F5F5F5F5F5F5F5F5F5F5F5F5F5F5F5F5F5F5F5F5F5F5F5F5F5F5F5F5F5F5F5F5F5F5F5F5F5F5F5F5F5F5
310
F5F5F5F5F5F5F5F5F5F5F5F5F5F5F5F5F5F5F5F5F5F5F5F5F5F5F5F5F5F5F5F5F5F5F5F5F5F5F5F5F5F5F5F5F5F5F5F5F5F5F5F5F5F5F5F5F5F5F5F5E2F5F5F5F5F5F5F5F5F5F5F5E2E2F5F5F5F5F5F5F5F5F5F5F5E2F5F5F5F5F5F5F5F5F5F5F5F5F5F5F5F5F5F5F5F5F5F5F5F5F5F5F5F5F5F5F5F5F5F5F5F5F5F5F5F5F5
310
F5F5F5F5F5F5F5F5F5F5F5F5F5F5F5F5F5F5F5F5F5F5F5F5F5F5F5F5F5F5F5F5F5F5F5F5F5F5F5F5F5F5F5F5F5F5F5F5F5F5F5F5F5F5F5F5F5F5F5F5F5F5F5F5F5F5F5F5F5F5F5F5F5F5F5F5F5F5F5F5F5F5F5F5F5F5F5F5F5F5F5F5F5F5F5F5F5F5F5F5F5F5F5F5F5F5F5F5F5F5F5F5F5E2F5F5F5F5F5F5F5F5F5F5F5E2E2
310
F5F5F5F5F5F5F5F5F5F5F5E2F5F5F5F5F5F5F5F5F5F5F5F5F5F5F5F5F5F5F5F5F5F5F5F5F5F5F5F5F5F5F5F5F5F5F5F5F5F5F5F5F5F5F5F5F5F5F5F5F5F5F5F5F5F5F5F5F5F5F5F5F5F5F5F5F5F5F5F5F5F5F5F5F5F5F5F5F5F5F5F5F5F5F5F5F5F5F5F5F5F5F5F5F5F5F5F5F5F5F5F5F5F5F5F5F5F5F5F5F5F5F5F5F5F5F5
310
F5F5F5F5F5F5F5F5F5F5F5F5F5F5F5F5F5F5F5F5F5F5F5F5F5F5F5F5F5F5F5F5F5F5F5F5F5F5F5E2F5F5F5F5F5F5F5F5F5F5F5E2E2F5F5F5F5F5F5F5F5F5F5F5E2F5F5F5F5F5F5F5F5F5F5F5F5F5F5F5F5F5F5F5F5F5F5F5F5F5F5F5F5F5F5F5F5F5F5F5F5F5F5F5F5F5F5F5F5F5F5F5F5F5F5F5F5F5F5F5F5F5F5F5F5F5F5
310
F5F5F5F5F5F5F5F5F5F5F5F5F5F5F5F5F5F5F5F5F5F5F5F5F5F5F5F5F5F5F5F5F5F5F5F5F5F5F5F5F5F5F5F5F5F5F5F5F5F5F5F5F5F5F5F5F5F5F5F5F5F5F5F5F5F5F5F5F5F5F5F5F5F5F5F5F5F5F5F5F5F5F5F5F5F5F5F5F5F5F5F5E2F5F5F5F5F5F5F5F5F5F5F5E2E2F5F5F5F5F5F5F5F5F5F5F5E2F5F5F5F5F5F5F5F5F5
310
F5F5F5F5F5F5F5F5F5F5F5F5F5F5F5F5F5F5F5F5F5F5F5F5F5F5F5F5F5F5F5F5F5F5F5F5F5F5F5F5F5F5F5F5F5F5F5F5F5F5F5F5F5F5F5F5F5F5F5F5F5F5F5F5F5F5F5F5F5F5F5F5F5F5F5F5F5F5F5F5F5F5F5F5F5F5F5F5F5F5F5F5F5F5F5F5F5F5F5F5F5F5F5F5F5F5F5F5F5F5F5F5F5F5F5F5F5F5F5F5F5F5F5F5F5F5F5
310
F5F5F5F5F5F5F5F5F5F5F5F5F5F5F5F5F5F5E2F5F5F5F5F5F5F5F5F5F5F5E2E2F5F5F5F5F5F5F5F5F5F5F5E2F5F5F5F5F5F5F5F5F5F5F5F5F5F5F5F5F5F5F5F5F5F5F5F5F5F5F5F5F5F5F5F5F5F5F5F5F5F5F5F5F5F5F5F5F5F5F5F5F5F5F5F5F5F5F5F5F5F5F5F5F5F5F5F5F5F5F5F5F5F5F5F5F5F5F5F5F5F5F5F5F5F5F5
310
F5F5F5F5F5F5F5F5F5F5F5F5F5F5F5F5F5F5F5F5F5F5F5F5F5F5F5F5F5F5F5F5F5F5F5F5F5F5F5F5F5F5F5F5F5F5F5F5F5F5F5F5F5F5F5F5F5F5F5F5F5F5F5F5F5F5F5F5F5F5F5E2F5F5F5F5F5F5F5F5F5F5F5E2E2F5F5F5F5F5F5F5F5F5F5F5E2F5F5F5F5F5F5F5F5F5F5F5F5F5F5F5F5F5F5F5F5F5F5F5F5F5F5F5F5F5F5
310
F5F5F5F5F5F5F5F5F5F5F5F5F5F5F5F5F5F5F5F5F5F5F5F5F5F5F5F5F5F5F5F5F5F5F5F5F5F5F5F5F5F5F5F5F5F5F5F5F5F5F5F5F5F5F5F5F5F5F5F5F5F5F5F5F5F5F5F5F5F5F5F5F5F5F5F5F5F5F5F5F5F5F5F5F5F5F5F5F5F5F5F5F5F5F5F5F5F5F5F5F5F5F5F5F5F5F5F5F5F5F5F5F5F5F5F5F5F5F5F5F5F5F5F5E2F5F5
310
F5F5F5F5F5F5F5F5F5E2E2F5F5F5F5F5F5F5F5F5F5F5E2F5F5F5F5F5F5F5F5F5F5F5F5F5F5F5F5F5F5F5F5F5F5F5F5F5F5F5F5F5F5F5F5F5F5F5F5F5F5F5F5F5F5F5F5F5F5F5F5F5F5F5F5F5F5F5F5F5F5F5F5F5F5F5F5F5F5F5F5F5F5F5F5F5F5F5F5F5F5F5F5F5F5F5F5F5F5F5F5F5F5F5F5F5F5F5F5F5F5F5F5F5F5F5F5
310
F5F5F5F5F5F5F5F5F5F5F5F5F5F5F5F5F5F5F5F5F5F5F5F5F5F5F5F5F5F5F5F5F5F5F5F5F5F5F5F5F5F5F5F5F5F5F5F5F5F5E2F5F5F5F5F5F5F5F5F5F5F5E2E2F5F5F5F5F5F5F5F5F5F5F5E2F5F5F5F5F5F5F5F5F5F5F5F5F5F5F5F5F5F5F5F5F5F5F5F5F5F5F5F5F5F5F5F5F5F5F5F5F5F5F5F5F5F5F5F5F5F5F5F5F5F5F5
310
F5F5F5F5F5F5F5F5F5F5F5F5F5F5F5F5F5F5F5F5F5F5F5F5F5F5F5F5F5F5F5F5F5F5F5F5F5F5F5F5F5F5F5F5F5F5F5F5F5F5F5F5F5F5F5F5F5F5F5F5F5F5F5F5F5F5F5F5F5F5F5F5F5F5F5F5F5F5F5F5F5F5F5F5F5F5F5F5F5F5F5F5F5F5F5F5F5F5F5F5F5F5F5E2F5F5F5F5F5F5F5F5F5F5F5E2E2F5F5F5F5F5F5F5F5F5F5
310
F5E2F5F5F5F5F5F5F5F5F5F5F5F5F5F5F5F5F5F5F5F5F5F5F5F5F5F5F5F5F5F5F5F5F5F5F5F5F5F5F5F5F5F5F5F5F5F5F5F5F5F5F5F5F5F5F5F5F5F5F5F5F5F5F5F5F5F5F5F5F5F5F5F5F5F5F5F5F5F5F5F5F5F5F5F5F5F5F5F5F5F5F5F5F5F5F5F5F5F5F5F5F5F5F5F5F5F5F5F5F5F5F5F5F5F5F5F5F5F5F5F5F5F5F5F5F5
310
F5F5F5F5F5F5F5F5F5F5F5F5F5F5F5F5F5F5F5F5F5F5F5F5F5F5F5F5F5E2F5F5F5F5F5F5F5F5F5F5F5E2E2F5F5F5F5F5F5F5F5F5F5F5E2F5F5F5F5F5F5F5F5F5F5F5F5F5F5F5F5F5F5F5F5F5F5F5F5F5F5F5F5F5F5F5F5F5F5F5F5F5F5F5F5F5F5F5F5F5F5F5F5F5F5F5F5F5F5F5F5F5F5F5F5F5F5F5F5F5F5F5F5F5F5F5F5
310
F5F5F5F5F5F5F5F5F5F5F5F5F5F5F5F5F5F5F5F5F5F5F5F5F5F5F5F5F5F5F5F5F5F5F5F5F5F5F5F5F5F5F5F5F5F5F5F5F5F5F5F5F5F5F5F5F5F5F5F5F5F5F5F5F5F5F5F5F5F5F5F5F5F5F5F5F5F5F5F5F5F5E2F5F5F5F5F5F5F5F5F5F5F5E2E2F5F5F5F5F5F5F5F5F5F5F5E2F5F5F5F5F5F5F5F5F5F5F5F5F5F5F5F5F5F5F5
310
F5F5F5F5F5F5F5F5F5F5F5F5F5F5F5F5F5F5F5F5F5F5F5F5F5F5F5F5F5F5F5F5F5F5F5F5F5F5F5F5F5F5F5F5F5F5F5F5F5F5F5F5F5F5F5F5F5F5F5F5F5F5F5F5F5F5F5F5F5F5F5F5F5F5F5F5F5F5F5F5F5F5F5F5F5F5F5F5F5F5F5F5F5F5F5F5F5F5F5F5F5F5F5F5F5F5F5F5F5F5F5F5F5F5F5F5F5F5F5F5F5F5F5F5F5F5F5
310
F5F5F5F5F5F5F5F5E2F5F5F5F5F5F5F5F5F5F5F5E2E2F5F5F5F5F5F5F5F5F5F5F5E2F5F5F5F5F5F5F5F5F5F5F5F5F5F5F5F5F5F5F5F5F5F5F5F5F5F5F5F5F5F5F5F5F5F5F5F5F5F5F5F5F5F5F5F5F5F5F5F5F5F5F5F5F5F5F5F5F5F5F5F5F5F5F5F5F5F5F5F5F5F5F5F5F5F5F5F5F5F5F5F5F5F5F5F5F5F5F5F5F5F5F5F5F5
310
F5F5F5F5F5F5F5F5F5F5F5F5F5F5F5F5F5F5F5F5F5F5F5F5F5F5F5F5F5F5F5F5F5F5F5F5F5F5F5F5F5F5F5F5F5F5F5F5F5F5F5F5F5F5F5F5F5F5F5F5F5E2F5F5F5F5F5F5F5F5F5F5F5E2E2F5F5F5F5F5F5F5F5F5F5F5E2F5F5F5F5F5F5F5F5F5F5F5F5F5F5F5F5F5F5F5F5F5F5F5F5F5F5F5F5F5F5F5F5F5F5F5F5F5F5F5F5
310
F5F5F5F5F5F5F5F5F5F5F5F5F5F5F5F5F5F5F5F5F5F5F5F5F5F5F5F5F5F5F5F5F5F5F5F5F5F5F5F5F5F5F5F5F5F5F5F5F5F5F5F5F5F5F5F5F5F5F5F5F5F5F5F5F5F5F5F5F5F5F5F5F5F5F5F5F5F5F5F5F5F5F5F5F5F5F5F5F5F5F5F5F5F5F5F5F5F5F5F5F5F5F5F5F5F5F5F5F5F5F5F5F5F5E2F5F5F5F5F5F5F5F5F5F5F5E2
310
E2F5F5F5F5F5F5F5F5F5F5F5F5F5F5F5F5F5F5F5F5F5F5F5F5F5F5F5F5F5F5F5F5F5F5F5F5F5F5F5F5F5F5F5F5F5F5F5F5F5F5F5F5F5F5F5F5F5F5F5F5F5F5F5F5F5F5F5F5F5F5F5F5F5F5F5F5F5F5F5F5F5F5F5F5F5F5F5F5F5F5F5F5F5F5F5F5F5F5F5F5F5F5F5F5F5F5F5F5F5F5F5F5F5F5F5F5F5F5F5F5F5F5F5F5F5F5
310
F5F5F5F5F5F5F5F5F5F5F5F5F5F5F5F5F5F5F5F5F5F5F5F5F5F5F5F5F5F5F5F5F5F5F5F5F5F5F5F5F5F5F5F5F5F5F5F5F5F5F5F5E2E2F5F5F5F5F5F5F5F5F5F5F5F5F5F5F5F5F5F5F5F5F5F5F5F5F5F5F5F5F5F5F5F5F5F5F5F5F5F5F5F5F5F5F5F5F5F5F5F5F5F5F5F5F5F5F5F5F5F5F5F5F5F5F5F5F5F5F5F5F5F5F5F5F5
310
F5F5F5F5F5F5F5F5F5F5F5F5F5F5F5F5F5F5F5F5F5F5F5F5F5F5F5F5F5F5F5F5F5F5F5F5F5F5F5F5F5F5F5F5F5F5F5F5F5F5F5F5F5F5F5F5F5F5F5F5F5F5F5F5F5F5F5F5F5F5F5F5F5F5F5F5F5F5F5F5F5F5F5F5F5F5F5F5F5F5F5F5F5F5F5F5F5F5F5F5F5F5F5F5F5E2E2F5F5F5F5F5F5F5F5F5F5F5F5F5F5F5F5F5F5F5F5
310
F5F5F5F5F5F5F5F5F5F5F5F5F5F5F5F5F5F5F5F5F5F5F5F5F5F5F5F5F5F5F5F5F5F5F5F5F5F5F5F5F5F5F5F5F5F5F5F5F5F5F5F5F5F5F5F5F5F5F5F5F5F5F5F5F5F5F5F5F5F5F5F5F5F5F5F5F5F5F5F5F5F5F5F5F5F5F5F5F5F5F5F5F5F5F5F5F5F5F5F5F5F5F5F5F5F5F5F5F5F5F5F5F5F5F5F5F5F5F5F5F5F5F5F5F5F5F5
310
F5F5F5F5F5F5F5F5F5F5F5F5F5F5F5F5F5F5F5F5F5F5F5F5F5F5F5F5F5F5F5E2E2F5F5F5F5F5F5F5F5F5F5F5F5F5F5F5F5F5F5F5F5F5F5F5F5F5F5F5F5F5F5F5F5F5F5F5F5F5F5F5F5F5F5F5F5F5F5F5F5F5F5F5F5F5F5F5F5F5F5F5F5F5F5F5F5F5F5F5F5F5F5F5F5F5F5F5F5F5F5F5F5F5F5F5F5F5F5F5F5F5F5F5F5F5F5
310
F5F5F5F5F5F5F5F5F5F5F5F5F5F5F5F5F5F5F5F5F5F5F5F5F5F5F5F5F5F5F5F5F5F5F5F5F5F5F5F5F5F5F5F5F5F5F5F5F5F5F5F5F5F5F5F5F5F5F5F5F5F5F5F5F5F5F5F5F5F5F5F5F5F5F5F5F5F5F5F5F5F5F5F5E2E2F5F5F5F5F5F5F5F5F5F5F5F5F5F5F5F5F5F5F5F5F5F5F5F5F5F5F5F5F5F5F5F5F5F5F5F5F5F5F5F5F5
310
F5F5F5F5F5F5F5F5F5F5F5F5F5F5F5F5F5F5F5F5F5F5F5F5F5F5F5F5F5F5F5F5F5F5F5F5F5F5F5F5F5F5F5F5F5F5F5F5F5F5F5F5F5F5F5F5F5F5F5F5F5F5F5F5F5F5F5F5F5F5F5F5F5F5F5F5F5F5F5F5F5F5F5F5F5F5F5F5F5F5F5F5F5F5F5F5F5F5F5F5F5F5F5F5F5F5F5F5F5F5F5F5F5F5F5F5F5F5F5F5F5F5F5F5F5F5F5
310
F5F5F5F5F5F5F5F5F5F5E2E2F5F5F5F5F5F5F5F5F5F5F5F5F5F5F5F5F5F5F5F5F5F5F5F5F5F5F5F5F5F5F5F5F5F5F5F5F5F5F5F5F5F5F5F5F5F5F5F5F5F5F5F5F5F5F5F5F5F5F5F5F5F5F5F5F5F5F5F5F5F5F5F5F5F5F5F5F5F5F5F5F5F5F5F5F5F5F5F5F5F5F5F5F5F5F5F5F5F5F5F5F5F5F5F5F5F5F5F5F5F5F5F5F5F5F5
310
F5F5F5F5F5F5F5F5F5F5F5F5F5F5F5F5F5F5F5F5F5F5F5F5F5F5F5F5F5F5F5F5F5F5F5F5F5F5F5F5F5F5F5F5F5F5F5F5F5F5F5F5F5F5F5F5F5F5F5F5F5F5F5E2E2F5F5F5F5F5F5F5F5F5F5F5F5F5F5F5F5F5F5F5F5F5F5F5F5F5F5F5F5F5F5F5F5F5F5F5F5F5F5F5F5F5F5F5F5F5F5F5F5F5F5F5F5F5F5F5F5F5F5F5F5F5F5
310
F5F5F5F5F5F5F5F5F5F5F5F5F5F5F5F5F5F5F5F5F5F5F5F5F5F5F5F5F5F5F5F5F5F5F5F5F5F5F5F5F5F5F5F5F5F5F5F5F5F5F5F5F5F5F5F5F5F5F5F5F5F5F5F5F5F5F5F5F5F5F5F5F5F5F5F5F5F5F5F5F5F5F5F5F5F5F5F5F5F5F5F5F5F5F5F5F5F5F5F5F5F5F5F5F5F5F5F5F5F5F5F5F5F5F5F5E2E2F5F5F5F5F5F5F5F5F5
310
F5F5F5F5F5F5F5F5F5F5F5F5F5F5F5F5F5F5F5F5F5F5F5F5F5F5F5F5F5F5F5F5F5F5F5F5F5F5F5F5F5F5F5F5F5F5F5F5F5F5F5F5F5F5F5F5F5F5F5F5F5F5F5F5F5F5F5F5F5F5F5F5F5F5F5F5F5F5F5F5F5F5F5F5F5F5F5F5F5F5F5F5F5F5F5F5F5F5F5F5F5F5F5F5F5F5F5F5F5F5F5F5F5F5F5F5F5F5F5F5F5F5F5F5F5F5F5
310
F5F5F5F5F5F5F5F5F5F5F5F5F5F5F5F5F5F5F5F5F5F5F5F5F5F5F5F5F5F5F5F5F5F5F5F5F5F5F5F5F5F5E2E2F5F5F5F5F5F5F5F5F5F5F5F5F5F5F5F5F5F5F5F5F5F5F5F5F5F5F5F5F5F5F5F5F5F5F5F5F5F5F5F5F5F5F5F5F5F5F5F5F5F5F5F5F5F5F5F5F5F5F5F5F5F5F5F5F5F5F5F5F5F5F5F5F5F5F5F5F5F5F5F5F5F5F5
310
F5F5F5F5F5F5F5F5F5F5F5F5F5F5F5F5F5F5F5F5F5F5F5F5F5F5F5F5F5F5F5F5F5F5F5F5F5F5F5F5F5F5F5F5F5F5F5F5F5F5F5F5F5F5F5F5F5F5F5F5F5F5F5F5F5F5F5F5F5F5F5F5F5F5F5F5F5F5F5F5F5F5F5F5F5F5F5F5F5F5F5F5F5F5F5E2E2F5F5F5F5F5F5F5F5F5F5F5E2F5F5F5F5F5F5F5F5F5F5F5F5F5F5F5F5F5F5
310
F5F5F5F5F5F5F5F5F5F5F5F5F5F5F5F5F5F5F5F5F5F5F5F5F5F5F5F5F5F5F5F5F5F5F5F5F5F5F5F5F5F5F5F5F5F5F5F5F5F5F5F5F5F5F5F5F5F5F5F5F5F5F5F5F5F5F5F5F5F5F5F5F5F5F5F5F5F5F5F5F5F5F5F5F5F5F5F5F5F5F5F5F5F5F5F5F5F5F5F5F5F5F5F5F5F5F5F5F5F5F5F5F5F5F5F5F5F5F5F5F5F5F5F5F5F5F5
310
F5F5F5F5F5F5F5F5F5E2F5F5F5F5F5F5F5F5F5F5F5E2E2F5F5F5F5F5F5F5F5F5F5F5E2F5F5F5F5F5F5F5F5F5F5F5F5F5F5F5F5F5F5F5F5F5F5F5F5F5F5F5F5F5F5F5F5F5F5F5F5F5F5F5F5F5F5F5F5F5F5F5F5F5F5F5F5F5F5F5F5F5F5F5F5F5F5F5F5F5F5F5F5F5F5F5F5F5F5F5F5F5F5F5F5F5F5F5F5F5F5F5F5F5F5F5F5
310
F5F5F5F5F5F5F5F5F5F5F5F5F5F5F5F5F5F5F5F5F5F5F5F5F5F5F5F5F5F5F5F5F5F5F5F5F5F5F5F5F5F5F5F5F5F5F5F5F5F5F5F5F5F5F5F5F5F5F5F5F5F5E2F5F5F5F5F5F5F5F5F5F5F5E2E2F5F5F5F5F5F5F5F5F5F5F5E2F5F5F5F5F5F5F5F5F5F5F5F5F5F5F5F5F5F5F5F5F5F5F5F5F5F5F5F5F5F5F5F5F5F5F5F5F5F5F5
310
F5F5F5F5F5F5F5F5F5F5F5F5F5F5F5F5F5F5F5F5F5F5F5F5F5F5F5F5F5F5F5F5F5F5F5F5F5F5F5F5F5F5F5F5F5F5F5F5F5F5F5F5F5F5F5F5F5F5F5F5F5F5F5F5F5F5F5F5F5F5F5F5F5F5F5F5F5F5F5F5F5F5F5F5F5F5F5F5F5F5F5F5F5F5F5F5F5F5F5F5F5F5F5F5F5F5F5F5F5F5F5F5F5F5F5E2F5F5F5F5F5F5F5F5F5F5F5
310
E2E2F5F5F5F5F5F5F5F5F5F5F5E2F5F5F5F5F5F5F5F5F5F5F5F5F5F5F5F5F5F5F5F5F5F5F5F5F5F5F5F5F5F5F5F5F5F5F5F5F5F5F5F5F5F5F5F5F5F5F5F5F5F5F5F5F5F5F5F5F5F5F5F5F5F5F5F5F5F5F5F5F5F5F5F5F5F5F5F5F5F5F5F5F5F5F5F5F5F5F5F5F5F5F5F5F5F5F5F5F5F5F5F5F5F5F5F5F5F5F5F5F5F5F5F5F5
310
F5F5F5F5F5F5F5F5F5F5F5F5F5F5F5F5F5F5F5F5F5F5F5F5F5F5F5F5F5F5F5F5F5F5F5F5F5F5F5F5F5E2F5F5F5F5F5F5F5F5F5F5F5E2E2F5F5F5F5F5F5F5F5F5F5F5E2F5F5F5F5F5F5F5F5F5F5F5F5F5F5F5F5F5F5F5F5F5F5F5F5F5F5F5F5F5F5F5F5F5F5F5F5F5F5F5F5F5F5F5F5F5F5F5F5F5F5F5F5F5F5F5F5F5F5F5F5
310
F5F5F5F5F5F5F5F5F5F5F5F5F5F5F5F5F5F5F5F5F5F5F5F5F5F5F5F5F5F5F5F5F5F5F5F5F5F5F5F5F5F5F5F5F5F5F5F5F5F5F5F5F5F5F5F5F5F5F5F5F5F5F5F5F5F5F5F5F5F5F5F5F5F5F5F5F5F5F5F5F5F5F5F5F5F5F5F5F5F5F5F5F5F5E2F5F5F5F5F5F5F5F5F5F5F5E2E2F5F5F5F5F5F5F5F5F5F5F5E2F5F5F5F5F5F5F5
310
F5F5F5F5F5F5F5F5F5F5F5F5F5F5F5F5F5F5F5F5F5F5F5F5F5F5F5F5F5F5F5F5F5F5F5F5F5F5F5F5F5F5F5F5F5F5F5F5F5F5F5F5F5F5F5F5F5F5F5F5F5F5F5F5F5F5F5F5F5F5F5F5F5F5F5F5F5F5F5F5F5F5F5F5F5F5F5F5F5F5F5F5F5F5F5F5F5F5F5F5F5F5F5F5F5F5F5F5F5F5F5F5F5F5F5F5F5F5F5F5F5F5F5F5F5F5F5
310
F5F5F5F5F5F5F5F5F5F5F5F5F5F5F5F5F5F5F5F5E2F5F5F5F5F5F5F5F5F5F5F5E2E2F5F5F5F5F5F5F5F5F5F5F5E2F5F5F5F5F5F5F5F5F5F5F5F5F5F5F5F5F5F5F5F5F5F5F5F5F5F5F5F5F5F5F5F5F5F5F5F5F5F5F5F5F5F5F5F5F5F5F5F5F5F5F5F5F5F5F5F5F5F5F5F5F5F5F5F5F5F5F5F5F5F5F5F5F5F5F5F5F5F5F5F5F5
310
F5F5F5F5F5F5F5F5F5F5F5F5F5F5F5F5F5F5F5F5F5F5F5F5F5F5F5F5F5F5F5F5F5F5F5F5F5F5F5F5F5F5F5F5F5F5F5F5F5F5F5F5F5F5F5F5F5F5F5F5F5F5F5F5F5F5F5F5F5F5F5F5F5E2F5F5F5F5F5F5F5F5F5F5F5E2E2F5F5F5F5F5F5F5F5F5F5F5E2F5F5F5F5F5F5F5F5F5F5F5F5F5F5F5F5F5F5F5F5F5F5F5F5F5F5F5F5
310
F5F5F5F5F5F5F5F5F5F5F5F5F5F5F5F5F5F5F5F5F5F5F5F5F5F5F5F5F5F5F5F5F5F5F5F5F5F5F5F5F5F5F5F5F5F5F5F5F5F5F5F5F5F5F5F5F5F5F5F5F5F5F5F5F5F5F5F5F5F5F5F5F5F5F5F5F5F5F5F5F5F5F5F5F5F5F5F5F5F5F5F5F5F5F5F5F5F5F5F5F5F5F5F5F5F5F5F5F5F5F5F5F5F5F5F5F5F5F5F5F5F5F5F5F5F5E2
310
F5F5F5F5F5F5F5F5F5F5F5E2E2F5F5F5F5F5F5F5F5F5F5F5E2F5F5F5F5F5F5F5F5F5F5F5F5F5F5F5F5F5F5F5F5F5F5F5F5F5F5F5F5F5F5F5F5F5F5F5F5F5F5F5F5F5F5F5F5F5F5F5F5F5F5F5F5F5F5F5F5F5F5F5F5F5F5F5F5F5F5F5F5F5F5F5F5F5F5F5F5F5F5F5F5F5F5F5F5F5F5F5F5F5F5F5F5F5F5F5F5F5F5F5F5F5F5
310
F5F5F5F5F5F5F5F5F5F5F5F5F5F5F5F5F5F5F5F5F5F5F5F5F5F5F5F5F5F5F5F5F5F5F5F5F5F5F5F5F5F5F5F5F5F5F5F5F5F5F5F5E2F5F5F5F5F5F5F5F5F5F5F5E2E2F5F5F5F5F5F5F5F5F5F5F5E2F5F5F5F5F5F5F5F5F5F5F5F5F5F5F5F5F5F5F5F5F5F5F5F5F5F5F5F5F5F5F5F5F5F5F5F5F5F5F5F5F5F5F5F5F5F5F5F5F5
310
F5F5F5F5F5F5F5F5F5F5F5F5F5F5F5F5F5F5F5F5F5F5F5F5F5F5F5F5F5F5F5F5F5F5F5F5F5F5F5F5F5F5F5F5F5F5F5F5F5F5F5F5F5F5F5F5F5F5F5F5F5F5F5F5F5F5F5F5F5F5F5F5F5F5F5F5F5F5F5F5F5F5F5F5F5F5F5F5F5F5F5F5F5F5F5F5F5F5F5F5F5F5F5F5F5E2F5F5F5F5F5F5F5F5F5F5F5E2E2F5F5F5F5F5F5F5F5
310
F5F5F5E2F5F5F5F5F5F5F5F5F5F5F5F5F5F5F5F5F5F5F5F5F5F5F5F5F5F5F5F5F5F5F5F5F5F5F5F5F5F5F5F5F5F5F5F5F5F5F5F5F5F5F5F5F5F5F5F5F5F5F5F5F5F5F5F5F5F5F5F5F5F5F5F5F5F5F5F5F5F5F5F5F5F5F5F5F5F5F5F5F5F5F5F5F5F5F5F5F5F5F5F5F5F5F5F5F5F5F5F5F5F5F5F5F5F5F5F5F5F5F5F5F5F5F5
310
F5F5F5F5F5F5F5F5F5F5F5F5F5F5F5F5F5F5F5F5F5F5F5F5F5F5F5F5F5F5F5E2F5F5F5F5F5F5F5F5F5F5F5E2E2F5F5F5F5F5F5F5F5F5F5F5E2F5F5F5F5F5F5F5F5F5F5F5F5F5F5F5F5F5F5F5F5F5F5F5F5F5F5F5F5F5F5F5F5F5F5F5F5F5F5F5F5F5F5F5F5F5F5F5F5F5F5F5F5F5F5F5F5F5F5F5F5F5F5F5F5F5F5F5F5F5F5
310
F5F5F5F5F5F5F5F5F5F5F5F5F5F5F5F5F5F5F5F5F5F5F5F5F5F5F5F5F5F5F5F5F5F5F5F5F5F5F5F5F5F5F5F5F5F5F5F5F5F5F5F5F5F5F5F5F5F5F5F5F5F5F5F5F5F5F5F5F5F5F5F5F5F5F5F5F5F5F5F5F5F5F5F5E2F5F5F5F5F5F5F5F5F5F5F5E2E2F5F5F5F5F5F5F5F5F5F5F5E2F5F5F5F5F5F5F5F5F5F5F5F5F5F5F5F5F5
310
F5F5F5F5F5F5F5F5F5F5F5F5F5F5F5F5F5F5F5F5F5F5F5F5F5F5F5F5F5F5F5F5F5F5F5F5F5F5F5F5F5F5F5F5F5F5F5F5F5F5F5F5F5F5F5F5F5F5F5F5F5F5F5F5F5F5F5F5F5F5F5F5F5F5F5F5F5F5F5F5F5F5F5F5F5F5F5F5F5F5F5F5F5F5F5F5F5F5F5F5F5F5F5F5F5F5F5F5F5F5F5F5F5F5F5F5F5F5F5F5F5F5F5F5F5F5F5
310
F5F5F5F5F5F5F5F5F5F5E2F5F5F5F5F5F5F5F5F5F5F5E2E2F5F5F5F5F5F5F5F5F5F5F5E2F5F5F5F5F5F5F5F5F5F5F5F5F5F5F5F5F5F5F5F5F5F5F5F5F5F5F5F5F5F5F5F5F5F5F5F5F5F5F5F5F5F5F5F5F5F5F5F5F5F5F5F5F5F5F5F5F5F5F5F5F5F5F5F5F5F5F5F5F5F5F5F5F5F5F5F5F5F5F5F5F5F5F5F5F5F5F5F5F5F5F5
310
F5F5F5F5F5F5F5F5F5F5F5F5F5F5F5F5F5F5F5F5F5F5F5F5F5F5F5F5F5F5F5F5F5F5F5F5F5F5F5F5F5F5F5F5F5F5F5F5F5F5F5F5F5F5F5F5F5F5F5F5F5F5F5E2F5F5F5F5F5F5F5F5F5F5F5E2E2F5F5F5F5F5F5F5F5F5F5F5E2F5F5F5F5F5F5F5F5F5F5F5F5F5F5F5F5F5F5F5F5F5F5F5F5F5F5F5F5F5F5F5F5F5F5F5F5F5F5
310
F5F5F5F5F5F5F5F5F5F5F5F5F5F5F5F5F5F5F5F5F5F5F5F5F5F5F5F5F5F5F5F5F5F5F5F5F5F5F5F5F5F5F5F5F5F5F5F5F5F5F5F5F5F5F5F5F5F5F5F5F5F5F5F5F5F5F5F5F5F5F5F5F5F5F5F5F5F5F5F5F5F5F5F5F5F5F5F5F5F5F5F5F5F5F5F5F5F5F5F5F5F5F5F5F5F5F5F5F5F5F5F5F5F5F5F5E2F5F5F5F5F5F5F5F5F5F5
310
F5E2E2F5F5F5F5F5F5F5F5F5F5F5F5F5F5F5F5F5F5F5F5F5F5F5F5F5F5F5F5F5F5F5F5F5F5F5F5F5F5F5F5F5F5F5F5F5F5F5F5F5F5F5F5F5F5F5F5F5F5F5F5F5F5F5F5F5F5F5F5F5F5F5F5F5F5F5F5F5F5F5F5F5F5F5F5F5F5F5F5F5F5F5F5F5F5F5F5F5F5F5F5F5F5F5F5F5F5F5F5F5F5F5F5F5F5F5F5F5F5F5F5F5F5F5F5
310
F5F5F5F5F5F5F5F5F5F5F5F5F5F5F5F5F5F5F5F5F5F5F5F5F5F5F5F5F5F5F5F5F5F5F5F5F5F5F5F5F5F5F5F5F5F5F5F5F5F5F5F5F5F5E2E2F5F5F5F5F5F5F5F5F5F5F5F5F5F5F5F5F5F5F5F5F5F5F5F5F5F5F5F5F5F5F5F5F5F5F5F5F5F5F5F5F5F5F5F5F5F5F5F5F5F5F5F5F5F5F5F5F5F5F5F5F5F5F5F5F5F5F5F5F5F5F5
310
F5F5F5F5F5F5F5F5F5F5F5F5F5F5F5F5F5F5F5F5F5F5F5F5F5F5F5F5F5F5F5F5F5F5F5F5F5F5F5F5F5F5F5F5F5F5F5F5F5F5F5F5F5F5F5F5F5F5F5F5F5F5F5F5F5F5F5F5F5F5F5F5F5F5F5F5F5F5F5F5F5F5F5F5F5F5F5F5F5F5F5F5F5F5F5F5F5F5F5F5F5F5F5F5F5F5F5E2E2F5F5F5F5F5F5F5F5F5F5F5F5F5F5F5F5F5F5
310
F5F5F5F5F5F5F5F5F5F5F5F5F5F5F5F5F5F5F5F5F5F5F5F5F5F5F5F5F5F5F5F5F5F5F5F5F5F5F5F5F5F5F5F5F5F5F5F5F5F5F5F5F5F5F5F5F5F5F5F5F5F5F5F5F5F5F5F5F5F5F5F5F5F5F5F5F5F5F5F5F5F5F5F5F5F5F5F5F5F5F5F5F5F5F5F5F5F5F5F5F5F5F5F5F5F5F5F5F5F5F5F5F5F5F5F5F5F5F5F5F5F5F5F5F5F5F5
310
F5F5F5F5F5F5F5F5F5F5F5F5F5F5F5F5F5F5F5F5F5F5F5F5F5F5F5F5F5F5F5F5F5E2E2F5F5F5F5F5F5F5F5F5F5F5F5F5F5F5F5F5F5F5F5F5F5F5F5F5F5F5F5F5F5F5F5F5F5F5F5F5F5F5F5F5F5F5F5F5F5F5F5F5F5F5F5F5F5F5F5F5F5F5F5F5F5F5F5F5F5F5F5F5F5F5F5F5F5F5F5F5F5F5F5F5F5F5F5F5F5F5F5F5F5F5F5
310
F5F5F5F5F5F5F5F5F5F5F5F5F5F5F5F5F5F5F5F5F5F5F5F5F5F5F5F5F5F5F5F5F5F5F5F5F5F5F5F5F5F5F5F5F5F5F5F5F5F5F5F5F5F5F5F5F5F5F5F5F5F5F5F5F5F5F5F5F5F5F5F5F5F5F5F5F5F5F5F5F5F5F5F5F5F5E2E2F5F5F5F5F5F5F5F5F5F5F5F5F5F5F5F5F5F5F5F5F5F5F5F5F5F5F5F5F5F5F5F5F5F5F5F5F5F5F5
310
F5F5F5F5F5F5F5F5F5F5F5F5F5F5F5F5F5F5F5F5F5F5F5F5F5F5F5F5F5F5F5F5F5F5F5F5F5F5F5F5F5F5F5F5F5F5F5F5F5F5F5F5F5F5F5F5F5F5F5F5F5F5F5F5F5F5F5F5F5F5F5F5F5F5F5F5F5F5F5F5F5F5F5F5F5F5F5F5F5F5F5F5F5F5F5F5F5F5F5F5F5F5F5F5F5F5F5F5F5F5F5F5F5F5F5F5F5F5F5F5F5F5F5F5F5F5F5
310
F5F5F5F5F5F5F5F5F5F5F5F5E2E2F5F5F5F5F5F5F5F5F5F5F5F5F5F5F5F5F5F5F5F5F5F5F5F5F5F5F5F5F5F5F5F5F5F5F5F5F5F5F5F5F5F5F5F5F5F5F5F5F5F5F5F5F5F5F5F5F5F5F5F5F5F5F5F5F5F5F5F5F5F5F5F5F5F5F5F5F5F5F5F5F5F5F5F5F5F5F5F5F5F5F5F5F5F5F5F5F5F5F5F5F5F5F5F5F5F5F5F5F5F5F5F5F5
310
F5F5F5F5F5F5F5F5F5F5F5F5F5F5F5F5F5F5F5F5F5F5F5F5F5F5F5F5F5F5F5F5F5F5F5F5F5F5F5F5F5F5F5F5F5F5F5F5F5F5F5F5F5F5F5F5F5F5F5F5F5F5F5F5F5E2E2F5F5F5F5F5F5F5F5F5F5F5F5F5F5F5F5F5F5F5F5F5F5F5F5F5F5F5F5F5F5F5F5F5F5F5F5F5F5F5F5F5F5F5F5F5F5F5F5F5F5F5F5F5F5F5F5F5F5F5F5
310
F5F5F5F5F5F5F5F5F5F5F5F5F5F5F5F5F5F5F5F5F5F5F5F5F5F5F5F5F5F5F5F5F5F5F5F5F5F5F5F5F5F5F5F5F5F5F5F5F5F5F5F5F5F5F5F5F5F5F5F5F5F5F5F5F5F5F5F5F5F5F5F5F5F5F5F5F5F5F5F5F5F5F5F5F5F5F5F5F5F5F5F5F5F5F5F5F5F5F5F5F5F5F5F5F5F5F5F5F5F5F5F5F5F5F5F5F5F5E2E2F5F5F5F5F5F5F5
310
F5F5F5F5F5F5F5F5F5F5F5F5F5F5F5F5F5F5F5F5F5F5F5F5F5F5F5F5F5F5F5F5F5F5F5F5F5F5F5F5F5F5F5F5F5F5F5F5F5F5F5F5F5F5F5F5F5F5F5F5F5F5F5F5F5F5F5F5F5F5F5F5F5F5F5F5F5F5F5F5F5F5F5F5F5F5F5F5F5F5F5F5F5F5F5F5F5F5F5F5F5F5F5F5F5F5F5F5F5F5F5F5F5F5F5F5F5F5F5F5F5F5F5F5F5F5F5
310
F5F5F5F5F5F5F5F5F5F5F5F5F5F5F5F5F5F5F5F5F5F5F5F5F5F5F5F5F5F5F5F5F5F5F5F5F5F5F5F5F5F5F5F5E2E2F5F5F5F5F5F5F5F5F5F5F5E2F5F5F5F5F5F5F5F5F5F5F5F5F5F5F5F5F5F5F5F5F5F5F5F5F5F5F5F5F5F5F5F5F5F5F5F5F5F5F5F5F5F5F5F5F5F5F5F5F5F5F5F5F5F5F5F5F5F5F5F5F5F5F5F5F5F5F5F5F5
310
F5F5F5F5F5F5F5F5F5F5F5F5F5F5F5F5F5F5F5F5F5F5F5F5F5F5F5F5F5F5F5F5F5F5F5F5F5F5F5F5F5F5F5F5F5F5F5F5F5F5F5F5F5F5F5F5F5F5F5F5F5F5F5F5F5F5F5F5F5F5F5F5F5F5F5F5F5F5F5F5F5F5F5F5F5E2F5F5F5F5F5F5F5F5F5F5F5E2E2F5F5F5F5F5F5F5F5F5F5F5E2F5F5F5F5F5F5F5F5F5F5F5F5F5F5F5F5
310
F5F5F5F5F5F5F5F5F5F5F5F5F5F5F5F5F5F5F5F5F5F5F5F5F5F5F5F5F5F5F5F5F5F5F5F5F5F5F5F5F5F5F5F5F5F5F5F5F5F5F5F5F5F5F5F5F5F5F5F5F5F5F5F5F5F5F5F5F5F5F5F5F5F5F5F5F5F5F5F5F5F5F5F5F5F5F5F5F5F5F5F5F5F5F5F5F5F5F5F5F5F5F5F5F5F5F5F5F5F5F5F5F5F5F5F5F5F5F5F5F5F5F5F5F5F5F5
310
F5F5F5F5F5F5F5F5F5F5F5E2F5F5F5F5F5F5F5F5F5F5F5E2E2F5F5F5F5F5F5F5F5F5F5F5E2F5F5F5F5F5F5F5F5F5F5F5F5F5F5F5F5F5F5F5F5F5F5F5F5F5F5F5F5F5F5F5F5F5F5F5F5F5F5F5F5F5F5F5F5F5F5F5F5F5F5F5F5F5F5F5F5F5F5F5F5F5F5F5F5F5F5F5F5F5F5F5F5F5F5F5F5F5F5F5F5F5F5F5F5F5F5F5F5F5F5
310
F5F5F5F5F5F5F5F5F5F5F5F5F5F5F5F5F5F5F5F5F5F5F5F5F5F5F5F5F5F5F5F5F5F5F5F5F5F5F5F5F5F5F5F5F5F5F5F5F5F5F5F5F5F5F5F5F5F5F5F5F5F5F5F5E2F5F5F5F5F5F5F5F5F5F5F5E2E2F5F5F5F5F5F5F5F5F5F5F5E2F5F5F5F5F5F5F5F5F5F5F5F5F5F5F5F5F5F5F5F5F5F5F5F5F5F5F5F5F5F5F5F5F5F5F5F5F5
310
F5F5F5F5F5F5F5F5F5F5F5F5F5F5F5F5F5F5F5F5F5F5F5F5F5F5F5F5F5F5F5F5F5F5F5F5F5F5F5F5F5F5F5F5F5F5F5F5F5F5F5F5F5F5F5F5F5F5F5F5F5F5F5F5F5F5F5F5F5F5F5F5F5F5F5F5F5F5F5F5F5F5F5F5F5F5F5F5F5F5F5F5F5F5F5F5F5F5F5F5F5F5F5F5F5F5F5F5F5F5F5F5F5F5F5F5F5E2F5F5F5F5F5F5F5F5F5
310
F5F5E2E2F5F5F5F5F5F5F5F5F5F5F5E2F5F5F5F5F5F5F5F5F5F5F5F5F5F5F5F5F5F5F5F5F5F5F5F5F5F5F5F5F5F5F5F5F5F5F5F5F5F5F5F5F5F5F5F5F5F5F5F5F5F5F5F5F5F5F5F5F5F5F5F5F5F5F5F5F5F5F5F5F5F5F5F5F5F5F5F5F5F5F5F5F5F5F5F5F5F5F5F5F5F5F5F5F5F5F5F5F5F5F5F5F5F5F5F5F5F5F5F5F5F5F5
310
F5F5F5F5F5F5F5F5F5F5F5F5F5F5F5F5F5F5F5F5F5F5F5F5F5F5F5F5F5F5F5F5F5F5F5F5F5F5F5F5F5F5F5E2F5F5F5F5F5F5F5F5F5F5F5E2E2F5F5F5F5F5F5F5F5F5F5F5E2F5F5F5F5F5F5F5F5F5F5F5F5F5F5F5F5F5F5F5F5F5F5F5F5F5F5F5F5F5F5F5F5F5F5F5F5F5F5F5F5F5F5F5F5F5F5F5F5F5F5F5F5F5F5F5F5F5F5
310
F5F5F5F5F5F5F5F5F5F5F5F5F5F5F5F5F5F5F5F5F5F5F5F5F5F5F5F5F5F5F5F5F5F5F5F5F5F5F5F5F5F5F5F5F5F5F5F5F5F5F5F5F5F5F5F5F5F5F5F5F5F5F5F5F5F5F5F5F5F5F5F5F5F5F5F5F5F5F5F5F5F5F5F5F5F5F5F5F5F5F5F5F5F5F5F5E2F5F5F5F5F5F5F5F5F5F5F5E2E2F5F5F5F5F5F5F5F5F5F5F5E2F5F5F5F5F5
310
F5F5F5F5F5F5F5F5F5F5F5F5F5F5F5F5F5F5F5F5F5F5F5F5F5F5F5F5F5F5F5F5F5F5F5F5F5F5F5F5F5F5F5F5F5F5F5F5F5F5F5F5F5F5F5F5F5F5F5F5F5F5F5F5F5F5F5F5F5F5F5F5F5F5F5F5F5F5F5F5F5F5F5F5F5F5F5F5F5F5F5F5F5F5F5F5F5F5F5F5F5F5F5F5F5F5F5F5F5F5F5F5F5F5F5F5F5F5F5F5F5F5F5F5F5F5F5
310
F5F5F5F5F5F5F5F5F5F5F5F5F5F5F5F5F5F5F5F5F5F5E2F5F5F5F5F5F5F5F5F5F5F5E2E2F5F5F5F5F5F5F5F5F5F5F5E2F5F5F5F5F5F5F5F5F5F5F5F5F5F5F5F5F5F5F5F5F5F5F5F5F5F5F5F5F5F5F5F5F5F5F5F5F5F5F5F5F5F5F5F5F5F5F5F5F5F5F5F5F5F5F5F5F5F5F5F5F5F5F5F5F5F5F5F5F5F5F5F5F5F5F5F5F5F5F5
310
F5F5F5F5F5F5F5F5F5F5F5F5F5F5F5F5F5F5F5F5F5F5F5F5F5F5F5F5F5F5F5F5F5F5F5F5F5F5F5F5F5F5F5F5F5F5F5F5F5F5F5F5F5F5F5F5F5F5F5F5F5F5F5F5F5F5F5F5F5F5F5F5F5F5F5E2F5F5F5F5F5F5F5F5F5F5F5E2E2F5F5F5F5F5F5F5F5F5F5F5E2F5F5F5F5F5F5F5F5F5F5F5F5F5F5F5F5F5F5F5F5F5F5F5F5F5F5
310
F5F5F5F5F5F5F5F5F5F5F5F5F5F5F5F5F5F5F5F5F5F5F5F5F5F5F5F5F5F5F5F5F5F5F5F5F5F5F5F5F5F5F5F5F5F5F5F5F5F5F5F5F5F5F5F5F5F5F5F5F5F5F5F5F5F5F5F5F5F5F5F5F5F5F5F5F5F5F5F5F5F5F5F5F5F5F5F5F5F5F5F5F5F5F5F5F5F5F5F5F5F5F5F5F5F5F5F5F5F5F5F5F5F5F5F5F5F5F5F5F5F5F5F5F5F5F5
310
F5E2F5F5F5F5F5F5F5F5F5F5F5E2E2F5F5F5F5F5F5F5F5F5F5F5E2F5F5F5F5F5F5F5F5F5F5F5F5F5F5F5F5F5F5F5F5F5F5F5F5F5F5F5F5F5F5F5F5F5F5F5F5F5F5F5F5F5F5F5F5F5F5F5F5F5F5F5F5F5F5F5F5F5F5F5F5F5F5F5F5F5F5F5F5F5F5F5F5F5F5F5F5F5F5F5F5F5F5F5F5F5F5F5F5F5F5F5F5F5F5F5F5F5F5F5F5
310
F5F5F5F5F5F5F5F5F5F5F5F5F5F5F5F5F5F5F5F5F5F5F5F5F5F5F5F5F5F5F5F5F5F5F5F5F5F5F5F5F5F5F5F5F5F5F5F5F5F5F5F5F5F5E2F5F5F5F5F5F5F5F5F5F5F5E2E2F5F5F5F5F5F5F5F5F5F5F5E2F5F5F5F5F5F5F5F5F5F5F5F5F5F5F5F5F5F5F5F5F5F5F5F5F5F5F5F5F5F5F5F5F5F5F5F5F5F5F5F5F5F5F5F5F5F5F5
310
F5F5F5F5F5F5F5F5F5F5F5F5F5F5F5F5F5F5F5F5F5F5F5F5F5F5F5F5F5F5F5F5F5F5F5F5F5F5F5F5F5F5F5F5F5F5F5F5F5F5F5F5F5F5F5F5F5F5F5F5F5F5F5F5F5F5F5F5F5F5F5F5F5F5F5F5F5F5F5F5F5F5F5F5F5F5F5F5F5F5F5F5F5F5F5F5F5F5F5F5F5F5F5F5F5F5F5E2F5F5F5F5F5F5F5F5F5F5F5E2E2F5F5F5F5F5F5
310
F5F5F5F5F5E2F5F5F5F5F5F5F5F5F5F5F5F5F5F5F5F5F5F5F5F5F5F5F5F5F5F5F5F5F5F5F5F5F5F5F5F5F5F5F5F5F5F5F5F5F5F5F5F5F5F5F5F5F5F5F5F5F5F5F5F5F5F5F5F5F5F5F5F5F5F5F5F5F5F5F5F5F5F5F5F5F5F5F5F5F5F5F5F5F5F5F5F5F5F5F5F5F5F5F5F5F5F5F5F5F5F5F5F5F5F5F5F5F5F5F5F5F5F5F5F5F5
310
F5F5F5F5F5F5F5F5F5F5F5F5F5F5F5F5F5F5F5F5F5F5F5F5F5F5F5F5F5F5F5F5F5E2F5F5F5F5F5F5F5F5F5F5F5E2E2F5F5F5F5F5F5F5F5F5F5F5E2F5F5F5F5F5F5F5F5F5F5F5F5F5F5F5F5F5F5F5F5F5F5F5F5F5F5F5F5F5F5F5F5F5F5F5F5F5F5F5F5F5F5F5F5F5F5F5F5F5F5F5F5F5F5F5F5F5F5F5F5F5F5F5F5F5F5F5F5
310
F5F5F5F5F5F5F5F5F5F5F5F5F5F5F5F5F5F5F5F5F5F5F5F5F5F5F5F5F5F5F5F5F5F5F5F5F5F5F5F5F5F5F5F5F5F5F5F5F5F5F5F5F5F5F5F5F5F5F5F5F5F5F5F5F5F5F5F5F5F5F5F5F5F5F5F5F5F5F5F5F5F5F5F5F5F5E2F5F5F5F5F5F5F5F5F5F5F5E2E2F5F5F5F5F5F5F5F5F5F5F5E2F5F5F5F5F5F5F5F5F5F5F5F5F5F5F5
310
F5F5F5F5F5F5F5F5F5F5F5F5F5F5F5F5F5F5F5F5F5F5F5F5F5F5F5F5F5F5F5F5F5F5F5F5F5F5F5F5F5F5F5F5F5F5F5F5F5F5F5F5F5F5F5F5F5F5F5F5F5F5F5F5F5F5F5F5F5F5F5F5F5F5F5F5F5F5F5F5F5F5F5F5F5F5F5F5F5F5F5F5F5F5F5F5F5F5F5F5F5F5F5F5F5F5F5F5F5F5F5F5F5F5F5F5F5F5F5F5F5F5F5F5F5F5F5
310
F5F5F5F5F5F5F5F5F5F5F5F5E2F5F5F5F5F5F5F5F5F5F5F5E2E2F5F5F5F5F5F5F5F5F5F5F5E2F5F5F5F5F5F5F5F5F5F5F5F5F5F5F5F5F5F5F5F5F5F5F5F5F5F5F5F5F5F5F5F5F5F5F5F5F5F5F5F5F5F5F5F5F5F5F5F5F5F5F5F5F5F5F5F5F5F5F5F5F5F5F5F5F5F5F5F5F5F5F5F5F5F5F5F5F5F5F5F5F5F5F5F5F5F5F5F5F5
310
F5F5F5F5F5F5F5F5F5F5F5F5F5F5F5F5F5F5F5F5F5F5F5F5F5F5F5F5F5F5F5F5F5F5F5F5F5F5F5F5F5F5F5F5F5F5F5F5F5F5F5F5F5F5F5F5F5F5F5F5F5F5F5F5F5E2F5F5F5F5F5F5F5F5F5F5F5E2E2F5F5F5F5F5F5F5F5F5F5F5F5F5F5F5F5F5F5F5F5F5F5F5F5F5F5F5F5F5F5F5F5F5F5F5F5F5F5F5F5F5F5F5F5F5F5F5F5
310
F5F5F5F5F5F5F5F5F5F5F5F5F5F5F5F5F5F5F5F5F5F5F5F5F5F5F5F5F5F5F5F5F5F5F5F5F5F5F5F5F5F5F5F5F5F5F5F5F5F5F5F5F5F5F5F5F5F5F5F5F5F5F5F5F5F5F5F5F5F5F5F5F5F5F5F5F5F5F5F5F5F5F5F5F5F5F5F5F5F5F5F5F5F5F5F5F5F5F5F5F5F5F5F5F5F5F5F5F5F5F5F5F5F5F5F5F5F5F5F5F5F5F5F5F5F5F5
310
F5F5F5E2E2F5F5F5F5F5F5F5F5F5F5F5F5F5F5F5F5F5F5F5F5F5F5F5F5F5F5F5F5F5F5F5F5F5F5F5F5F5F5F5F5F5F5F5F5F5F5F5F5F5F5F5F5F5F5F5F5F5F5F5F5F5F5F5F5F5F5F5F5F5F5F5F5F5F5F5F5F5F5F5F5F5F5F5F5F5F5F5F5F5F5F5F5F5F5F5F5F5F5F5F5F5F5F5F5F5F5F5F5F5F5F5F5F5F5F5F5F5F5F5F5F5F5
310
F5F5F5F5F5F5F5F5F5F5F5F5F5F5F5F5F5F5F5F5F5F5F5F5F5F5F5F5F5F5F5F5F5F5F5F5F5F5F5F5F5F5F5F5F5F5F5F5F5F5F5F5F5F5F5F5E2E2F5F5F5F5F5F5F5F5F5F5F5F5F5F5F5F5F5F5F5F5F5F5F5F5F5F5F5F5F5F5F5F5F5F5F5F5F5F5F5F5F5F5F5F5F5F5F5F5F5F5F5F5F5F5F5F5F5F5F5F5F5F5F5F5F5F5F5F5F5
310
F5F5F5F5F5F5F5F5F5F5F5F5F5F5F5F5F5F5F5F5F5F5F5F5F5F5F5F5F5F5F5F5F5F5F5F5F5F5F5F5F5F5F5F5F5F5F5F5F5F5F5F5F5F5F5F5F5F5F5F5F5F5F5F5F5F5F5F5F5F5F5F5F5F5F5F5F5F5F5F5F5F5F5F5F5F5F5F5F5F5F5F5F5F5F5F5F5F5F5F5F5F5F5F5F5F5F5F5F5E2E2F5F5F5F5F5F5F5F5F5F5F5F5F5F5F5F5
310
F5F5F5F5F5F5F5F5F5F5F5F5F5F5F5F5F5F5F5F5F5F5F5F5F5F5F5F5F5F5F5F5F5F5F5F5F5F5F5F5F5F5F5F5F5F5F5F5F5F5F5F5F5F5F5F5F5F5F5F5F5F5F5F5F5F5F5F5F5F5F5F5F5F5F5F5F5F5F5F5F5F5F5F5F5F5F5F5F5F5F5F5F5F5F5F5F5F5F5F5F5F5F5F5F5F5F5F5F5F5F5F5F5F5F5F5F5F5F5F5F5F5F5F5F5F5F5
310
F5F5F5F5F5F5F5F5F5F5F5F5F5F5F5F5F5F5F5F5F5F5F5F5F5F5F5F5F5F5F5F5F5F5F5E2E2F5F5F5F5F5F5F5F5F5F5F5F5F5F5F5F5F5F5F5F5F5F5F5F5F5F5F5F5F5F5F5F5F5F5F5F5F5F5F5F5F5F5F5F5F5F5F5F5F5F5F5F5F5F5F5F5F5F5F5F5F5F5F5F5F5F5F5F5F5F5F5F5F5F5F5F5F5F5F5F5F5F5F5F5F5F5F5F5F5F5
310
F5F5F5F5F5F5F5F5F5F5F5F5F5F5F5F5F5F5F5F5F5F5F5F5F5F5F5F5F5F5F5F5F5F5F5F5F5F5F5F5F5F5F5F5F5F5F5F5F5F5F5F5F5F5F5F5F5F5F5F5F5F5F5F5F5F5F5F5F5F5F5F5F5F5F5F5F5F5F5F5F5F5F5F5F5F5F5F5E2E2F5F5F5F5F5F5F5F5F5F5F5F5F5F5F5F5F5F5F5F5F5F5F5F5F5F5F5F5F5F5F5F5F5F5F5F5F5
310
F5F5F5F5F5F5F5F5F5F5F5F5F5F5F5F5F5F5F5F5F5F5F5F5F5F5F5F5F5F5F5F5F5F5F5F5F5F5F5F5F5F5F5F5F5F5F5F5F5F5F5F5F5F5F5F5F5F5F5F5F5F5F5F5F5F5F5F5F5F5F5F5F5F5F5F5F5F5F5F5F5F5F5F5F5F5F5F5F5F5F5F5F5F5F5F5F5F5F5F5F5F5F5F5F5F5F5F5F5F5F5F5F5F5F5F5F5F5F5F5F5F5F5F5F5F5F5
310
F5F5F5F5F5F5F5F5F5F5F5F5F5F5E2E2F5F5F5F5F5F5F5F5F5F5F5F5F5F5F5F5F5F5F5F5F5F5F5F5F5F5F5F5F5F5F5F5F5F5F5F5F5F5F5F5F5F5F5F5F5F5F5F5F5F5F5F5F5F5F5F5F5F5F5F5F5F5F5F5F5F5F5F5F5F5F5F5F5F5F5F5F5F5F5F5F5F5F5F5F5F5F5F5F5F5F5F5F5F5F5F5F5F5F5F5F5F5F5F5F5F5F5F5F5F5F5
310
F5F5F5F5F5F5F5F5F5F5F5F5F5F5F5F5F5F5F5F5F5F5F5F5F5F5F5F5F5F5F5F5F5F5F5F5F5F5F5F5F5F5F5F5F5F5F5F5F5F5F5F5F5F5F5F5F5F5F5F5F5F5F5F5F5F5F5E2E2F5F5F5F5F5F5F5F5F5F5F5F5F5F5F5F5F5F5F5F5F5F5F5F5F5F5F5F5F5F5F5F5F5F5F5F5F5F5F5F5F5F5F5F5F5F5F5F5F5F5F5F5F5F5F5F5F5F5
310
F5F5F5F5F5F5F5F5F5F5F5F5F5F5F5F5F5F5F5F5F5F5F5F5F5F5F5F5F5F5F5F5F5F5F5F5F5F5F5F5F5F5F5F5F5F5F5F5F5F5F5F5F5F5F5F5F5F5F5F5F5F5F5F5F5F5F5F5F5F5F5F5F5F5F5F5F5F5F5F5F5F5F5F5F5F5F5F5F5F5F5F5F5F5F5F5F5F5F5F5F5F5F5F5F5F5F5F5F5F5F5F5F5F5F5F5F5F5F5F5E2E2F5F5F5F5F5
310
F5F5F5F5F5F5E2F5F5F5F5F5F5F5F5F5F5F5F5F5F5F5F5F5F5F5F5F5F5F5F5F5F5F5F5F5F5F5F5F5F5F5F5F5F5F5F5F5F5F5F5F5F5F5F5F5F5F5F5F5F5F5F5F5F5F5F5F5F5F5F5F5F5F5F5F5F5F5F5F5F5F5F5F5F5F5F5F5F5F5F5F5F5F5F5F5F5F5F5F5F5F5F5F5F5F5F5F5F5F5F5F5F5F5F5F5F5F5F5F5F5F5F5F5F5F5F5
310
F5F5F5F5F5F5F5F5F5F5F5F5F5F5F5F5F5F5F5F5F5F5F5F5F5F5F5F5F5F5F5F5F5F5E2F5F5F5F5F5F5F5F5F5F5F5E2E2F5F5F5F5F5F5F5F5F5F5F5E2F5F5F5F5F5F5F5F5F5F5F5F5F5F5F5F5F5F5F5F5F5F5F5F5F5F5F5F5F5F5F5F5F5F5F5F5F5F5F5F5F5F5F5F5F5F5F5F5F5F5F5F5F5F5F5F5F5F5F5F5F5F5F5F5F5F5F5
310
F5F5F5F5F5F5F5F5F5F5F5F5F5F5F5F5F5F5F5F5F5F5F5F5F5F5F5F5F5F5F5F5F5F5F5F5F5F5F5F5F5F5F5F5F5F5F5F5F5F5F5F5F5F5F5F5F5F5F5F5F5F5F5F5F5F5F5F5F5F5F5F5F5F5F5F5F5F5F5F5F5F5F5F5F5F5F5E2F5F5F5F5F5F5F5F5F5F5F5E2E2F5F5F5F5F5F5F5F5F5F5F5E2F5F5F5F5F5F5F5F5F5F5F5F5F5F5
310
F5F5F5F5F5F5F5F5F5F5F5F5F5F5F5F5F5F5F5F5F5F5F5F5F5F5F5F5F5F5F5F5F5F5F5F5F5F5F5F5F5F5F5F5F5F5F5F5F5F5F5F5F5F5F5F5F5F5F5F5F5F5F5F5F5F5F5F5F5F5F5F5F5F5F5F5F5F5F5F5F5F5F5F5F5F5F5F5F5F5F5F5F5F5F5F5F5F5F5F5F5F5F5F5F5F5F5F5F5F5F5F5F5F5F5F5F5F5F5F5F5F5F5F5F5F5F5
310
F5F5F5F5F5F5F5F5F5F5F5F5F5E2F5F5F5F5F5F5F5F5F5F5F5E2E2F5F5F5F5F5F5F5F5F5F5F5E2F5F5F5F5F5F5F5F5F5F5F5F5F5F5F5F5F5F5F5F5F5F5F5F5F5F5F5F5F5F5F5F5F5F5F5F5F5F5F5F5F5F5F5F5F5F5F5F5F5F5F5F5F5F5F5F5F5F5F5F5F5F5F5F5F5F5F5F5F5F5F5F5F5F5F5F5F5F5F5F5F5F5F5F5F5F5F5F5
310
F5F5F5F5F5F5F5F5F5F5F5F5F5F5F5F5F5F5F5F5F5F5F5F5F5F5F5F5F5F5F5F5F5F5F5F5F5F5F5F5F5F5F5F5F5F5F5F5F5F5F5F5F5F5F5F5F5F5F5F5F5F5F5F5F5F5E2F5F5F5F5F5F5F5F5F5F5F5E2E2F5F5F5F5F5F5F5F5F5F5F5E2F5F5F5F5F5F5F5F5F5F5F5F5F5F5F5F5F5F5F5F5F5F5F5F5F5F5F5F5F5F5F5F5F5F5F5
310
F5F5F5F5F5F5F5F5F5F5F5F5F5F5F5F5F5F5F5F5F5F5F5F5F5F5F5F5F5F5F5F5F5F5F5F5F5F5F5F5F5F5F5F5F5F5F5F5F5F5F5F5F5F5F5F5F5F5F5F5F5F5F5F5F5F5F5F5F5F5F5F5F5F5F5F5F5F5F5F5F5F5F5F5F5F5F5F5F5F5F5F5F5F5F5F5F5F5F5F5F5F5F5F5F5F5F5F5F5F5F5F5F5F5F5F5F5F5F5E2F5F5F5F5F5F5F5
310
F5F5F5F5E2E2F5F5F5F5F5F5F5F5F5F5F5E2F5F5F5F5F5F5F5F5F5F5F5F5F5F5F5F5F5F5F5F5F5F5F5F5F5F5F5F5F5F5F5F5F5F5F5F5F5F5F5F5F5F5F5F5F5F5F5F5F5F5F5F5F5F5F5F5F5F5F5F5F5F5F5F5F5F5F5F5F5F5F5F5F5F5F5F5F5F5F5F5F5F5F5F5F5F5F5F5F5F5F5F5F5F5F5F5F5F5F5F5F5F5F5F5F5F5F5F5F5
310
F5F5F5F5F5F5F5F5F5F5F5F5F5F5F5F5F5F5F5F5F5F5F5F5F5F5F5F5F5F5F5F5F5F5F5F5F5F5F5F5F5F5F5F5F5E2F5F5F5F5F5F5F5F5F5F5F5E2E2F5F5F5F5F5F5F5F5F5F5F5E2F5F5F5F5F5F5F5F5F5F5F5F5F5F5F5F5F5F5F5F5F5F5F5F5F5F5F5F5F5F5F5F5F5F5F5F5F5F5F5F5F5F5F5F5F5F5F5F5F5F5F5F5F5F5F5F5
310
F5F5F5F5F5F5F5F5F5F5F5F5F5F5F5F5F5F5F5F5F5F5F5F5F5F5F5F5F5F5F5F5F5F5F5F5F5F5F5F5F5F5F5F5F5F5F5F5F5F5F5F5F5F5F5F5F5F5F5F5F5F5F5F5F5F5F5F5F5F5F5F5F5F5F5F5F5F5F5F5F5F5F5F5F5F5F5F5F5F5F5F5F5F5F5F5F5F5E2F5F5F5F5F5F5F5F5F5F5F5E2E2F5F5F5F5F5F5F5F5F5F5F5E2E2E2E2
310
E2E2E2E2E2F5F5F5F5F5F5F5F5F5E2E2E2E2E2E2E2E2E2E2E2E2E2E2E2E2E2F5F5F5F5F5F5F5F5F5E2E2E2E2E2E2E2E2E2E2E2E2E2E2E2E2F5F5F5F5F5F5F5F5F5F5E2E2E2E2E2E2E2E2E2E2E2E2E2E2E2E2F5F5F5F5F5F5F5F5F5F5E2E2E2E2E2E2E2E2E2E2E2E2E2E2E2E2F5F5F5F5F5F5F5F5F5E2E2E2E2E2E2E2E2E2E2
310
E2E2E2E2E2E2E2F5F5F5F5F5F5F5F5F5E2E2E2E2E2E2E2E2E2F5F5F5F5F5F5F5F5F5F5F5E2E2F5F5F5F5F5F5F5F5F5F5F5F5F5F5F5F5F5F5F5F5F5F5F5F5F5F5F5F5F5F5F5F5F5F5F5F5F5F5F5F5F5F5F5F5F5F5F5F5F5F5F5F5F5F5F5F5F5F5F5F5F5F5F5F5F5F5F5F5F5F5F5F5F5F5F5F5F5F5F5F5F5F5F5F5F5F5F5F5F5
310
F5F5F5F5F5F5F5F5F5F5F5F5F5F5F5F5F5F5F5F5F5F5F5F5F5F5F5F5F5F5F5F5F5F5F5F5F5F5F5F5F5F5F5F5F5F5F5F5F5F5F5F5F5F5F5F5F5F5F5F5F5F5F5F5F5F5F5F5F5F5F5F5F5F5F5F5F5F5F5F5F5F5F5F5F5F5F5F5F5E2E2F5F5F5F5F5F5F5F5F5F5F5F5F5F5F5F5F5F5F5F5F5F5F5F5F5F5F5F5F5F5F5F5F5F5F5F5
310
F5F5F5F5F5F5F5F5F5F5F5F5F5F5F5F5F5F5F5F5F5F5F5F5F5F5F5F5F5F5F5F5F5F5F5F5F5F5F5F5F5F5F5F5F5F5F5F5F5F5F5F5F5F5F5F5F5F5F5F5F5F5F5F5F5F5F5F5F5F5F5F5F5F5F5F5F5F5F5F5F5F5F5F5F5F5F5F5F5F5F5F5F5F5F5F5F5F5F5F5F5F5F5F5F5F5F5F5F5F5F5F5F5F5F5F5F5F5F5F5F5F5F5F5F5F5F5
310
F5F5F5F5F5F5F5F5F5F5F5F5F5F5F5E2E2F5F5F5F5F5F5F5F5F5F5F5F5F5F5F5F5F5F5F5F5F5F5F5F5F5F5F5F5F5F5F5F5F5F5F5F5F5F5F5F5F5F5F5F5F5F5F5F5F5F5F5F5F5F5F5F5F5F5F5F5F5F5F5F5F5F5F5F5F5F5F5F5F5F5F5F5F5F5F5F5F5F5F5F5F5F5F5F5F5F5F5F5F5F5F5F5F5F5F5F5F5F5F5F5F5F5F5F5F5F5
310
F5F5F5F5F5F5F5F5F5F5F5F5F5F5F5F5F5F5F5F5F5F5F5F5F5F5F5F5F5F5F5F5F5F5F5F5F5F5F5F5F5F5F5F5F5F5F5F5F5F5F5F5F5F5F5F5F5F5F5F5F5F5F5F5F5F5F5F5E2E2F5F5F5F5F5F5F5F5F5F5F5F5F5F5F5F5F5F5F5F5F5F5F5F5F5F5F5F5F5F5F5F5F5F5F5F5F5F5F5F5F5F5F5F5F5F5F5F5F5F5F5F5F5F5F5F5F5
310
F5F5F5F5F5F5F5F5F5F5F5F5F5F5F5F5F5F5F5F5F5F5F5F5F5F5F5F5F5F5F5F5F5F5F5F5F5F5F5F5F5F5F5F5F5F5F5F5F5F5F5F5F5F5F5F5F5F5F5F5F5F5F5F5F5F5F5F5F5F5F5F5F5F5F5F5F5F5F5F5F5F5F5F5F5F5F5F5F5F5F5F5F5F5F5F5F5F5F5F5F5F5F5F5F5F5F5F5F5F5F5F5F5F5F5F5F5F5F5F5F5E2E2E2E2E2E2
310
E2E2E2E2E2E2E2E2E2E2E2E2E2E2E2E2E2E2E2E2E2E2E2E2E2E2E2E2E2E2E2E2E2E2E2E2E2E2E2E2E2E2E2E2E2E2E2E2E2E2E2E2E2E2E2E2E2E2E2E2E2E2E2E2E2E2E2E2E2E2E2E2E2E2E2E2E2E2E2E2E2E2E2E2E2E2E2E2E2E2E2E2E2E2E2E2E2E2E2E2E2E2E2E2E2E2E2E2E2E2E2E2E2E2E2E2E2E2E2E2E2E2E2E2E2E2E2
310
E2E2E2E2E2E2E2E2E2E2E2E2E2E2E2E2E2E2E2E2E2E2E2E2E2E2E2E2E2E2E2E2E2E2E2E2E2E2E2E2E2E2E2E2E2E2E2E2
  0
ENDSEC
  0
EOF
