  0
SECTION
  2
HEADER
  9
$ACADVER
  1
AC1021
  9
$ACADMAINTVER
 70
     1
  9
$DWGCODEPAGE
  3
ANSI_932
  9
$LASTSAVEDBY
  1
damet
  9
$INSBASE
 10
0.0
 20
0.0
 30
0.0
  9
$EXTMIN
 10
-9871.779766787012
 20
-526.1662443354798
 30
0.0
  9
$EXTMAX
 10
12166.36620336861
 20
11375.74245452839
 30
0.0
  9
$LIMMIN
 10
0.0
 20
0.0
  9
$LIMMAX
 10
0.0
 20
0.0
  9
$ORTHOMODE
 70
     1
  9
$REGENMODE
 70
     1
  9
$FILLMODE
 70
     1
  9
$QTEXTMODE
 70
     0
  9
$MIRRTEXT
 70
     1
  9
$LTSCALE
 40
5.08
  9
$ATTMODE
 70
     1
  9
$TEXTSIZE
 40
0.2
  9
$TRACEWID
 40
1.0
  9
$TEXTSTYLE
  7
Standard
  9
$CLAYER
  8
寸法
  9
$CELTYPE
  6
ByLayer
  9
$CECOLOR
 62
   256
  9
$CELTSCALE
 40
1.0
  9
$DISPSILH
 70
     0
  9
$DIMSCALE
 40
1.0
  9
$DIMASZ
 40
0.5
  9
$DIMEXO
 40
8.0
  9
$DIMDLI
 40
10.16
  9
$DIMRND
 40
0.0
  9
$DIMDLE
 40
1.59
  9
$DIMEXE
 40
3.18
  9
$DIMTP
 40
0.0
  9
$DIMTM
 40
0.0
  9
$DIMTXT
 40
32.0
  9
$DIMCEN
 40
0.0
  9
$DIMTSZ
 40
0.0
  9
$DIMTOL
 70
     0
  9
$DIMLIM
 70
     0
  9
$DIMTIH
 70
     0
  9
$DIMTOH
 70
     0
  9
$DIMSE1
 70
     0
  9
$DIMSE2
 70
     0
  9
$DIMTAD
 70
     1
  9
$DIMZIN
 70
    11
  9
$DIMBLK
  1
DOT
  9
$DIMASO
 70
     1
  9
$DIMSHO
 70
     1
  9
$DIMPOST
  1
<>
  9
$DIMAPOST
  1
[]
  9
$DIMALT
 70
     0
  9
$DIMALTD
 70
     3
  9
$DIMALTF
 40
0.0393700787401575
  9
$DIMLFAC
 40
1.0
  9
$DIMTOFL
 70
     1
  9
$DIMTVP
 40
0.0
  9
$DIMTIX
 70
     1
  9
$DIMSOXD
 70
     0
  9
$DIMSAH
 70
     0
  9
$DIMBLK1
  1

  9
$DIMBLK2
  1

  9
$DIMSTYLE
  2
Yamatoya
  9
$DIMCLRD
 70
     0
  9
$DIMCLRE
 70
     0
  9
$DIMCLRT
 70
     0
  9
$DIMTFAC
 40
1.0
  9
$DIMGAP
 40
1.587499999999999
  9
$DIMJUST
 70
     0
  9
$DIMSD1
 70
     0
  9
$DIMSD2
 70
     0
  9
$DIMTOLJ
 70
     1
  9
$DIMTZIN
 70
    11
  9
$DIMALTZ
 70
    15
  9
$DIMALTTZ
 70
    15
  9
$DIMUPT
 70
     0
  9
$DIMDEC
 70
     0
  9
$DIMTDEC
 70
     0
  9
$DIMALTU
 70
     4
  9
$DIMALTTD
 70
     3
  9
$DIMTXSTY
  7
ヒラギノ角ゴ Pro W3
  9
$DIMAUNIT
 70
     0
  9
$DIMADEC
 70
     2
  9
$DIMALTRND
 40
0.0
  9
$DIMAZIN
 70
     0
  9
$DIMDSEP
 70
    46
  9
$DIMATFIT
 70
     0
  9
$DIMFRAC
 70
     2
  9
$DIMLDRBLK
  1
DOT
  9
$DIMLUNIT
 70
     2
  9
$DIMLWD
 70
    -2
  9
$DIMLWE
 70
    -2
  9
$DIMTMOVE
 70
     2
  9
$DIMFXL
 40
1.0
  9
$DIMFXLON
 70
     0
  9
$DIMJOGANG
 40
0.7853981633974483
  9
$DIMTFILL
 70
     0
  9
$DIMTFILLCLR
 70
     0
  9
$DIMARCSYM
 70
     0
  9
$DIMLTYPE
  6

  9
$DIMLTEX1
  6

  9
$DIMLTEX2
  6

  9
$LUNITS
 70
     2
  9
$LUPREC
 70
     4
  9
$SKETCHINC
 40
0.1
  9
$FILLETRAD
 40
2.0
  9
$AUNITS
 70
     0
  9
$AUPREC
 70
     0
  9
$MENU
  1
acad
  9
$ELEVATION
 40
0.0
  9
$PELEVATION
 40
0.0
  9
$THICKNESS
 40
0.0
  9
$LIMCHECK
 70
     0
  9
$CHAMFERA
 40
1.0
  9
$CHAMFERB
 40
1.0
  9
$CHAMFERC
 40
0.0
  9
$CHAMFERD
 40
0.0
  9
$SKPOLY
 70
     0
  9
$TDCREATE
 40
2455276.758078704
  9
$TDUCREATE
 40
2455276.383078704
  9
$TDUPDATE
 40
2458284.725908484
  9
$TDUUPDATE
 40
2458284.350908484
  9
$TDINDWG
 40
26.2356785417
  9
$TDUSRTIMER
 40
26.2356778472
  9
$USRTIMER
 70
     1
  9
$ANGBASE
 50
0.0
  9
$ANGDIR
 70
     0
  9
$PDMODE
 70
     1
  9
$PDSIZE
 40
-2.0
  9
$PLINEWID
 40
0.0
  9
$SPLFRAME
 70
     0
  9
$SPLINETYPE
 70
     6
  9
$SPLINESEGS
 70
     8
  9
$HANDSEED
  5
A131A
  9
$SURFTAB1
 70
     6
  9
$SURFTAB2
 70
     6
  9
$SURFTYPE
 70
     6
  9
$SURFU
 70
     6
  9
$SURFV
 70
     6
  9
$UCSBASE
  2

  9
$UCSNAME
  2

  9
$UCSORG
 10
0.0
 20
0.0
 30
0.0
  9
$UCSXDIR
 10
1.0
 20
0.0
 30
0.0
  9
$UCSYDIR
 10
0.0
 20
1.0
 30
0.0
  9
$UCSORTHOREF
  2

  9
$UCSORTHOVIEW
 70
     0
  9
$UCSORGTOP
 10
0.0
 20
0.0
 30
0.0
  9
$UCSORGBOTTOM
 10
0.0
 20
0.0
 30
0.0
  9
$UCSORGLEFT
 10
0.0
 20
0.0
 30
0.0
  9
$UCSORGRIGHT
 10
0.0
 20
0.0
 30
0.0
  9
$UCSORGFRONT
 10
0.0
 20
0.0
 30
0.0
  9
$UCSORGBACK
 10
0.0
 20
0.0
 30
0.0
  9
$PUCSBASE
  2

  9
$PUCSNAME
  2

  9
$PUCSORG
 10
0.0
 20
0.0
 30
0.0
  9
$PUCSXDIR
 10
1.0
 20
0.0
 30
0.0
  9
$PUCSYDIR
 10
0.0
 20
1.0
 30
0.0
  9
$PUCSORTHOREF
  2

  9
$PUCSORTHOVIEW
 70
     0
  9
$PUCSORGTOP
 10
0.0
 20
0.0
 30
0.0
  9
$PUCSORGBOTTOM
 10
0.0
 20
0.0
 30
0.0
  9
$PUCSORGLEFT
 10
0.0
 20
0.0
 30
0.0
  9
$PUCSORGRIGHT
 10
0.0
 20
0.0
 30
0.0
  9
$PUCSORGFRONT
 10
0.0
 20
0.0
 30
0.0
  9
$PUCSORGBACK
 10
0.0
 20
0.0
 30
0.0
  9
$USERI1
 70
     0
  9
$USERI2
 70
     0
  9
$USERI3
 70
     0
  9
$USERI4
 70
     0
  9
$USERI5
 70
     0
  9
$USERR1
 40
0.0
  9
$USERR2
 40
0.0
  9
$USERR3
 40
0.0
  9
$USERR4
 40
0.0
  9
$USERR5
 40
0.0
  9
$WORLDVIEW
 70
     1
  9
$SHADEDGE
 70
     3
  9
$SHADEDIF
 70
    70
  9
$TILEMODE
 70
     1
  9
$MAXACTVP
 70
    64
  9
$PINSBASE
 10
0.0
 20
0.0
 30
0.0
  9
$PLIMCHECK
 70
     0
  9
$PEXTMIN
 10
25.69999999999999
 20
19.5
 30
0.0
  9
$PEXTMAX
 10
231.3
 20
175.5
 30
0.0
  9
$PLIMMIN
 10
-20.0
 20
-7.5
  9
$PLIMMAX
 10
277.0
 20
202.5
  9
$UNITMODE
 70
     0
  9
$VISRETAIN
 70
     0
  9
$PLINEGEN
 70
     1
  9
$PSLTSCALE
 70
     1
  9
$TREEDEPTH
 70
  3020
  9
$CMLSTYLE
  2
Standard
  9
$CMLJUST
 70
     0
  9
$CMLSCALE
 40
1.0
  9
$PROXYGRAPHICS
 70
     0
  9
$MEASUREMENT
 70
     1
  9
$CELWEIGHT
370
    -1
  9
$ENDCAPS
280
     0
  9
$JOINSTYLE
280
     0
  9
$LWDISPLAY
290
     1
  9
$INSUNITS
 70
     4
  9
$HYPERLINKBASE
  1

  9
$STYLESHEET
  1

  9
$XEDIT
290
     1
  9
$CEPSNTYPE
380
     0
  9
$PSTYLEMODE
290
     1
  9
$FINGERPRINTGUID
  2

  9
$VERSIONGUID
  2
{A4E70FF4-BCC8-4C2F-8507-50AFCCEDB844}
  9
$EXTNAMES
290
     1
  9
$PSVPSCALE
 40
0.0
  9
$OLESTARTUP
290
     0
  9
$SORTENTS
280
   127
  9
$INDEXCTL
280
     0
  9
$HIDETEXT
280
     0
  9
$XCLIPFRAME
290
     0
  9
$HALOGAP
280
     0
  9
$OBSCOLOR
 70
   257
  9
$OBSLTYPE
280
     0
  9
$INTERSECTIONDISPLAY
280
     0
  9
$INTERSECTIONCOLOR
 70
   257
  9
$DIMASSOC
280
     1
  9
$PROJECTNAME
  1

  9
$CAMERADISPLAY
290
     0
  9
$LENSLENGTH
 40
50.0
  9
$CAMERAHEIGHT
 40
0.0
  9
$STEPSPERSEC
 40
2.0
  9
$STEPSIZE
 40
6.0
  9
$3DDWFPREC
 40
2.0
  9
$PSOLWIDTH
 40
0.25
  9
$PSOLHEIGHT
 40
4.0
  9
$LOFTANG1
 40
1.570796326794896
  9
$LOFTANG2
 40
1.570796326794896
  9
$LOFTMAG1
 40
0.0
  9
$LOFTMAG2
 40
0.0
  9
$LOFTPARAM
 70
     7
  9
$LOFTNORMALS
280
     1
  9
$LATITUDE
 40
37.795
  9
$LONGITUDE
 40
-122.394
  9
$NORTHDIRECTION
 40
0.0
  9
$TIMEZONE
 70
 -8000
  9
$LIGHTGLYPHDISPLAY
280
     1
  9
$TILEMODELIGHTSYNCH
280
     1
  9
$CMATERIAL
347
96E
  9
$SOLIDHIST
280
     1
  9
$SHOWHIST
280
     1
  9
$DWFFRAME
280
     2
  9
$DGNFRAME
280
     0
  9
$REALWORLDSCALE
290
     1
  9
$INTERFERECOLOR
 62
     1
  9
$INTERFEREOBJVS
345
97B
  9
$INTERFEREVPVS
346
978
  9
$CSHADOW
280
     0
  9
$SHADOWPLANELOCATION
 40
0.0
  0
ENDSEC
  0
SECTION
  2
CLASSES
  0
CLASS
  1
IMAGE
  2
AcDbRasterImage
  3
ISM
 90
     2175
 91
        0
280
     0
281
     1
  0
CLASS
  1
DICTIONARYVAR
  2
AcDbDictionaryVar
  3
ObjectDBX Classes
 90
        0
 91
        2
280
     0
281
     0
  0
CLASS
  1
RASTERVARIABLES
  2
AcDbRasterVariables
  3
ISM
 90
        0
 91
        0
280
     0
281
     0
  0
CLASS
  1
IMAGEDEF
  2
AcDbRasterImageDef
  3
ISM
 90
        0
 91
        0
280
     0
281
     0
  0
CLASS
  1
IMAGEDEF_REACTOR
  2
AcDbRasterImageDefReactor
  3
ISM
 90
        1
 91
        0
280
     0
281
     0
  0
CLASS
  1
IDBUFFER
  2
AcDbIdBuffer
  3
ObjectDBX Classes
 90
        0
 91
        0
280
     0
281
     0
  0
CLASS
  1
SPATIAL_FILTER
  2
AcDbSpatialFilter
  3
ObjectDBX Classes
 90
        0
 91
        0
280
     0
281
     0
  0
CLASS
  1
SORTENTSTABLE
  2
AcDbSortentsTable
  3
ObjectDBX Classes
 90
        0
 91
        5
280
     0
281
     0
  0
CLASS
  1
LAYER_INDEX
  2
AcDbLayerIndex
  3
ObjectDBX Classes
 90
        0
 91
        0
280
     0
281
     0
  0
CLASS
  1
SPATIAL_INDEX
  2
AcDbSpatialIndex
  3
ObjectDBX Classes
 90
        0
 91
        0
280
     0
281
     0
  0
CLASS
  1
OBJECT_PTR
  2
CAseDLPNTableRecord
  3
ASE-LPNTableRecord
 90
        1
 91
        0
280
     0
281
     0
  0
CLASS
  1
PLOTSETTINGS
  2
AcDbPlotSettings
  3
ObjectDBX Classes
 90
        0
 91
        0
280
     0
281
     0
  0
CLASS
  1
ACDBDICTIONARYWDFLT
  2
AcDbDictionaryWithDefault
  3
ObjectDBX Classes
 90
        0
 91
        1
280
     0
281
     0
  0
CLASS
  1
WIPEOUT
  2
AcDbWipeout
  3
"WipeOut|Product Desc: Object Enabler for WipeOut entity                        |Company: Autodesk, Inc.                        |WEB Address: www.autodesk.com"
 90
     2175
 91
        0
280
     0
281
     1
  0
CLASS
  1
WIPEOUTVARIABLES
  2
AcDbWipeoutVariables
  3
"WipeOut|Product Desc:     WipeOut Dbx Application|Company:          Autodesk, Inc.|WEB Address:      www.autodesk.com"
 90
        0
 91
        1
280
     0
281
     0
  0
CLASS
  1
RTEXT
  2
RText
  3
RText|AutoCAD Express Tool|expresstools@autodesk.com
 90
        0
 91
        0
280
     0
281
     1
  0
CLASS
  1
ARCALIGNEDTEXT
  2
AcDbArcAlignedText
  3
ATEXT|AutoCAD Express Tool|expresstools@autodesk.com
 90
        0
 91
        0
280
     0
281
     1
  0
CLASS
  1
MATERIAL
  2
AcDbMaterial
  3
ObjectDBX Classes
 90
     1024
 91
        3
280
     0
281
     0
  0
CLASS
  1
VISUALSTYLE
  2
AcDbVisualStyle
  3
ObjectDBX Classes
 90
     4095
 91
       16
280
     0
281
     0
  0
CLASS
  1
TABLESTYLE
  2
AcDbTableStyle
  3
ObjectDBX Classes
 90
     4095
 91
        1
280
     0
281
     0
  0
CLASS
  1
LARGE_RADIAL_DIMENSION
  2
AcDbRadialDimensionLarge
  3
ObjectDBX Classes
 90
     1025
 91
        0
280
     0
281
     1
  0
ENDSEC
  0
SECTION
  2
TABLES
  0
TABLE
  2
VPORT
  5
7
102
{ACAD_XDICTIONARY
360
3A0F
102
}
330
0
100
AcDbSymbolTable
 70
     1
  0
VPORT
  5
15
330
7
100
AcDbSymbolTableRecord
100
AcDbViewportTableRecord
  2
*ACTIVE
 70
     0
 10
0.0
 20
0.0
 11
1.0
 21
1.0
 12
-7906.931597922528
 22
436.5179610968389
 13
0.0
 23
0.0
 14
1.0
 24
1.0
 15
0.0
 25
0.0
 16
0.0
 26
0.0
 36
1.0
 17
0.0
 27
0.0
 37
0.0
 40
2089.994924713082
 41
1.927536231884057
 42
50.0
 43
0.0
 44
0.0
 50
0.0
 51
0.0
 71
     0
 72
  2000
 73
     1
 74
     1
 75
     0
 76
     0
 77
     0
 78
     1
281
     0
 65
     0
110
0.0
120
0.0
130
0.0
111
1.0
121
0.0
131
0.0
112
0.0
122
1.0
132
0.0
 79
     0
146
0.0
348
977
 60
     3
 61
     5
292
     1
282
     1
141
0.0
142
0.0
 63
   250
421
  3355443
  0
ENDTAB
  0
TABLE
  2
LTYPE
  5
4
330
0
100
AcDbSymbolTable
 70
     4
  0
LTYPE
  5
11
330
4
100
AcDbSymbolTableRecord
100
AcDbLinetypeTableRecord
  2
ByBlock
 70
     0
  3

 72
    65
 73
     0
 40
0.0
  0
LTYPE
  5
12
330
4
100
AcDbSymbolTableRecord
100
AcDbLinetypeTableRecord
  2
ByLayer
 70
     0
  3

 72
    65
 73
     0
 40
0.0
  0
LTYPE
  5
13
330
4
100
AcDbSymbolTableRecord
100
AcDbLinetypeTableRecord
  2
Continuous
 70
     0
  3
Solid line
 72
    65
 73
     0
 40
0.0
  0
LTYPE
  5
82
330
4
100
AcDbSymbolTableRecord
100
AcDbLinetypeTableRecord
  2
Hidden
 70
     0
  3

 72
    65
 73
     2
 40
0.4166400000000002
 49
0.20828
 74
     0
 49
-0.20836
 74
     0
  0
LTYPE
  5
87
330
4
100
AcDbSymbolTableRecord
100
AcDbLinetypeTableRecord
  2
Center
 70
     0
  3

 72
    65
 73
     4
 40
1.041639999999999
 49
0.625
 74
     0
 49
-0.20828
 74
     0
 49
0.0694300000000001
 74
     0
 49
-0.13893
 74
     0
  0
LTYPE
  5
89
330
4
100
AcDbSymbolTableRecord
100
AcDbLinetypeTableRecord
  2
STYLE_08
 70
     0
  3

 72
    65
 73
     6
 40
1.25
 49
0.625
 74
     0
 49
-0.20828
 74
     0
 49
0.0694300000000001
 74
     0
 49
-0.13893
 74
     0
 49
0.0694299999999999
 74
     0
 49
-0.13893
 74
     0
  0
ENDTAB
  0
TABLE
  2
LAYER
  5
2
102
{ACAD_XDICTIONARY
360
C1E
102
}
330
0
100
AcDbSymbolTable
 70
    14
  0
LAYER
  5
14
330
2
100
AcDbSymbolTableRecord
100
AcDbLayerTableRecord
  2
0
 70
     0
 62
     7
  6
Continuous
370
    -3
390
1D
347
970
  0
LAYER
  5
8C
330
2
100
AcDbSymbolTableRecord
100
AcDbLayerTableRecord
  2
妻枠
 70
     0
 62
   174
  6
Continuous
370
    25
390
1D
347
970
  0
LAYER
  5
8D
330
2
100
AcDbSymbolTableRecord
100
AcDbLayerTableRecord
  2
寸法
 70
     0
 62
     7
  6
Continuous
370
    13
390
1D
347
970
  0
LAYER
  5
1102B
330
2
100
AcDbSymbolTableRecord
100
AcDbLayerTableRecord
  2
レイヤー 1
 70
     0
 62
     7
  6
Continuous
370
    -3
390
1D
347
970
  0
LAYER
  5
14CE1
330
2
100
AcDbSymbolTableRecord
100
AcDbLayerTableRecord
  2
床板
 70
     0
 62
   114
  6
Continuous
370
    25
390
1D
347
970
1001
AcAecLayerStandard
1000

1000

  0
LAYER
  5
14CE4
330
2
100
AcDbSymbolTableRecord
100
AcDbLayerTableRecord
  2
収納棚板
 70
     0
 62
    36
  6
Continuous
370
    25
390
1D
347
970
1001
AcAecLayerStandard
1000

1000

  0
LAYER
  5
14CE7
330
2
100
AcDbSymbolTableRecord
100
AcDbLayerTableRecord
  2
ボルト
 70
     0
 62
   152
  6
Continuous
370
    25
390
1D
347
970
1001
AcAecLayerStandard
1000

1000

  0
LAYER
  5
14CEA
330
2
100
AcDbSymbolTableRecord
100
AcDbLayerTableRecord
  2
ナット
 70
     0
 62
   224
  6
Continuous
370
    25
390
1D
347
970
1001
AcAecLayerStandard
1000

1000

  0
LAYER
  5
14CED
330
2
100
AcDbSymbolTableRecord
100
AcDbLayerTableRecord
  2
木ネジ、ダボ
 70
     0
 62
    44
  6
Continuous
370
    25
390
1D
347
970
1001
AcAecLayerStandard
1000

1000

  0
LAYER
  5
14CF0
330
2
100
AcDbSymbolTableRecord
100
AcDbLayerTableRecord
  2
樹脂
 70
     0
 62
    94
  6
Continuous
370
    25
390
1D
347
970
1001
AcAecLayerStandard
1000

1000

  0
ENDTAB
  0
TABLE
  2
STYLE
  5
3
330
0
100
AcDbSymbolTable
 70
     3
  0
STYLE
  5
17
330
3
100
AcDbSymbolTableRecord
100
AcDbTextStyleTableRecord
  2
Standard
 70
     0
 40
0.0
 41
1.0
 50
0.0
 71
     0
 42
0.2
  3

  4

1001
ACAD
1000
MS Gothic
1071
    32817
  0
STYLE
  5
81
330
3
100
AcDbSymbolTableRecord
100
AcDbTextStyleTableRecord
  2
ヒラギノ角ゴ Pro W3
 70
     0
 40
0.0
 41
1.0
 50
0.0
 71
     0
 42
0.0
  3

  4

1001
ACAD
1000
MS Gothic
1071
    32817
  0
ENDTAB
  0
TABLE
  2
VIEW
  5
5
330
0
100
AcDbSymbolTable
 70
     1
  0
VIEW
  5
9354C
330
5
100
AcDbSymbolTableRecord
100
AcDbViewTableRecord
  2
OLE1
 70
     1
 40
519.9812443812303
 10
-76.29340752449434
 20
178.1947839552494
 41
1096.09081045738
 11
0.0
 21
0.0
 31
1.0
 12
0.0
 22
0.0
 32
0.0
 42
50.0
 43
0.0
 44
0.0
 50
0.0
 71
     0
281
     0
 72
     0
 73
     0
348
977
  0
ENDTAB
  0
TABLE
  2
UCS
  5
6
330
0
100
AcDbSymbolTable
 70
     0
  0
ENDTAB
  0
TABLE
  2
APPID
  5
8
330
0
100
AcDbSymbolTable
 70
    10
  0
APPID
  5
16
330
8
100
AcDbSymbolTableRecord
100
AcDbRegAppTableRecord
  2
ACAD
 70
     0
  0
APPID
  5
98C
330
8
100
AcDbSymbolTableRecord
100
AcDbRegAppTableRecord
  2
DCO15
 70
     0
  0
APPID
  5
991
330
8
100
AcDbSymbolTableRecord
100
AcDbRegAppTableRecord
  2
ACAD_EXEMPT_FROM_CAD_STANDARDS
 70
     0
  0
APPID
  5
C1D
330
8
100
AcDbSymbolTableRecord
100
AcDbRegAppTableRecord
  2
ACAD_PSEXT
 70
     0
  0
APPID
  5
93A3
330
8
100
AcDbSymbolTableRecord
100
AcDbRegAppTableRecord
  2
ACAD_DSTYLE_DIMJOGGED_JOGANGLE_SYMBOL
 70
     0
  0
APPID
  5
93A4
330
8
100
AcDbSymbolTableRecord
100
AcDbRegAppTableRecord
  2
AcAecLayerStandard
 70
     0
  0
APPID
  5
D99E
330
8
100
AcDbSymbolTableRecord
100
AcDbRegAppTableRecord
  2
ACAD_DSTYLE_DIMEXT_ENABLED
 70
     0
  0
APPID
  5
D99F
330
8
100
AcDbSymbolTableRecord
100
AcDbRegAppTableRecord
  2
ACAD_DSTYLE_DIMEXT_LENGTH
 70
     0
  0
APPID
  5
1102C
330
8
100
AcDbSymbolTableRecord
100
AcDbRegAppTableRecord
  2
AcDbDynamicBlockGUID
 70
     0
  0
APPID
  5
1102D
330
8
100
AcDbSymbolTableRecord
100
AcDbRegAppTableRecord
  2
AcDbBlockRepETag
 70
     0
  0
ENDTAB
  0
TABLE
  2
DIMSTYLE
  5
9
330
0
100
AcDbSymbolTable
 70
     2
100
AcDbDimStyleTable
 71
     1
340
CD7E
  0
DIMSTYLE
105
CD7E
330
9
100
AcDbSymbolTableRecord
100
AcDbDimStyleTableRecord
  2
Yamatoya
 70
     0
  3
<>
  4
[]
 41
0.5
 42
8.0
 43
10.16
 44
3.18
 46
1.59
 73
     0
 74
     0
 77
     1
 78
    11
140
32.0
141
0.0
143
0.0393700787401575
147
1.587499999999999
171
     3
172
     1
174
     1
179
     2
271
     0
272
     0
273
     4
274
     3
276
     2
279
     2
284
    11
285
    15
286
    15
289
     0
340
81
341
8F
342
8F
  0
ENDTAB
  0
TABLE
  2
BLOCK_RECORD
  5
1
330
0
100
AcDbSymbolTable
 70
     5
  0
BLOCK_RECORD
  5
A
102
{ACAD_XDICTIONARY
360
9CE
102
}
330
1
100
AcDbSymbolTableRecord
100
AcDbBlockTableRecord
  2
*MODEL_SPACE
340
20
 70
     0
280
     1
281
     0
  0
BLOCK_RECORD
  5
A12F3
330
1
100
AcDbSymbolTableRecord
100
AcDbBlockTableRecord
  2
*Paper_Space
340
A12F4
 70
     0
280
     1
281
     0
  0
BLOCK_RECORD
  5
8F
330
1
100
AcDbSymbolTableRecord
100
AcDbBlockTableRecord
  2
_DOT
340
0
 70
     0
280
     1
281
     0
  0
ENDTAB
  0
ENDSEC
  0
SECTION
  2
BLOCKS
  0
BLOCK
  5
D
330
A
100
AcDbEntity
  8
0
100
AcDbBlockBegin
  2
*MODEL_SPACE
 70
     0
 10
0.0
 20
0.0
 30
0.0
  3
*MODEL_SPACE
  1

  0
ENDBLK
  5
E
330
A
100
AcDbEntity
  8
0
100
AcDbBlockEnd
  0
BLOCK
  5
A12F5
330
A12F3
100
AcDbEntity
 67
     1
  8
0
100
AcDbBlockBegin
  2
*Paper_Space
 70
     0
 10
0.0
 20
0.0
 30
0.0
  3
*Paper_Space
  1

  0
ENDBLK
  5
A12F6
330
A12F3
100
AcDbEntity
 67
     1
  8
0
100
AcDbBlockEnd
  0
BLOCK
  5
90
330
8F
100
AcDbEntity
  8
0
100
AcDbBlockBegin
  2
_DOT
 70
     0
 10
0.0
 20
0.0
 30
0.0
  3
_DOT
  1

  0
POLYLINE
  5
91
330
8F
100
AcDbEntity
  8
0
  6
ByBlock
 62
     0
370
    -2
100
AcDb2dPolyline
 66
     1
 10
0.0
 20
0.0
 30
0.0
 70
     1
 40
0.5
 41
0.5
  0
VERTEX
  5
92
330
91
100
AcDbEntity
  8
0
  6
ByBlock
 62
     0
370
    -2
100
AcDbVertex
100
AcDb2dVertex
 10
-0.25
 20
0.0
 30
0.0
 42
1.0
  0
VERTEX
  5
93
330
91
100
AcDbEntity
  8
0
  6
ByBlock
 62
     0
370
    -2
100
AcDbVertex
100
AcDb2dVertex
 10
0.25
 20
0.0
 30
0.0
 42
1.0
  0
SEQEND
  5
94
330
91
100
AcDbEntity
  8
0
  0
LINE
  5
95
330
8F
100
AcDbEntity
  8
0
  6
ByBlock
 62
     0
370
    -2
100
AcDbLine
 10
-0.5
 20
0.0
 30
0.0
 11
-1.0
 21
0.0
 31
0.0
  0
ENDBLK
  5
96
330
8F
100
AcDbEntity
  8
0
100
AcDbBlockEnd
  0
ENDSEC
  0
SECTION
  2
ENTITIES
  0
LINE
  5
8A8E8
330
A
100
AcDbEntity
  8
寸法
  6
Center
100
AcDbLine
 10
12166.36620336861
 20
11369.4969008751
 30
0.0
 11
12129.60516974809
 21
11375.74245452839
 31
0.0
  0
MTEXT
  5
8AA22
330
A
100
AcDbEntity
  8
寸法
 48
2.0
100
AcDbMText
 10
6093.536354670446
 20
5750.308056346021
 30
0.0
 40
32.0
 41
35.0
 46
0.0
 71
     1
 72
     1
  1
\A1;
  7
ヒラギノ角ゴ Pro W3
 73
     1
 44
1.0
  0
LINE
  5
9DBF5
330
A
100
AcDbEntity
  8
妻枠
 62
     7
370
    50
100
AcDbLine
 10
-9531.998349461089
 20
1293.970262478704
 30
0.0
 11
-9531.998349461089
 21
1046.970262478704
 31
0.0
  0
LINE
  5
9DBF6
330
A
100
AcDbEntity
  8
妻枠
 62
     7
370
    50
100
AcDbLine
 10
-9431.998349461084
 20
1253.970262478704
 30
0.0
 11
-9431.998349461087
 21
839.9702624787003
 31
0.0
  0
LINE
  5
9DBF8
330
A
100
AcDbEntity
  8
妻枠
 62
     7
370
    50
100
AcDbLine
 10
-9431.998349461087
 20
-7.166244335479857
 30
0.0
 11
-9431.998349461087
 21
-17.16624433547986
 31
0.0
  0
LINE
  5
9DBF9
330
A
100
AcDbEntity
  8
妻枠
 62
     7
370
    50
100
AcDbLine
 10
-9432.998349461085
 20
-18.16624433548009
 30
0.0
 11
-9431.998349461087
 21
-17.16624433548008
 31
0.0
  0
LINE
  5
9DBFE
330
A
100
AcDbEntity
  8
妻枠
 62
     7
370
    50
100
AcDbLine
 10
-9531.998349461089
 20
1047.61322029858
 30
0.0
 11
-9531.998349461089
 21
996.9702624787045
 31
0.0
  0
ARC
  5
9DC00
330
A
100
AcDbEntity
  8
妻枠
 62
     7
370
    50
100
AcDbCircle
 10
-9529.998349461086
 20
799.9702624787032
 30
0.0
 40
2.0
100
AcDbArc
 50
180.0
 51
279.3693850964457
  0
LINE
  5
9DC01
330
A
100
AcDbEntity
  8
妻枠
 62
     7
370
    50
100
AcDbLine
 10
-9371.998349461085
 20
1046.970262478704
 30
0.0
 11
-9371.998349461085
 21
1046.970262478704
 31
0.0
  0
ARC
  5
9DC02
330
A
100
AcDbEntity
  8
妻枠
 62
     7
370
    50
100
AcDbCircle
 10
-9356.998349461086
 20
1046.970262478704
 30
0.0
 40
15.0
100
AcDbArc
 50
180.0
 51
270.0
  0
LINE
  5
9DC03
330
A
100
AcDbEntity
  8
妻枠
 62
     7
370
    50
100
AcDbLine
 10
-9531.998349461089
 20
329.8337556645202
 30
0.0
 11
-9531.998349461089
 21
31.83375566452014
 31
0.0
  0
ARC
  5
9DC04
330
A
100
AcDbEntity
  8
妻枠
 62
     7
370
    50
100
AcDbCircle
 10
-9481.998349461086
 20
31.83375566452014
 30
0.0
 40
50.0
100
AcDbArc
 50
180.0
 51
270.0
  0
ARC
  5
9DC05
330
A
100
AcDbEntity
  8
妻枠
 62
     7
370
    50
100
AcDbCircle
 10
-9481.998349461086
 20
31.83375566452014
 30
0.0
 40
38.0
100
AcDbArc
 50
180.0
 51
270.0
  0
LINE
  5
9DC07
330
A
100
AcDbEntity
  8
妻枠
 62
     7
370
    50
100
AcDbLine
 10
-9519.998349461086
 20
1292.689790947128
 30
0.0
 11
-9519.998349461086
 21
1046.970262478703
 31
0.0
  0
LINE
  5
9DC08
330
A
100
AcDbEntity
  8
妻枠
 62
     7
370
    50
100
AcDbLine
 10
-9519.998349461086
 20
1046.970262478704
 30
0.0
 11
-9519.998349461086
 21
996.9702624787057
 31
0.0
  0
LINE
  5
9DC09
330
A
100
AcDbEntity
  8
妻枠
 62
     7
370
    50
100
AcDbLine
 10
-9519.998349461086
 20
996.9702624787053
 30
0.0
 11
-9519.998349461086
 21
801.2507340102795
 31
0.0
  0
LINE
  5
9DC0A
330
A
100
AcDbEntity
  8
妻枠
 62
     7
370
    50
100
AcDbLine
 10
-9519.998349461086
 20
329.8337556645202
 30
0.0
 11
-9519.998349461086
 21
31.83375566452014
 31
0.0
  0
ARC
  5
9DC0B
330
A
100
AcDbEntity
  8
妻枠
 62
     7
370
    50
100
AcDbCircle
 10
-9521.998349461084
 20
329.8337556645202
 30
0.0
 40
2.0
100
AcDbArc
 50
0.0
 51
90.0
  0
LINE
  5
9DC11
330
A
100
AcDbEntity
  8
妻枠
 62
     7
370
    50
100
AcDbLine
 10
-9356.998349461086
 20
1031.970262478704
 30
0.0
 11
-9119.998349461086
 21
1031.970262478704
 31
0.0
  0
LINE
  5
9DC12
330
A
100
AcDbEntity
  8
妻枠
 62
     7
370
    50
100
AcDbLine
 10
-9356.998349461086
 20
1061.970262478704
 30
0.0
 11
-9119.998349461086
 21
1061.970262478704
 31
0.0
  0
ARC
  5
9DC13
330
A
100
AcDbEntity
  8
妻枠
 62
     7
370
    50
100
AcDbCircle
 10
-9356.998349461086
 20
1046.970262478704
 30
0.0
 40
15.0
100
AcDbArc
 50
90.0
 51
180.0
  0
LINE
  5
9DC14
330
A
100
AcDbEntity
  8
寸法
 62
     7
100
AcDbLine
 10
-9541.998349461087
 20
1286.970262478704
 30
0.0
 11
-9541.998349461087
 21
1286.970262478704
 31
0.0
  0
LINE
  5
9DC15
330
A
100
AcDbEntity
  8
妻枠
 62
     7
370
    30
100
AcDbLine
 10
-9519.998349461088
 20
1270.57026247869
 30
0.0
 11
-9119.998349461088
 21
1270.570262478618
 31
0.0
  0
LINE
  5
9DC16
330
A
100
AcDbEntity
  8
妻枠
 62
     7
370
    30
100
AcDbLine
 10
-9519.998349461086
 20
1270.570262478704
 30
0.0
 11
-9119.998349461086
 21
1270.570262478704
 31
0.0
  0
LINE
  5
9DC17
330
A
100
AcDbEntity
  8
寸法
 62
     7
100
AcDbLine
 10
-9541.998349461087
 20
806.9702624787039
 30
0.0
 11
-9541.998349461087
 21
806.9702624787039
 31
0.0
  0
LINE
  5
9DC18
330
A
100
AcDbEntity
  8
寸法
 62
     7
100
AcDbLine
 10
-9519.998349461086
 20
1284.970262478703
 30
0.0
 11
-9519.998349461086
 21
1268.970262478703
 31
0.0
  0
LINE
  5
9DC19
330
A
100
AcDbEntity
  8
寸法
 62
     7
100
AcDbLine
 10
-9519.998349461086
 20
824.9702624787039
 30
0.0
 11
-9519.998349461086
 21
808.9702624787037
 31
0.0
  0
LINE
  5
9DC1A
330
A
100
AcDbEntity
  8
妻枠
 62
     7
370
    50
100
AcDbLine
 10
-9529.998349461086
 20
331.8337556645202
 30
0.0
 11
-9521.998349461084
 21
331.8337556645202
 31
0.0
  0
LINE
  5
9DC1B
330
A
100
AcDbEntity
  8
樹脂
 62
     7
370
    50
100
AcDbLine
 10
-9541.998349461094
 20
143.8337556645199
 30
0.0
 11
-9541.998349461094
 21
143.8337556645199
 31
0.0
  0
ARC
  5
9DC1C
330
A
100
AcDbEntity
  8
妻枠
 62
     7
370
    50
100
AcDbCircle
 10
-9529.998349461086
 20
329.8337556645202
 30
0.0
 40
2.0
100
AcDbArc
 50
90.0
 51
180.0
  0
LINE
  5
9DC1D
330
A
100
AcDbEntity
  8
妻枠
 62
     7
370
    50
100
AcDbLine
 10
-9481.998349461086
 20
-18.16624433547986
 30
0.0
 11
-9432.998349461085
 21
-18.16624433548009
 31
0.0
  0
LINE
  5
9DC1E
330
A
100
AcDbEntity
  8
妻枠
 62
     7
370
    50
100
AcDbLine
 10
-9430.998349461086
 20
-18.16624433547986
 30
0.0
 11
-9119.998349461088
 21
-18.16624433547986
 31
0.0
  0
LINE
  5
9DC20
330
A
100
AcDbEntity
  8
妻枠
 62
     7
370
    50
100
AcDbLine
 10
-9431.998349461087
 20
-17.16624433547986
 30
0.0
 11
-9430.998349461086
 21
-18.16624433547986
 31
0.0
  0
LINE
  5
9DC21
330
A
100
AcDbEntity
  8
妻枠
 62
     7
370
    50
100
AcDbLine
 10
-9481.998349461086
 20
-6.166244335479857
 30
0.0
 11
-9432.998349461085
 21
-6.166244335479857
 31
0.0
  0
LINE
  5
9DC22
330
A
100
AcDbEntity
  8
妻枠
 62
     7
370
    50
100
AcDbLine
 10
-9431.998349461087
 20
-7.166244335479857
 30
0.0
 11
-9432.998349461085
 21
-6.166244335479857
 31
0.0
  0
LINE
  5
9DC23
330
A
100
AcDbEntity
  8
妻枠
 62
     7
370
    50
100
AcDbLine
 10
-9430.998349461086
 20
-6.166244335480087
 30
0.0
 11
-9119.998349461088
 21
-6.166244335480087
 31
0.0
  0
LINE
  5
9DC25
330
A
100
AcDbEntity
  8
妻枠
 62
     7
370
    50
100
AcDbLine
 10
-9431.998349461087
 20
-7.166244335480087
 30
0.0
 11
-9430.998349461086
 21
-6.166244335480087
 31
0.0
  0
LINE
  5
9DC26
330
A
100
AcDbEntity
  8
妻枠
 62
     7
370
    50
100
AcDbLine
 10
-9483.998349461087
 20
28.83375566452059
 30
0.0
 11
-9119.998349461086
 21
28.83375566452038
 31
0.0
  0
LINE
  5
9DC2C
330
A
100
AcDbEntity
  8
妻枠
 62
     7
370
    50
100
AcDbLine
 10
-9488.998349461065
 20
313.8337556645654
 30
0.0
 11
-9119.998349461086
 21
313.8337556645206
 31
0.0
  0
LINE
  5
9DC2E
330
A
100
AcDbEntity
  8
妻枠
 62
     7
370
    30
100
AcDbLine
 10
-9483.998349461087
 20
278.8337556645203
 30
0.0
 11
-9119.998349461086
 21
278.8337556645203
 31
0.0
  0
ARC
  5
9DC4A
330
A
100
AcDbEntity
  8
妻枠
 62
     7
370
    50
100
AcDbCircle
 10
-9480.998349461087
 20
31.83375566452014
 30
0.0
 40
38.0
100
AcDbArc
 50
180.0
 51
270.0
  0
LINE
  5
9DC4B
330
A
100
AcDbEntity
  8
妻枠
 62
     7
370
    50
100
AcDbLine
 10
-9518.998613553387
 20
294.3488821623926
 30
0.0
 11
-9518.998349461083
 21
31.83375566452014
 31
0.0
  0
LINE
  5
9DC4C
330
A
100
AcDbEntity
  8
妻枠
 62
     7
370
    30
100
AcDbLine
 10
-9483.998349461087
 20
278.8337556645199
 30
0.0
 11
-9483.998349461087
 21
28.83375566452014
 31
0.0
  0
LINE
  5
9DC4F
330
A
100
AcDbEntity
  8
妻枠
 62
     7
370
    50
100
AcDbLine
 10
-9371.998349461085
 20
1156.970262478704
 30
0.0
 11
-9371.998349461085
 21
1156.970262478704
 31
0.0
  0
ARC
  5
9DC50
330
A
100
AcDbEntity
  8
妻枠
 62
     7
370
    50
100
AcDbCircle
 10
-9356.998349461086
 20
1156.970262478704
 30
0.0
 40
15.0
100
AcDbArc
 50
180.0
 51
270.0
  0
LINE
  5
9DC51
330
A
100
AcDbEntity
  8
妻枠
 62
     7
370
    50
100
AcDbLine
 10
-9356.998349461086
 20
1141.970262478704
 30
0.0
 11
-9119.998349461086
 21
1141.970262478704
 31
0.0
  0
LINE
  5
9DC52
330
A
100
AcDbEntity
  8
妻枠
 62
     7
370
    50
100
AcDbLine
 10
-9356.998349461086
 20
1171.970262478704
 30
0.0
 11
-9119.998349461086
 21
1171.970262478704
 31
0.0
  0
ARC
  5
9DC53
330
A
100
AcDbEntity
  8
妻枠
 62
     7
370
    50
100
AcDbCircle
 10
-9356.998349461086
 20
1156.970262478704
 30
0.0
 40
15.0
100
AcDbArc
 50
90.0
 51
180.0
  0
LINE
  5
9DC54
330
A
100
AcDbEntity
  8
妻枠
 62
     7
370
    50
100
AcDbLine
 10
-9371.998349461085
 20
936.970262478704
 30
0.0
 11
-9371.998349461085
 21
936.970262478704
 31
0.0
  0
ARC
  5
9DC55
330
A
100
AcDbEntity
  8
妻枠
 62
     7
370
    50
100
AcDbCircle
 10
-9356.998349461086
 20
936.970262478704
 30
0.0
 40
15.0
100
AcDbArc
 50
180.0
 51
270.0
  0
LINE
  5
9DC56
330
A
100
AcDbEntity
  8
妻枠
 62
     7
370
    50
100
AcDbLine
 10
-9356.998349461086
 20
921.9702624787041
 30
0.0
 11
-9119.998349461086
 21
921.9702624787041
 31
0.0
  0
LINE
  5
9DC57
330
A
100
AcDbEntity
  8
妻枠
 62
     7
370
    50
100
AcDbLine
 10
-9356.998349461086
 20
951.970262478704
 30
0.0
 11
-9119.998349461086
 21
951.970262478704
 31
0.0
  0
ARC
  5
9DC58
330
A
100
AcDbEntity
  8
妻枠
 62
     7
370
    50
100
AcDbCircle
 10
-9356.998349461086
 20
936.970262478704
 30
0.0
 40
15.0
100
AcDbArc
 50
90.0
 51
180.0
  0
LINE
  5
9DC59
330
A
100
AcDbEntity
  8
樹脂
 62
     7
370
    30
100
AcDbLine
 10
-9537.498349461079
 20
905.970262478702
 30
0.0
 11
-9537.498349461079
 21
905.970262478702
 31
0.0
  0
LINE
  5
9DC5A
330
A
100
AcDbEntity
  8
樹脂
 62
     7
370
    30
100
AcDbLine
 10
-9537.498349461079
 20
1187.970262478702
 30
0.0
 11
-9537.498349461079
 21
1187.970262478702
 31
0.0
  0
LINE
  5
9DC5C
330
A
100
AcDbEntity
  8
妻枠
 62
     7
370
    30
100
AcDbLine
 10
-9513.29661095505
 20
308.1320171584835
 30
0.0
 11
-9483.998349461087
 21
278.8337556645203
 31
0.0
  0
LINE
  5
9DC5E
330
A
100
AcDbEntity
  8
妻枠
 62
     7
370
    30
100
AcDbLine
 10
-9483.998349461087
 20
28.83375566452014
 30
0.0
 11
-9507.868407146176
 21
4.963697979431342
 31
0.0
  0
LINE
  5
9DC5F
330
A
100
AcDbEntity
  8
妻枠
 62
     7
370
    30
100
AcDbLine
 10
-7885.388482589819
 20
308.8374593519618
 30
0.0
 11
-7885.161661884341
 21
304.5094624671328
 31
0.0
  0
LINE
  5
9DC72
330
A
100
AcDbEntity
  8
寸法
 62
     7
370
    50
100
AcDbLine
 10
-7690.123699617004
 20
276.8337556645201
 30
0.0
 11
-7690.123699617004
 21
276.8337556645206
 31
0.0
  0
LINE
  5
9DC73
330
A
100
AcDbEntity
  8
寸法
 62
     7
370
    50
100
AcDbLine
 10
-7590.123699617004
 20
276.8337556645203
 30
0.0
 11
-7590.123699617004
 21
276.8337556645203
 31
0.0
  0
LINE
  5
9DC74
330
A
100
AcDbEntity
  8
樹脂
 62
     7
370
    50
100
AcDbLine
 10
-7726.76583151853
 20
143.3337556645201
 30
0.0
 11
-7640.123699617004
 21
143.3337556645192
 31
0.0
  0
LINE
  5
9DC75
330
A
100
AcDbEntity
  8
樹脂
 62
     7
370
    50
100
AcDbLine
 10
-7726.765831518521
 20
124.3337556645201
 30
0.0
 11
-7640.123699617004
 21
124.3337556645192
 31
0.0
  0
ARC
  5
9DC76
330
A
100
AcDbEntity
  8
樹脂
 62
     7
370
    50
100
AcDbCircle
 10
-7726.765831518521
 20
94.33375566452015
 30
0.0
 40
30.0
100
AcDbArc
 50
90.0
 51
170.3623839416286
  0
ARC
  5
9DC77
330
A
100
AcDbEntity
  8
樹脂
 62
     7
370
    50
100
AcDbCircle
 10
-7726.765831518521
 20
94.33375566452015
 30
0.0
 40
49.0
100
AcDbArc
 50
90.0
 51
170.3623839416286
  0
LINE
  5
9DC78
330
A
100
AcDbEntity
  8
寸法
 62
     7
370
    50
100
AcDbLine
 10
-7677.777586011448
 20
291.8337556645202
 30
0.0
 11
-7602.777586011448
 21
291.8337556645206
 31
0.0
  0
LINE
  5
9DC79
330
A
100
AcDbEntity
  8
寸法
 62
     7
370
    50
100
AcDbLine
 10
-7677.777586011448
 20
266.8337556645202
 30
0.0
 11
-7602.777586011448
 21
266.8337556645204
 31
0.0
  0
LINE
  5
9DC7A
330
A
100
AcDbEntity
  8
妻枠
 62
     7
370
    50
100
AcDbLine
 10
-7871.375171543904
 20
-18.16624433547986
 30
0.0
 11
-7795.571232363126
 21
-18.16624433548009
 31
0.0
  0
LINE
  5
9DC7B
330
A
100
AcDbEntity
  8
妻枠
 62
     7
370
    50
100
AcDbLine
 10
-7831.375171543903
 20
-68.16624433548054
 30
0.0
 11
-7813.375171543905
 21
-68.16624433548032
 31
0.0
  0
LINE
  5
9DC7E
330
A
100
AcDbEntity
  8
床板
 62
     7
370
    50
100
AcDbLine
 10
-7776.158913966321
 20
-19.33665566321065
 30
0.0
 11
-7504.166527604617
 21
-19.33665566320974
 31
0.0
  0
LINE
  5
9DC81
330
A
100
AcDbEntity
  8
床板
 62
     7
370
    50
100
AcDbLine
 10
-7780.204926437813
 20
-41.16624433548009
 30
0.0
 11
-7500.042472796197
 21
-41.16624433547963
 31
0.0
  0
LINE
  5
9DC82
330
A
100
AcDbEntity
  8
妻枠
 62
     7
370
    50
100
AcDbLine
 10
-7776.299233868883
 20
-18.16624433547964
 30
0.0
 11
-7640.123699617004
 21
-18.16624433548009
 31
0.0
  0
LINE
  5
9DCDE
330
A
100
AcDbEntity
  8
樹脂
 62
     7
370
    50
100
AcDbLine
 10
-7859.623699617005
 20
-446.1618759599878
 30
0.0
 11
-7840.623699617005
 21
-446.1618759599878
 31
0.0
  0
LINE
  5
9DCE0
330
A
100
AcDbEntity
  8
寸法
 62
     7
370
    50
100
AcDbLine
 10
-7859.623699617005
 20
-446.1618759599878
 30
0.0
 11
-7859.623699617005
 21
-411.8525795719979
 31
0.0
  0
LINE
  5
9DCE1
330
A
100
AcDbEntity
  8
寸法
 62
     7
370
    50
100
AcDbLine
 10
-7840.623699617005
 20
-413.8233402184268
 30
0.0
 11
-7840.623699617005
 21
-446.1618759599878
 31
0.0
  0
LINE
  5
9DCE3
330
A
100
AcDbEntity
  8
寸法
 62
     7
370
    50
100
AcDbLine
 10
-7888.716706976406
 20
284.4770697186373
 30
0.0
 11
-7873.375171543904
 21
-8.061572422993322
 31
0.0
  0
ARC
  5
9DCE4
330
A
100
AcDbEntity
  8
寸法
 62
     7
370
    50
100
AcDbCircle
 10
-7843.778460110818
 20
286.8337556645204
 30
0.0
 40
45.0
100
AcDbArc
 50
90.0
 51
183.0019990728074
  0
CIRCLE
  5
9DCE5
330
A
100
AcDbEntity
  8
ボルト
  6
Continuous
 62
     7
370
    30
100
AcDbCircle
 10
-7871.968370529879
 20
263.4249671641689
 30
0.0
 40
6.5
  0
LINE
  5
9DCE6
330
A
100
AcDbEntity
  8
寸法
 62
     7
370
    50
100
AcDbLine
 10
-7391.529873685074
 20
284.4786376335871
 30
0.0
 11
-7406.872227690107
 21
-8.27091624791933
 31
0.0
  0
ARC
  5
9DCE7
330
A
100
AcDbEntity
  8
寸法
 62
     7
370
    50
100
AcDbCircle
 10
-7436.46820274903
 20
286.8337556645201
 30
0.0
 40
45.0
100
AcDbArc
 50
356.9999999999966
 51
90.0
  0
LINE
  5
9DCE8
330
A
100
AcDbEntity
  8
妻枠
 62
     7
370
    50
100
AcDbLine
 10
-7409.288748993883
 20
-18.1662443354885
 30
0.0
 11
-7484.676166870882
 21
-18.16624433548554
 31
0.0
  0
LINE
  5
9DCE9
330
A
100
AcDbEntity
  8
妻枠
 62
     7
370
    50
100
AcDbLine
 10
-7503.948165365123
 20
-18.16624433548509
 30
0.0
 11
-7640.123699617004
 21
-18.16624433548009
 31
0.0
  0
LINE
  5
9E142
102
{ACAD_REACTORS
330
A121C
102
}
330
A
100
AcDbEntity
  8
樹脂
 62
     7
370
    35
100
AcDbLine
 10
-9119.998349461084
 20
32.33375566452038
 30
0.0
 11
-9483.998349461085
 21
32.33375566454106
 31
0.0
  0
LINE
  5
9E143
102
{ACAD_REACTORS
330
A121C
102
}
330
A
100
AcDbEntity
  8
樹脂
 62
     7
370
    30
100
AcDbLine
 10
-9119.998349461068
 20
275.3337556645206
 30
0.0
 11
-9483.998349461067
 21
275.3337556645415
 31
0.0
  0
LINE
  5
9E145
102
{ACAD_REACTORS
330
A121C
102
}
330
A
100
AcDbEntity
  8
樹脂
 62
     7
370
    30
100
AcDbLine
 10
-9480.49834946107
 20
275.3337556645411
 30
0.0
 11
-9480.498349461084
 21
32.33375566454083
 31
0.0
  0
CIRCLE
  5
9E197
330
A
100
AcDbEntity
  8
ボルト
 62
     7
370
    30
100
AcDbCircle
 10
-7408.27902870413
 20
263.4249671641614
 30
0.0
 40
6.5
  0
LINE
  5
9E1AC
330
A
100
AcDbEntity
  8
妻枠
 62
     7
370
    30
100
AcDbLine
 10
-9519.998349461086
 20
1253.970262478704
 30
0.0
 11
-9119.998349461086
 21
1253.970262478704
 31
0.0
  0
LINE
  5
9E1AD
330
A
100
AcDbEntity
  8
妻枠
 62
     7
370
    30
100
AcDbLine
 10
-9519.998349461094
 20
801.3702624787025
 30
0.0
 11
-9119.998349461086
 21
801.3702624786922
 31
0.0
  0
LINE
  5
9E1AE
330
A
100
AcDbEntity
  8
妻枠
 62
     7
370
    30
100
AcDbLine
 10
-9519.998349461094
 20
823.4327228544751
 30
0.0
 11
-9119.998349461086
 21
823.4327228544641
 31
0.0
  0
LINE
  5
9E1AF
330
A
100
AcDbEntity
  8
妻枠
 62
     7
370
    30
100
AcDbLine
 10
-9519.998349461094
 20
839.9702624787025
 30
0.0
 11
-9119.998349461086
 21
839.9702624786923
 31
0.0
  0
LINE
  5
9E232
330
A
100
AcDbEntity
  8
樹脂
 62
     7
370
    50
100
AcDbLine
 10
-7553.481567715491
 20
143.3337556645197
 30
0.0
 11
-7640.123699617004
 21
143.3337556645192
 31
0.0
  0
LINE
  5
9E233
330
A
100
AcDbEntity
  8
樹脂
 62
     7
370
    50
100
AcDbLine
 10
-7553.481567715491
 20
124.3337556645197
 30
0.0
 11
-7640.123699617004
 21
124.3337556645192
 31
0.0
  0
LINE
  5
9E23D
330
A
100
AcDbEntity
  8
樹脂
 62
     7
370
    50
100
AcDbLine
 10
-9537.498349461067
 20
896.9702624787021
 30
0.0
 11
-9537.498349461067
 21
896.9702624787021
 31
0.0
  0
ARC
  5
9E270
330
A
100
AcDbEntity
  8
樹脂
 62
     7
370
    50
100
AcDbCircle
 10
-7677.777586011448
 20
279.3337556645202
 30
0.0
 40
12.5
100
AcDbArc
 50
90.0
 51
270.0
  0
ARC
  5
9E271
330
A
100
AcDbEntity
  8
樹脂
 62
     7
370
    50
100
AcDbCircle
 10
-7602.777586011448
 20
279.3337556645202
 30
0.0
 40
12.5
100
AcDbArc
 50
270.0
 51
90.0
  0
LINE
  5
9E272
330
A
100
AcDbEntity
  8
樹脂
 62
     7
370
    50
100
AcDbLine
 10
-7843.778460110818
 20
331.8337556645204
 30
0.0
 11
-7436.46820274903
 21
331.8337556645202
 31
0.0
  0
ARC
  5
9E279
330
A
100
AcDbEntity
  8
樹脂
 62
     7
370
    50
100
AcDbCircle
 10
-9541.498349461086
 20
133.8337556645438
 30
0.0
 40
9.5
100
AcDbArc
 50
0.0
 51
90.0
  0
LINE
  5
9E27A
330
A
100
AcDbEntity
  8
樹脂
 62
     7
370
    50
100
AcDbLine
 10
-9550.998349461087
 20
133.8337556645438
 30
0.0
 11
-9550.998349461124
 21
-446.1764896841393
 31
0.0
  0
LINE
  5
9E27B
330
A
100
AcDbEntity
  8
樹脂
 62
     7
370
    50
100
AcDbLine
 10
-9531.998349461089
 20
133.8337556645433
 30
0.0
 11
-9531.998349461094
 21
-4.321626206967037
 31
0.0
  0
LINE
  5
9E27C
330
A
100
AcDbEntity
  8
樹脂
 62
     7
370
    50
100
AcDbLine
 10
-9531.998349461096
 20
20.63411314875702
 30
0.0
 11
-9531.998349461101
 21
-4.32162620696657
 31
0.0
  0
LINE
  5
9E27D
330
A
100
AcDbEntity
  8
樹脂
 62
     7
370
    50
100
AcDbLine
 10
-9531.998349461121
 20
-376.146519785141
 30
0.0
 11
-9531.998349461122
 21
-446.1764896841393
 31
0.0
  0
ARC
  5
9E27E
330
A
100
AcDbEntity
  8
樹脂
 62
     7
370
    50
100
AcDbCircle
 10
-9541.498349461086
 20
133.8337556645438
 30
0.0
 40
9.5
100
AcDbArc
 50
90.0
 51
180.0
  0
ARC
  5
9E3D7
330
A
100
AcDbEntity
  8
妻枠
 62
     7
370
    30
100
AcDbCircle
 10
-7873.58772089004
 20
293.8460610414302
 30
0.0
 40
20.0
100
AcDbArc
 50
110.8906544753138
 51
123.000000000012
  0
ARC
  5
9E3D9
330
A
100
AcDbEntity
  8
妻枠
 62
     7
370
    30
100
AcDbCircle
 10
-7883.391223520309
 20
308.9421312644477
 30
0.0
 40
2.0
100
AcDbArc
 50
123.000000000012
 51
182.9999999999903
  0
LINE
  5
9E3F1
330
A
100
AcDbEntity
  8
樹脂
 62
     7
370
    50
100
AcDbLine
 10
-9531.998349461074
 20
1246.970262478703
 30
0.0
 11
-9531.998349461074
 21
1046.970262478704
 31
0.0
  0
LINE
  5
9E3F2
330
A
100
AcDbEntity
  8
樹脂
 62
     7
370
    50
100
AcDbLine
 10
-9531.998349461089
 20
1046.970262478704
 30
0.0
 11
-9531.998349461089
 21
1004.420582379778
 31
0.0
  0
LINE
  5
9E3F3
330
A
100
AcDbEntity
  8
樹脂
 62
     7
370
    50
100
AcDbLine
 10
-9531.998349461089
 20
996.9702624787045
 30
0.0
 11
-9531.998349461089
 21
799.9702624787032
 31
0.0
  0
LINE
  5
9E3F4
330
A
100
AcDbEntity
  8
樹脂
 62
     7
370
    50
100
AcDbLine
 10
-9550.998349461075
 20
1247.470262478704
 30
0.0
 11
-9550.998349461075
 21
846.970262478703
 31
0.0
  0
LINE
  5
9E3F5
330
A
100
AcDbEntity
  8
樹脂
 62
     7
370
    50
100
AcDbLine
 10
-9531.998349461074
 20
1247.470262478704
 30
0.0
 11
-9531.998349461074
 21
1108.485291934945
 31
0.0
  0
ARC
  5
9E3F6
330
A
100
AcDbEntity
  8
樹脂
 62
     7
370
    30
100
AcDbCircle
 10
-9541.498349461075
 20
914.4702624787028
 30
0.0
 40
9.5
100
AcDbArc
 50
180.0
 51
0.0
  0
ARC
  5
9E3F7
330
A
100
AcDbEntity
  8
樹脂
 62
     7
370
    30
100
AcDbCircle
 10
-9541.498349461075
 20
1179.470262478704
 30
0.0
 40
9.5
100
AcDbArc
 50
90.0
 51
180.0
  0
ARC
  5
9E3F8
330
A
100
AcDbEntity
  8
樹脂
 62
     7
370
    30
100
AcDbCircle
 10
-9541.498349461075
 20
1179.470262478704
 30
0.0
 40
9.5
100
AcDbArc
 50
0.0
 51
90.0
  0
ARC
  5
9E3F9
330
A
100
AcDbEntity
  8
床板
 62
     7
370
    50
100
AcDbCircle
 10
-9481.998349461086
 20
32.66334433679253
 30
0.0
 40
52.0
100
AcDbArc
 50
225.3366638095599
 51
270.0
  0
LINE
  5
9E3FB
330
A
100
AcDbEntity
  8
床板
 62
     7
370
    50
100
AcDbLine
 10
-9518.551214654904
 20
-4.321626206964992
 30
0.0
 11
-9535.998349461094
 21
-4.321626206967037
 31
0.0
  0
LINE
  5
9E3FD
330
A
100
AcDbEntity
  8
床板
 62
     7
370
    50
100
AcDbLine
 10
-9316.634432310364
 20
-59.35740483438419
 30
0.0
 11
-9535.998349461094
 21
-59.36605292258287
 31
0.0
  0
LINE
  5
9E3FE
330
A
100
AcDbEntity
  8
床板
 62
     7
370
    50
100
AcDbLine
 10
-9535.998349461094
 20
-4.321626206967037
 30
0.0
 11
-9535.998349461094
 21
-59.36605292258287
 31
0.0
  0
LINE
  5
9E41A
330
A
100
AcDbEntity
  8
寸法
 62
     7
370
    50
100
AcDbLine
 10
-7873.375171543904
 20
-8.270916247965715
 30
0.0
 11
-7873.375171543904
 21
-16.16624433547986
 31
0.0
  0
ARC
  5
9E41B
330
A
100
AcDbEntity
  8
寸法
 62
     7
370
    50
100
AcDbCircle
 10
-7871.375171543904
 20
-16.16624433547986
 30
0.0
 40
2.0
100
AcDbArc
 50
180.0
 51
270.0
  0
ARC
  5
9E41C
330
A
100
AcDbEntity
  8
寸法
 62
     7
370
    50
100
AcDbCircle
 10
-7813.375171543905
 20
-66.16624433548054
 30
0.0
 40
2.0
100
AcDbArc
 50
270.0
 51
0.0
  0
LINE
  5
9E41D
330
A
100
AcDbEntity
  8
寸法
 62
     7
370
    50
100
AcDbLine
 10
-7833.375171543903
 20
-18.16624433548009
 30
0.0
 11
-7833.375171543903
 21
-66.16624433548054
 31
0.0
  0
LINE
  5
9E41E
330
A
100
AcDbEntity
  8
寸法
 62
     7
370
    50
100
AcDbLine
 10
-7811.375171543904
 20
-18.16624433548009
 30
0.0
 11
-7811.375171543904
 21
-66.16624433548054
 31
0.0
  0
ARC
  5
9E41F
330
A
100
AcDbEntity
  8
寸法
 62
     7
370
    50
100
AcDbCircle
 10
-7831.375171543903
 20
-66.16624433548054
 30
0.0
 40
2.0
100
AcDbArc
 50
180.0
 51
270.0
  0
LINE
  5
9E564
330
A
100
AcDbEntity
  8
妻枠
 62
     7
370
    30
100
AcDbLine
 10
-9518.998349461083
 20
1292.570262478697
 30
0.0
 11
-9518.998349461083
 21
1253.970262478697
 31
0.0
  0
LINE
  5
9E565
330
A
100
AcDbEntity
  8
妻枠
 62
     7
370
    30
100
AcDbLine
 10
-9518.998349461083
 20
1292.570262478697
 30
0.0
 11
-9119.998349461086
 21
1292.570262478697
 31
0.0
  0
LINE
  5
9E566
330
A
100
AcDbEntity
  8
樹脂
 62
     7
370
    30
100
AcDbLine
 10
-9495.49834946109
 20
1270.570262478693
 30
0.0
 11
-9119.998349461088
 21
1270.570262478619
 31
0.0
  0
LINE
  5
9E567
330
A
100
AcDbEntity
  8
妻枠
 62
     7
370
    30
100
AcDbLine
 10
-9518.998349461083
 20
1270.570262478696
 30
0.0
 11
-9119.998349461086
 21
1270.570262478703
 31
0.0
  0
LINE
  5
9E56E
330
A
100
AcDbEntity
  8
寸法
 62
     7
100
AcDbLine
 10
-9519.998349461086
 20
1284.970262478696
 30
0.0
 11
-9519.998349461086
 21
1268.970262478696
 31
0.0
  0
LINE
  5
9E56F
330
A
100
AcDbEntity
  8
妻枠
 62
     7
370
    30
100
AcDbLine
 10
-9518.998349461083
 20
1253.970262478697
 30
0.0
 11
-9119.998349461086
 21
1253.970262478703
 31
0.0
  0
LINE
  5
9E7D5
330
A
100
AcDbEntity
  8
妻枠
 62
     7
370
    25
100
AcDbLine
 10
-9430.998349461086
 20
839.9702624787
 30
0.0
 11
-9430.998349461086
 21
1253.970262478704
 31
0.0
  0
LINE
  5
9E7D6
330
A
100
AcDbEntity
  8
妻枠
 62
     7
370
    25
100
AcDbLine
 10
-9432.998349461085
 20
839.9702624787
 30
0.0
 11
-9432.998349461085
 21
1253.970262478704
 31
0.0
  0
LINE
  5
9E9C0
330
A
100
AcDbEntity
  8
収納棚板
 62
     7
370
    50
100
AcDbLine
 10
-9119.998349461086
 20
-376.146519785141
 30
0.0
 11
-9535.998349461097
 21
-376.146519785141
 31
0.0
  0
LINE
  5
9E9C1
330
A
100
AcDbEntity
  8
収納棚板
 62
     7
370
    50
100
AcDbLine
 10
-9119.998349461086
 20
-336.1465197851412
 30
0.0
 11
-9535.998349461097
 21
-336.1465197851412
 31
0.0
  0
ARC
  5
9EACF
330
A
100
AcDbEntity
  8
寸法
 62
     7
370
    25
100
AcDbCircle
 10
-7640.123699617013
 20
2842.158037879084
 30
0.0
 40
3227.497371847551
100
AcDbArc
 50
267.003130819152
 51
272.996869180848
  0
CIRCLE
  5
9EBBC
330
A
100
AcDbEntity
  8
妻枠
 62
     7
370
    50
100
AcDbCircle
 10
-9451.998349461083
 20
1226.970262478704
 30
0.0
 40
7.0
  0
CIRCLE
  5
9EBBD
330
A
100
AcDbEntity
  8
ボルト
  6
Continuous
 62
     7
370
     5
100
AcDbCircle
 10
-9451.998349461083
 20
1226.970262478704
 30
0.0
 40
6.5
  0
CIRCLE
  5
9EBBE
330
A
100
AcDbEntity
  8
ボルト
  6
Continuous
 62
     7
370
     5
100
AcDbCircle
 10
-9451.998349461083
 20
1226.970262478704
 30
0.0
 40
5.7
  0
LINE
  5
9EBBF
330
A
100
AcDbEntity
  8
ボルト
  6
Continuous
 62
     7
370
     5
100
AcDbLine
 10
-9452.998349461086
 20
1228.702262478704
 30
0.0
 11
-9450.998349461086
 21
1228.702262478704
 31
0.0
  0
LINE
  5
9EBC0
330
A
100
AcDbEntity
  8
ボルト
  6
Continuous
 62
     7
370
     5
100
AcDbLine
 10
-9453.998349461086
 20
1226.970262478704
 30
0.0
 11
-9452.998349461086
 21
1228.702262478704
 31
0.0
  0
LINE
  5
9EBC1
330
A
100
AcDbEntity
  8
ボルト
  6
Continuous
 62
     7
370
     5
100
AcDbLine
 10
-9453.998349461086
 20
1226.970262478704
 30
0.0
 11
-9452.998349461086
 21
1225.238162478704
 31
0.0
  0
LINE
  5
9EBC2
330
A
100
AcDbEntity
  8
ボルト
  6
Continuous
 62
     7
370
     5
100
AcDbLine
 10
-9452.998349461086
 20
1225.238162478704
 30
0.0
 11
-9450.998349461086
 21
1225.238162478704
 31
0.0
  0
LINE
  5
9EBC3
330
A
100
AcDbEntity
  8
ボルト
  6
Continuous
 62
     7
370
     5
100
AcDbLine
 10
-9450.998349461086
 20
1225.238162478704
 30
0.0
 11
-9449.998349461086
 21
1226.970262478704
 31
0.0
  0
LINE
  5
9EBC4
330
A
100
AcDbEntity
  8
ボルト
  6
Continuous
 62
     7
370
     5
100
AcDbLine
 10
-9450.998349461086
 20
1228.702262478704
 30
0.0
 11
-9449.998349461086
 21
1226.970262478704
 31
0.0
  0
CIRCLE
  5
9EBCB
330
A
100
AcDbEntity
  8
妻枠
 62
     7
370
    50
100
AcDbCircle
 10
-9451.998349461083
 20
866.9702624787039
 30
0.0
 40
7.0
  0
CIRCLE
  5
9EBCC
330
A
100
AcDbEntity
  8
ボルト
  6
Continuous
 62
     7
370
     5
100
AcDbCircle
 10
-9451.998349461083
 20
866.9702624787039
 30
0.0
 40
6.5
  0
CIRCLE
  5
9EBCD
330
A
100
AcDbEntity
  8
ボルト
  6
Continuous
 62
     7
370
     5
100
AcDbCircle
 10
-9451.998349461083
 20
866.9702624787039
 30
0.0
 40
5.7
  0
LINE
  5
9EBCE
330
A
100
AcDbEntity
  8
ボルト
  6
Continuous
 62
     7
370
     5
100
AcDbLine
 10
-9452.998349461086
 20
865.2382624787039
 30
0.0
 11
-9450.998349461086
 21
865.2382624787039
 31
0.0
  0
LINE
  5
9EBCF
330
A
100
AcDbEntity
  8
ボルト
  6
Continuous
 62
     7
370
     5
100
AcDbLine
 10
-9453.998349461086
 20
866.9702624787039
 30
0.0
 11
-9452.998349461086
 21
865.2382624787039
 31
0.0
  0
LINE
  5
9EBD0
330
A
100
AcDbEntity
  8
ボルト
  6
Continuous
 62
     7
370
     5
100
AcDbLine
 10
-9453.998349461086
 20
866.9702624787039
 30
0.0
 11
-9452.998349461086
 21
868.7023624787036
 31
0.0
  0
LINE
  5
9EBD1
330
A
100
AcDbEntity
  8
ボルト
  6
Continuous
 62
     7
370
     5
100
AcDbLine
 10
-9452.998349461086
 20
868.7023624787036
 30
0.0
 11
-9450.998349461086
 21
868.7023624787036
 31
0.0
  0
LINE
  5
9EBD2
330
A
100
AcDbEntity
  8
ボルト
  6
Continuous
 62
     7
370
     5
100
AcDbLine
 10
-9450.998349461086
 20
868.7023624787036
 30
0.0
 11
-9449.998349461086
 21
866.9702624787039
 31
0.0
  0
LINE
  5
9EBD3
330
A
100
AcDbEntity
  8
ボルト
  6
Continuous
 62
     7
370
     5
100
AcDbLine
 10
-9450.998349461086
 20
865.2382624787039
 30
0.0
 11
-9449.998349461086
 21
866.9702624787039
 31
0.0
  0
CIRCLE
  5
9ED66
330
A
100
AcDbEntity
  8
木ネジ、ダボ
  6
Continuous
 62
     7
100
AcDbCircle
 10
-9401.998349461086
 20
866.9702624787039
 30
0.0
 40
3.0
  0
LINE
  5
9ED67
330
A
100
AcDbEntity
  8
木ネジ、ダボ
  6
Continuous
 62
     7
100
AcDbLine
 10
-9402.398349461085
 20
868.820252478704
 30
0.0
 11
-9401.598349461087
 21
868.820252478704
 31
0.0
  0
LINE
  5
9ED68
330
A
100
AcDbEntity
  8
木ネジ、ダボ
  6
Continuous
 62
     7
100
AcDbLine
 10
-9402.398349461085
 20
867.8702524787039
 30
0.0
 11
-9402.398349461085
 21
868.820252478704
 31
0.0
  0
LINE
  5
9ED69
330
A
100
AcDbEntity
  8
木ネジ、ダボ
  6
Continuous
 62
     7
100
AcDbLine
 10
-9403.848349461089
 20
867.3702724787043
 30
0.0
 11
-9402.898349461086
 21
867.3702724787043
 31
0.0
  0
LINE
  5
9ED6A
330
A
100
AcDbEntity
  8
木ネジ、ダボ
  6
Continuous
 62
     7
100
AcDbLine
 10
-9403.848349461089
 20
866.5702624787043
 30
0.0
 11
-9403.848349461089
 21
867.3702724787043
 31
0.0
  0
LINE
  5
9ED6B
330
A
100
AcDbEntity
  8
木ネジ、ダボ
  6
Continuous
 62
     7
100
AcDbLine
 10
-9403.848349461089
 20
866.5702624787043
 30
0.0
 11
-9402.898349461086
 21
866.5702624787043
 31
0.0
  0
LINE
  5
9ED6C
330
A
100
AcDbEntity
  8
木ネジ、ダボ
  6
Continuous
 62
     7
100
AcDbLine
 10
-9402.398349461085
 20
865.1202724787042
 30
0.0
 11
-9402.398349461085
 21
866.0702624787044
 31
0.0
  0
LINE
  5
9ED6D
330
A
100
AcDbEntity
  8
木ネジ、ダボ
  6
Continuous
 62
     7
100
AcDbLine
 10
-9402.398349461085
 20
865.1202724787042
 30
0.0
 11
-9401.598349461087
 21
865.1202724787042
 31
0.0
  0
LINE
  5
9ED6E
330
A
100
AcDbEntity
  8
木ネジ、ダボ
  6
Continuous
 62
     7
100
AcDbLine
 10
-9401.598349461087
 20
866.0702624787044
 30
0.0
 11
-9401.598349461087
 21
865.1202724787042
 31
0.0
  0
LINE
  5
9ED6F
330
A
100
AcDbEntity
  8
木ネジ、ダボ
  6
Continuous
 62
     7
100
AcDbLine
 10
-9401.098349461086
 20
866.5702624787043
 30
0.0
 11
-9400.148349461083
 21
866.5702624787043
 31
0.0
  0
LINE
  5
9ED70
330
A
100
AcDbEntity
  8
木ネジ、ダボ
  6
Continuous
 62
     7
100
AcDbLine
 10
-9400.148349461083
 20
867.3702724787043
 30
0.0
 11
-9400.148349461083
 21
866.5702624787043
 31
0.0
  0
LINE
  5
9ED71
330
A
100
AcDbEntity
  8
木ネジ、ダボ
  6
Continuous
 62
     7
100
AcDbLine
 10
-9401.098349461086
 20
867.3702724787043
 30
0.0
 11
-9400.148349461083
 21
867.3702724787043
 31
0.0
  0
LINE
  5
9ED72
330
A
100
AcDbEntity
  8
木ネジ、ダボ
  6
Continuous
 62
     7
100
AcDbLine
 10
-9401.598349461087
 20
868.820252478704
 30
0.0
 11
-9401.598349461087
 21
867.8702524787039
 31
0.0
  0
ARC
  5
9ED73
330
A
100
AcDbEntity
  8
木ネジ、ダボ
  6
Continuous
 62
     7
100
AcDbCircle
 10
-9402.898349461086
 20
867.8702524787039
 30
0.0
 40
0.5
100
AcDbArc
 50
270.0
 51
0.0
  0
ARC
  5
9ED74
330
A
100
AcDbEntity
  8
木ネジ、ダボ
  6
Continuous
 62
     7
100
AcDbCircle
 10
-9402.898349461086
 20
866.0702624787044
 30
0.0
 40
0.5
100
AcDbArc
 50
0.0
 51
90.0
  0
ARC
  5
9ED75
330
A
100
AcDbEntity
  8
木ネジ、ダボ
  6
Continuous
 62
     7
100
AcDbCircle
 10
-9401.098349461086
 20
866.0702624787044
 30
0.0
 40
0.5
100
AcDbArc
 50
90.0
 51
180.0
  0
ARC
  5
9ED76
330
A
100
AcDbEntity
  8
木ネジ、ダボ
  6
Continuous
 62
     7
100
AcDbCircle
 10
-9401.098349461086
 20
867.8702524787039
 30
0.0
 40
0.5
100
AcDbArc
 50
180.0
 51
270.0
  0
CIRCLE
  5
9ED77
330
A
100
AcDbEntity
  8
木ネジ、ダボ
  6
Continuous
 62
     7
100
AcDbCircle
 10
-9260.998349461086
 20
866.9702624787039
 30
0.0
 40
3.0
  0
LINE
  5
9ED78
330
A
100
AcDbEntity
  8
木ネジ、ダボ
  6
Continuous
 62
     7
100
AcDbLine
 10
-9261.398349461087
 20
868.820252478704
 30
0.0
 11
-9260.598349461089
 21
868.820252478704
 31
0.0
  0
LINE
  5
9ED79
330
A
100
AcDbEntity
  8
木ネジ、ダボ
  6
Continuous
 62
     7
100
AcDbLine
 10
-9261.398349461087
 20
867.8702524787039
 30
0.0
 11
-9261.398349461087
 21
868.820252478704
 31
0.0
  0
LINE
  5
9ED7A
330
A
100
AcDbEntity
  8
木ネジ、ダボ
  6
Continuous
 62
     7
100
AcDbLine
 10
-9262.848349461085
 20
867.3702724787043
 30
0.0
 11
-9261.898349461086
 21
867.3702724787043
 31
0.0
  0
LINE
  5
9ED7B
330
A
100
AcDbEntity
  8
木ネジ、ダボ
  6
Continuous
 62
     7
100
AcDbLine
 10
-9262.848349461085
 20
866.5702624787043
 30
0.0
 11
-9262.848349461085
 21
867.3702724787043
 31
0.0
  0
LINE
  5
9ED7C
330
A
100
AcDbEntity
  8
木ネジ、ダボ
  6
Continuous
 62
     7
100
AcDbLine
 10
-9262.848349461085
 20
866.5702624787043
 30
0.0
 11
-9261.898349461086
 21
866.5702624787043
 31
0.0
  0
LINE
  5
9ED7D
330
A
100
AcDbEntity
  8
木ネジ、ダボ
  6
Continuous
 62
     7
100
AcDbLine
 10
-9261.398349461087
 20
865.1202724787042
 30
0.0
 11
-9261.398349461087
 21
866.0702624787044
 31
0.0
  0
LINE
  5
9ED7E
330
A
100
AcDbEntity
  8
木ネジ、ダボ
  6
Continuous
 62
     7
100
AcDbLine
 10
-9261.398349461087
 20
865.1202724787042
 30
0.0
 11
-9260.598349461089
 21
865.1202724787042
 31
0.0
  0
LINE
  5
9ED7F
330
A
100
AcDbEntity
  8
木ネジ、ダボ
  6
Continuous
 62
     7
100
AcDbLine
 10
-9260.598349461089
 20
866.0702624787044
 30
0.0
 11
-9260.598349461089
 21
865.1202724787042
 31
0.0
  0
LINE
  5
9ED80
330
A
100
AcDbEntity
  8
木ネジ、ダボ
  6
Continuous
 62
     7
100
AcDbLine
 10
-9260.098349461086
 20
866.5702624787043
 30
0.0
 11
-9259.148349461083
 21
866.5702624787043
 31
0.0
  0
LINE
  5
9ED81
330
A
100
AcDbEntity
  8
木ネジ、ダボ
  6
Continuous
 62
     7
100
AcDbLine
 10
-9259.148349461083
 20
867.3702724787043
 30
0.0
 11
-9259.148349461083
 21
866.5702624787043
 31
0.0
  0
LINE
  5
9ED82
330
A
100
AcDbEntity
  8
木ネジ、ダボ
  6
Continuous
 62
     7
100
AcDbLine
 10
-9260.098349461086
 20
867.3702724787043
 30
0.0
 11
-9259.148349461083
 21
867.3702724787043
 31
0.0
  0
LINE
  5
9ED83
330
A
100
AcDbEntity
  8
木ネジ、ダボ
  6
Continuous
 62
     7
100
AcDbLine
 10
-9260.598349461089
 20
868.820252478704
 30
0.0
 11
-9260.598349461089
 21
867.8702524787039
 31
0.0
  0
ARC
  5
9ED84
330
A
100
AcDbEntity
  8
木ネジ、ダボ
  6
Continuous
 62
     7
100
AcDbCircle
 10
-9261.898349461086
 20
867.8702524787039
 30
0.0
 40
0.5
100
AcDbArc
 50
270.0
 51
0.0
  0
ARC
  5
9ED85
330
A
100
AcDbEntity
  8
木ネジ、ダボ
  6
Continuous
 62
     7
100
AcDbCircle
 10
-9261.898349461086
 20
866.0702624787044
 30
0.0
 40
0.5
100
AcDbArc
 50
0.0
 51
90.0
  0
ARC
  5
9ED86
330
A
100
AcDbEntity
  8
木ネジ、ダボ
  6
Continuous
 62
     7
100
AcDbCircle
 10
-9260.098349461086
 20
866.0702624787044
 30
0.0
 40
0.5
100
AcDbArc
 50
90.0
 51
180.0
  0
ARC
  5
9ED87
330
A
100
AcDbEntity
  8
木ネジ、ダボ
  6
Continuous
 62
     7
100
AcDbCircle
 10
-9260.098349461086
 20
867.8702524787039
 30
0.0
 40
0.5
100
AcDbArc
 50
180.0
 51
270.0
  0
CIRCLE
  5
9ED99
330
A
100
AcDbEntity
  8
木ネジ、ダボ
  6
Continuous
 62
     7
100
AcDbCircle
 10
-9401.998349461097
 20
1226.970262478706
 30
0.0
 40
3.0
  0
LINE
  5
9ED9A
330
A
100
AcDbEntity
  8
木ネジ、ダボ
  6
Continuous
 62
     7
100
AcDbLine
 10
-9402.398349461098
 20
1225.120272478706
 30
0.0
 11
-9401.598349461098
 21
1225.120272478706
 31
0.0
  0
LINE
  5
9ED9B
330
A
100
AcDbEntity
  8
木ネジ、ダボ
  6
Continuous
 62
     7
100
AcDbLine
 10
-9402.398349461098
 20
1226.070272478706
 30
0.0
 11
-9402.398349461098
 21
1225.120272478706
 31
0.0
  0
LINE
  5
9ED9C
330
A
100
AcDbEntity
  8
木ネジ、ダボ
  6
Continuous
 62
     7
100
AcDbLine
 10
-9403.848349461098
 20
1226.570252478706
 30
0.0
 11
-9402.898349461096
 21
1226.570252478706
 31
0.0
  0
LINE
  5
9ED9D
330
A
100
AcDbEntity
  8
木ネジ、ダボ
  6
Continuous
 62
     7
100
AcDbLine
 10
-9403.848349461098
 20
1227.370262478706
 30
0.0
 11
-9403.848349461098
 21
1226.570252478706
 31
0.0
  0
LINE
  5
9ED9E
330
A
100
AcDbEntity
  8
木ネジ、ダボ
  6
Continuous
 62
     7
100
AcDbLine
 10
-9403.848349461098
 20
1227.370262478706
 30
0.0
 11
-9402.898349461096
 21
1227.370262478706
 31
0.0
  0
LINE
  5
9ED9F
330
A
100
AcDbEntity
  8
木ネジ、ダボ
  6
Continuous
 62
     7
100
AcDbLine
 10
-9402.398349461098
 20
1228.820252478706
 30
0.0
 11
-9402.398349461098
 21
1227.870262478706
 31
0.0
  0
LINE
  5
9EDA0
330
A
100
AcDbEntity
  8
木ネジ、ダボ
  6
Continuous
 62
     7
100
AcDbLine
 10
-9402.398349461098
 20
1228.820252478706
 30
0.0
 11
-9401.598349461098
 21
1228.820252478706
 31
0.0
  0
LINE
  5
9EDA1
330
A
100
AcDbEntity
  8
木ネジ、ダボ
  6
Continuous
 62
     7
100
AcDbLine
 10
-9401.598349461098
 20
1227.870262478706
 30
0.0
 11
-9401.598349461098
 21
1228.820252478706
 31
0.0
  0
LINE
  5
9EDA2
330
A
100
AcDbEntity
  8
木ネジ、ダボ
  6
Continuous
 62
     7
100
AcDbLine
 10
-9401.098349461095
 20
1227.370262478706
 30
0.0
 11
-9400.148349461096
 21
1227.370262478706
 31
0.0
  0
LINE
  5
9EDA3
330
A
100
AcDbEntity
  8
木ネジ、ダボ
  6
Continuous
 62
     7
100
AcDbLine
 10
-9400.148349461096
 20
1226.570252478706
 30
0.0
 11
-9400.148349461096
 21
1227.370262478706
 31
0.0
  0
LINE
  5
9EDA4
330
A
100
AcDbEntity
  8
木ネジ、ダボ
  6
Continuous
 62
     7
100
AcDbLine
 10
-9401.098349461095
 20
1226.570252478706
 30
0.0
 11
-9400.148349461096
 21
1226.570252478706
 31
0.0
  0
LINE
  5
9EDA5
330
A
100
AcDbEntity
  8
木ネジ、ダボ
  6
Continuous
 62
     7
100
AcDbLine
 10
-9401.598349461098
 20
1225.120272478706
 30
0.0
 11
-9401.598349461098
 21
1226.070272478706
 31
0.0
  0
ARC
  5
9EDA6
330
A
100
AcDbEntity
  8
木ネジ、ダボ
  6
Continuous
 62
     7
100
AcDbCircle
 10
-9402.898349461096
 20
1226.070272478706
 30
0.0
 40
0.5
100
AcDbArc
 50
0.0
 51
90.0
  0
ARC
  5
9EDA7
330
A
100
AcDbEntity
  8
木ネジ、ダボ
  6
Continuous
 62
     7
100
AcDbCircle
 10
-9402.898349461096
 20
1227.870262478706
 30
0.0
 40
0.5
100
AcDbArc
 50
270.0
 51
0.0
  0
ARC
  5
9EDA8
330
A
100
AcDbEntity
  8
木ネジ、ダボ
  6
Continuous
 62
     7
100
AcDbCircle
 10
-9401.098349461095
 20
1227.870262478706
 30
0.0
 40
0.5
100
AcDbArc
 50
180.0
 51
270.0
  0
ARC
  5
9EDA9
330
A
100
AcDbEntity
  8
木ネジ、ダボ
  6
Continuous
 62
     7
100
AcDbCircle
 10
-9401.098349461095
 20
1226.070272478706
 30
0.0
 40
0.5
100
AcDbArc
 50
90.0
 51
180.0
  0
CIRCLE
  5
9EDAA
330
A
100
AcDbEntity
  8
木ネジ、ダボ
  6
Continuous
 62
     7
100
AcDbCircle
 10
-9260.998349461097
 20
1226.970262478715
 30
0.0
 40
3.0
  0
LINE
  5
9EDAB
330
A
100
AcDbEntity
  8
木ネジ、ダボ
  6
Continuous
 62
     7
100
AcDbLine
 10
-9261.398349461096
 20
1225.120272478714
 30
0.0
 11
-9260.598349461098
 21
1225.120272478714
 31
0.0
  0
LINE
  5
9EDAC
330
A
100
AcDbEntity
  8
木ネジ、ダボ
  6
Continuous
 62
     7
100
AcDbLine
 10
-9261.398349461096
 20
1226.070272478714
 30
0.0
 11
-9261.398349461096
 21
1225.120272478714
 31
0.0
  0
LINE
  5
9EDAD
330
A
100
AcDbEntity
  8
木ネジ、ダボ
  6
Continuous
 62
     7
100
AcDbLine
 10
-9262.848349461098
 20
1226.570252478714
 30
0.0
 11
-9261.898349461096
 21
1226.570252478714
 31
0.0
  0
LINE
  5
9EDAE
330
A
100
AcDbEntity
  8
木ネジ、ダボ
  6
Continuous
 62
     7
100
AcDbLine
 10
-9262.848349461098
 20
1227.370262478714
 30
0.0
 11
-9262.848349461098
 21
1226.570252478714
 31
0.0
  0
LINE
  5
9EDAF
330
A
100
AcDbEntity
  8
木ネジ、ダボ
  6
Continuous
 62
     7
100
AcDbLine
 10
-9262.848349461098
 20
1227.370262478714
 30
0.0
 11
-9261.898349461096
 21
1227.370262478714
 31
0.0
  0
LINE
  5
9EDB0
330
A
100
AcDbEntity
  8
木ネジ、ダボ
  6
Continuous
 62
     7
100
AcDbLine
 10
-9261.398349461101
 20
1228.820252478714
 30
0.0
 11
-9261.398349461096
 21
1227.870262478714
 31
0.0
  0
LINE
  5
9EDB1
330
A
100
AcDbEntity
  8
木ネジ、ダボ
  6
Continuous
 62
     7
100
AcDbLine
 10
-9261.398349461101
 20
1228.820252478714
 30
0.0
 11
-9260.598349461098
 21
1228.820252478714
 31
0.0
  0
LINE
  5
9EDB2
330
A
100
AcDbEntity
  8
木ネジ、ダボ
  6
Continuous
 62
     7
100
AcDbLine
 10
-9260.598349461098
 20
1227.870262478714
 30
0.0
 11
-9260.598349461098
 21
1228.820252478714
 31
0.0
  0
LINE
  5
9EDB3
330
A
100
AcDbEntity
  8
木ネジ、ダボ
  6
Continuous
 62
     7
100
AcDbLine
 10
-9260.098349461095
 20
1227.370262478715
 30
0.0
 11
-9259.148349461097
 21
1227.370262478715
 31
0.0
  0
LINE
  5
9EDB4
330
A
100
AcDbEntity
  8
木ネジ、ダボ
  6
Continuous
 62
     7
100
AcDbLine
 10
-9259.148349461097
 20
1226.570252478715
 30
0.0
 11
-9259.148349461097
 21
1227.370262478715
 31
0.0
  0
LINE
  5
9EDB5
330
A
100
AcDbEntity
  8
木ネジ、ダボ
  6
Continuous
 62
     7
100
AcDbLine
 10
-9260.098349461095
 20
1226.570252478715
 30
0.0
 11
-9259.148349461097
 21
1226.570252478715
 31
0.0
  0
LINE
  5
9EDB6
330
A
100
AcDbEntity
  8
木ネジ、ダボ
  6
Continuous
 62
     7
100
AcDbLine
 10
-9260.598349461098
 20
1225.120272478714
 30
0.0
 11
-9260.598349461098
 21
1226.070272478714
 31
0.0
  0
ARC
  5
9EDB7
330
A
100
AcDbEntity
  8
木ネジ、ダボ
  6
Continuous
 62
     7
100
AcDbCircle
 10
-9261.898349461096
 20
1226.070272478714
 30
0.0
 40
0.5
100
AcDbArc
 50
0.0
 51
90.0
  0
ARC
  5
9EDB8
330
A
100
AcDbEntity
  8
木ネジ、ダボ
  6
Continuous
 62
     7
100
AcDbCircle
 10
-9261.898349461096
 20
1227.870262478714
 30
0.0
 40
0.5
100
AcDbArc
 50
270.0
 51
0.0
  0
ARC
  5
9EDB9
330
A
100
AcDbEntity
  8
木ネジ、ダボ
  6
Continuous
 62
     7
100
AcDbCircle
 10
-9260.098349461095
 20
1227.870262478715
 30
0.0
 40
0.5
100
AcDbArc
 50
180.0
 51
270.0
  0
ARC
  5
9EDBA
330
A
100
AcDbEntity
  8
木ネジ、ダボ
  6
Continuous
 62
     7
100
AcDbCircle
 10
-9260.098349461095
 20
1226.070272478715
 30
0.0
 40
0.5
100
AcDbArc
 50
90.0
 51
180.0
  0
LINE
  5
9EDCC
330
A
100
AcDbEntity
  8
寸法
 62
     7
370
    50
100
AcDbLine
 10
-9535.998349461097
 20
-336.1465197851412
 30
0.0
 11
-9535.998349461097
 21
-376.146519785141
 31
0.0
  0
LINE
  5
9EDD2
330
A
100
AcDbEntity
  8
ボルト
  6
Continuous
 62
     7
370
    30
100
AcDbLine
 10
-7633.123699617005
 20
-47.16624433547986
 30
0.0
 11
-7633.123699617005
 21
-41.16624433547985
 31
0.0
  0
LINE
  5
9EDD3
330
A
100
AcDbEntity
  8
ボルト
  6
Continuous
 62
     7
370
     5
100
AcDbLine
 10
-7640.123699617004
 20
-47.16624433547986
 30
0.0
 11
-7640.123699617004
 21
-41.16624433547985
 31
0.0
  0
LINE
  5
9EDD4
330
A
100
AcDbEntity
  8
ボルト
  6
Continuous
 62
     7
370
    30
100
AcDbLine
 10
-7647.124099617006
 20
-47.16624433547986
 30
0.0
 11
-7647.124099617006
 21
-41.16624433547985
 31
0.0
  0
LINE
  5
9EDD5
330
A
100
AcDbEntity
  8
ボルト
  6
Continuous
 62
     7
370
    30
100
AcDbLine
 10
-7625.454499617004
 20
-47.16624433547986
 30
0.0
 11
-7654.793899617004
 21
-47.16624433547986
 31
0.0
  0
LINE
  5
9EDD6
330
A
100
AcDbEntity
  8
ボルト
  6
Continuous
 62
     7
370
    30
100
AcDbLine
 10
-7654.793899617004
 20
-52.6664443354798
 30
0.0
 11
-7654.793899617004
 21
-47.16624433547986
 31
0.0
  0
LINE
  5
9EDD7
330
A
100
AcDbEntity
  8
ボルト
  6
Continuous
 62
     7
370
    30
100
AcDbLine
 10
-7629.454699617006
 20
-56.66664433547975
 30
0.0
 11
-7650.793699617004
 21
-56.66664433547975
 31
0.0
  0
LINE
  5
9EDD8
330
A
100
AcDbEntity
  8
ボルト
  6
Continuous
 62
     7
370
    30
100
AcDbLine
 10
-7625.454499617004
 20
-52.6664443354798
 30
0.0
 11
-7625.454499617004
 21
-47.16624433547986
 31
0.0
  0
LINE
  5
9EDD9
330
A
100
AcDbEntity
  8
ボルト
  6
Continuous
 62
     7
370
    30
100
AcDbLine
 10
-7628.454499617004
 20
-52.22784433547985
 30
0.0
 11
-7628.454499617004
 21
-47.16624433547986
 31
0.0
  0
LINE
  5
9EDDA
330
A
100
AcDbEntity
  8
ボルト
  6
Continuous
 62
     7
370
    30
100
AcDbLine
 10
-7637.124499617005
 20
-52.16664433547975
 30
0.0
 11
-7637.124499617005
 21
-47.16624433547986
 31
0.0
  0
ARC
  5
9EDDB
330
A
100
AcDbEntity
  8
ボルト
  6
Continuous
 62
     7
370
    30
100
AcDbCircle
 10
-7629.454699617006
 20
-52.6664443354798
 30
0.0
 40
4.000000199999997
100
AcDbArc
 50
270.0
 51
0.0
  0
ARC
  5
9EDDC
330
A
100
AcDbEntity
  8
ボルト
  6
Continuous
 62
     7
370
    30
100
AcDbCircle
 10
-7650.793699617004
 20
-52.6664443354798
 30
0.0
 40
4.000000199999997
100
AcDbArc
 50
180.0
 51
270.0
  0
ARC
  5
9EDDD
330
A
100
AcDbEntity
  8
ボルト
  6
Continuous
 62
     7
370
    30
100
AcDbCircle
 10
-7632.789499617004
 20
-52.16664433547975
 30
0.0
 40
4.334999999999999
100
AcDbArc
 50
179.999989999999
 51
359.1903999999914
  0
LINE
  5
9EDDE
330
A
100
AcDbEntity
  8
ボルト
  6
Continuous
 62
     7
370
    30
100
AcDbLine
 10
-7651.792699617004
 20
-52.22784433547985
 30
0.0
 11
-7651.792699617004
 21
-47.16624433547986
 31
0.0
  0
LINE
  5
9EDDF
330
A
100
AcDbEntity
  8
ボルト
  6
Continuous
 62
     7
370
    30
100
AcDbLine
 10
-7643.123299617005
 20
-52.16664433547975
 30
0.0
 11
-7643.123299617005
 21
-47.16624433547986
 31
0.0
  0
ARC
  5
9EDE0
330
A
100
AcDbEntity
  8
ボルト
  6
Continuous
 62
     7
370
    30
100
AcDbCircle
 10
-7647.458299617004
 20
-52.16664433547975
 30
0.0
 40
4.334999999999999
100
AcDbArc
 50
180.8096499999898
 51
0.0
  0
LINE
  5
9EF59
330
A
100
AcDbEntity
  8
寸法
 62
     7
370
    50
100
AcDbLine
 10
-7406.872227690107
 20
-8.270916247968441
 30
0.0
 11
-7406.872227690107
 21
-16.16624433548259
 31
0.0
  0
ARC
  5
9EF5A
330
A
100
AcDbEntity
  8
寸法
 62
     7
370
    50
100
AcDbCircle
 10
-7408.872227690107
 20
-16.16624433548259
 30
0.0
 40
2.0
100
AcDbArc
 50
270.0
 51
0.0
  0
LINE
  5
9EF5B
330
A
100
AcDbEntity
  8
ボルト
 62
     7
370
    40
100
AcDbLine
 10
-7921.789058712338
 20
-487.9164319630633
 30
0.0
 11
-7903.309870089199
 21
-487.9164319630633
 31
0.0
  0
LINE
  5
9EF5C
330
A
100
AcDbEntity
  8
ボルト
 62
     7
370
    40
100
AcDbLine
 10
-7921.789058712338
 20
-492.9164319630634
 30
0.0
 11
-7903.309870089199
 21
-492.9164319630634
 31
0.0
  0
LINE
  5
9EF5D
330
A
100
AcDbEntity
  8
ボルト
 62
     7
370
    40
100
AcDbLine
 10
-7861.065337345424
 20
-449.1516306113278
 30
0.0
 11
-7839.065337345424
 21
-449.1516306113278
 31
0.0
  0
LINE
  5
9EF5E
330
A
100
AcDbEntity
  8
ボルト
 62
     7
370
    40
100
AcDbLine
 10
-7839.065337345424
 20
-496.1516306113278
 30
0.0
 11
-7839.065337345424
 21
-449.1516306113278
 31
0.0
  0
LINE
  5
9EF5F
330
A
100
AcDbEntity
  8
ボルト
 62
     7
370
    40
100
AcDbLine
 10
-7921.789058712338
 20
-492.9164319630634
 30
0.0
 11
-7921.789058712338
 21
-487.9164319630633
 31
0.0
  0
LINE
  5
9EF60
330
A
100
AcDbEntity
  8
ボルト
 62
     7
370
    40
100
AcDbLine
 10
-7855.065337345424
 20
-449.1516306113278
 30
0.0
 11
-7855.065337345424
 21
-446.1516306113278
 31
0.0
  0
LINE
  5
9EF61
330
A
100
AcDbEntity
  8
ボルト
 62
     7
370
    40
100
AcDbLine
 10
-7845.065337345423
 20
-449.1516306113278
 30
0.0
 11
-7845.065337345423
 21
-446.1516306113276
 31
0.0
  0
LINE
  5
9EF62
330
A
100
AcDbEntity
  8
ボルト
 62
     7
370
    40
100
AcDbLine
 10
-7861.065337345424
 20
-467.2379660217258
 30
0.0
 11
-7861.065337345424
 21
-449.1516306113278
 31
0.0
  0
LINE
  5
9EF63
330
A
100
AcDbEntity
  8
ボルト
 62
     7
370
    40
100
AcDbLine
 10
-7903.309870089199
 20
-487.9164319630633
 30
0.0
 11
-7903.309870089199
 21
-492.9164319630634
 31
0.0
  0
LINE
  5
9EF64
330
A
100
AcDbEntity
  8
ボルト
 62
     7
370
    40
100
AcDbLine
 10
-7909.730664574714
 20
-506.4116194453613
 30
0.0
 11
-7897.256339972601
 21
-506.4116194453616
 31
0.0
  0
LINE
  5
9EF65
330
A
100
AcDbEntity
  8
ボルト
 62
     7
370
    40
100
AcDbLine
 10
-7904.134107842181
 20
-498.1764207970971
 30
0.0
 11
-7898.996929763864
 21
-498.1764207970971
 31
0.0
  0
LINE
  5
9EF66
330
A
100
AcDbEntity
  8
ボルト
 62
     7
370
    40
100
AcDbLine
 10
-7917.730664574714
 20
-492.9164319630634
 30
0.0
 11
-7917.730664574714
 21
-498.4116194453613
 31
0.0
  0
ARC
  5
9EF67
330
A
100
AcDbEntity
  8
ボルト
 62
     7
370
    40
100
AcDbCircle
 10
-7909.730664574714
 20
-498.4116194453613
 30
0.0
 40
8.0
100
AcDbArc
 50
180.0
 51
270.0
  0
LINE
  5
9EF68
330
A
100
AcDbEntity
  8
ボルト
 62
     7
370
    40
100
AcDbLine
 10
-7907.134107842181
 20
-492.9164319630634
 30
0.0
 11
-7907.134107842181
 21
-495.176420797097
 31
0.0
  0
ARC
  5
9EF69
330
A
100
AcDbEntity
  8
ボルト
 62
     7
370
    40
100
AcDbCircle
 10
-7904.134107842181
 20
-495.176420797097
 30
0.0
 40
3.0
100
AcDbArc
 50
180.0
 51
270.0
  0
CIRCLE
  5
9EF6A
330
A
100
AcDbEntity
  8
寸法
 62
     7
370
    50
100
AcDbCircle
 10
-7869.065337345424
 20
-496.1516306113278
 30
0.0
 40
30.0
  0
CIRCLE
  5
9EF6B
330
A
100
AcDbEntity
  8
寸法
 62
     7
370
    50
100
AcDbCircle
 10
-7869.065337345424
 20
-496.1516306113278
 30
0.0
 40
25.0
  0
LINE
  5
9EF6C
330
A
100
AcDbEntity
  8
寸法
370
    15
100
AcDbLine
 10
-9871.779766787012
 20
-526.1662443354796
 30
0.0
 11
-7215.436839414514
 21
-526.1662443354798
 31
0.0
  0
LINE
  5
9EF6D
330
A
100
AcDbEntity
  8
寸法
 62
     7
370
    25
100
AcDbLine
 10
-7859.160062290223
 20
-526.1662443354798
 30
0.0
 11
-7764.12569248894
 21
-526.1662443354798
 31
0.0
  0
LINE
  5
9EFD1
330
A
100
AcDbEntity
  8
樹脂
 62
     7
370
    50
100
AcDbLine
 10
-9550.998349461124
 20
-446.1764896841393
 30
0.0
 11
-9531.998349461122
 21
-446.1764896841393
 31
0.0
  0
LINE
  5
9EFD2
330
A
100
AcDbEntity
  8
ボルト
 62
     7
370
    40
100
AcDbLine
 10
-9613.163708556456
 20
-487.9310456872148
 30
0.0
 11
-9594.684519933315
 21
-487.9310456872148
 31
0.0
  0
LINE
  5
9EFD3
330
A
100
AcDbEntity
  8
ボルト
 62
     7
370
    40
100
AcDbLine
 10
-9613.163708556456
 20
-492.9310456872149
 30
0.0
 11
-9594.684519933315
 21
-492.9310456872149
 31
0.0
  0
LINE
  5
9EFD4
330
A
100
AcDbEntity
  8
ボルト
 62
     7
370
    40
100
AcDbLine
 10
-9552.439987189542
 20
-449.1662443354792
 30
0.0
 11
-9530.439987189543
 21
-449.1662443354792
 31
0.0
  0
LINE
  5
9EFD5
330
A
100
AcDbEntity
  8
ボルト
 62
     7
370
    40
100
AcDbLine
 10
-9530.439987189543
 20
-496.1662443354793
 30
0.0
 11
-9530.439987189543
 21
-449.1662443354792
 31
0.0
  0
LINE
  5
9EFD6
330
A
100
AcDbEntity
  8
ボルト
 62
     7
370
    40
100
AcDbLine
 10
-9613.163708556456
 20
-492.9310456872149
 30
0.0
 11
-9613.163708556456
 21
-487.9310456872148
 31
0.0
  0
LINE
  5
9EFD7
330
A
100
AcDbEntity
  8
ボルト
 62
     7
370
    40
100
AcDbLine
 10
-9546.439987189542
 20
-449.1662443354792
 30
0.0
 11
-9546.439987189542
 21
-446.1662443354793
 31
0.0
  0
LINE
  5
9EFD8
330
A
100
AcDbEntity
  8
ボルト
 62
     7
370
    40
100
AcDbLine
 10
-9536.439987189543
 20
-449.1662443354792
 30
0.0
 11
-9536.439987189543
 21
-446.1662443354791
 31
0.0
  0
LINE
  5
9EFD9
330
A
100
AcDbEntity
  8
ボルト
 62
     7
370
    40
100
AcDbLine
 10
-9552.439987189542
 20
-467.2525797458773
 30
0.0
 11
-9552.439987189542
 21
-449.1662443354792
 31
0.0
  0
LINE
  5
9EFDA
330
A
100
AcDbEntity
  8
ボルト
 62
     7
370
    40
100
AcDbLine
 10
-9594.684519933315
 20
-487.9310456872148
 30
0.0
 11
-9594.684519933315
 21
-492.9310456872149
 31
0.0
  0
LINE
  5
9EFDB
330
A
100
AcDbEntity
  8
ボルト
 62
     7
370
    40
100
AcDbLine
 10
-9601.105314418832
 20
-506.4262331695127
 30
0.0
 11
-9588.630989816719
 21
-506.4262331695131
 31
0.0
  0
LINE
  5
9EFDC
330
A
100
AcDbEntity
  8
ボルト
 62
     7
370
    40
100
AcDbLine
 10
-9595.508757686301
 20
-498.1910345212486
 30
0.0
 11
-9590.371579607984
 21
-498.1910345212486
 31
0.0
  0
LINE
  5
9EFDD
330
A
100
AcDbEntity
  8
ボルト
 62
     7
370
    40
100
AcDbLine
 10
-9609.105314418833
 20
-492.9310456872149
 30
0.0
 11
-9609.105314418833
 21
-498.4262331695127
 31
0.0
  0
ARC
  5
9EFDE
330
A
100
AcDbEntity
  8
ボルト
 62
     7
370
    40
100
AcDbCircle
 10
-9601.105314418832
 20
-498.4262331695127
 30
0.0
 40
8.0
100
AcDbArc
 50
180.0
 51
270.0
  0
LINE
  5
9EFDF
330
A
100
AcDbEntity
  8
ボルト
 62
     7
370
    40
100
AcDbLine
 10
-9598.508757686301
 20
-492.9310456872149
 30
0.0
 11
-9598.508757686301
 21
-495.1910345212486
 31
0.0
  0
ARC
  5
9EFE0
330
A
100
AcDbEntity
  8
ボルト
 62
     7
370
    40
100
AcDbCircle
 10
-9595.508757686301
 20
-495.1910345212486
 30
0.0
 40
3.0
100
AcDbArc
 50
180.0
 51
270.0
  0
CIRCLE
  5
9EFE1
330
A
100
AcDbEntity
  8
寸法
 62
     7
370
    40
100
AcDbCircle
 10
-9560.439987189544
 20
-496.1662443354793
 30
0.0
 40
30.0
  0
CIRCLE
  5
9EFE2
330
A
100
AcDbEntity
  8
寸法
 62
     7
370
    40
100
AcDbCircle
 10
-9560.439987189544
 20
-496.1662443354793
 30
0.0
 40
25.0
  0
LINE
  5
9F034
330
A
100
AcDbEntity
  8
樹脂
 62
     7
370
    50
100
AcDbLine
 10
-7420.623699617005
 20
-446.1618759599873
 30
0.0
 11
-7439.623699617005
 21
-446.1618759599873
 31
0.0
  0
LINE
  5
9F035
330
A
100
AcDbEntity
  8
寸法
 62
     7
370
    50
100
AcDbLine
 10
-7420.623699617005
 20
-446.1618759599873
 30
0.0
 11
-7420.623699617005
 21
-413.8233402184321
 31
0.0
  0
LINE
  5
9F036
330
A
100
AcDbEntity
  8
寸法
 62
     7
370
    50
100
AcDbLine
 10
-7439.623699617005
 20
-413.8233402184271
 30
0.0
 11
-7439.623699617005
 21
-446.1618759599873
 31
0.0
  0
LINE
  5
9F037
330
A
100
AcDbEntity
  8
ボルト
 62
     7
370
    30
100
AcDbLine
 10
-7439.709277860266
 20
-357.0797043900288
 30
0.0
 11
-7439.709277860266
 21
-357.0797043900288
 31
0.0
  0
LINE
  5
9F03A
330
A
100
AcDbEntity
  8
寸法
 62
     7
370
    25
100
AcDbLine
 10
-7424.781000233759
 20
-368.0791769909796
 30
0.0
 11
-7429.249249625129
 21
-341.7575013413962
 31
0.0
  0
LINE
  5
9F03C
330
A
100
AcDbEntity
  8
寸法
 62
     7
370
    25
100
AcDbLine
 10
-7448.543882352943
 20
-347.5978430835235
 30
0.0
 11
-7448.962830366088
 21
-345.1299705118374
 31
0.0
  0
ARC
  5
9F03D
330
A
100
AcDbEntity
  8
寸法
 62
     7
370
    25
100
AcDbCircle
 10
-7473.075386190323
 20
-355.2759612964112
 30
0.0
 40
25.70502246282854
100
AcDbArc
 50
273.7690761873128
 51
17.37960424247184
  0
ARC
  5
9F040
330
A
100
AcDbEntity
  8
寸法
 62
     7
370
    25
100
AcDbCircle
 10
-7434.178727852364
 20
-342.5943074164288
 30
0.0
 40
4.999999999999998
100
AcDbArc
 50
9.634429813580199
 51
34.68670942623901
  0
ARC
  5
9F041
330
A
100
AcDbEntity
  8
寸法
 62
     7
370
    25
100
AcDbCircle
 10
-7444.033356441238
 20
-344.2931390925994
 30
0.0
 40
4.999999999999998
100
AcDbArc
 50
156.2236146217646
 51
189.6347243917399
  0
ARC
  5
9F046
330
A
100
AcDbEntity
  8
寸法
 62
     7
370
    25
100
AcDbCircle
 10
-7438.853975027067
 20
-529.8911278177448
 30
0.0
 40
152.4765639132005
100
AcDbArc
 50
91.53330982420888
 51
102.3190539892191
  0
ARC
  5
9F047
330
A
100
AcDbEntity
  8
寸法
 62
     7
370
    25
100
AcDbCircle
 10
-7429.710478460994
 20
-368.9159830660124
 30
0.0
 40
4.999999999999998
100
AcDbArc
 50
344.6287362578088
 51
9.634429813593042
  0
LINE
  5
9F04A
330
A
100
AcDbEntity
  8
ボルト
 62
     7
370
    40
100
AcDbLine
 10
-7358.458340521671
 20
-487.9164319630627
 30
0.0
 11
-7376.93752914481
 21
-487.9164319630627
 31
0.0
  0
LINE
  5
9F04B
330
A
100
AcDbEntity
  8
ボルト
 62
     7
370
    40
100
AcDbLine
 10
-7358.458340521671
 20
-492.9164319630626
 30
0.0
 11
-7376.93752914481
 21
-492.9164319630626
 31
0.0
  0
LINE
  5
9F04C
330
A
100
AcDbEntity
  8
ボルト
 62
     7
370
    40
100
AcDbLine
 10
-7419.182061888585
 20
-449.1516306113273
 30
0.0
 11
-7441.182061888587
 21
-449.1516306113273
 31
0.0
  0
LINE
  5
9F04D
330
A
100
AcDbEntity
  8
ボルト
 62
     7
370
    40
100
AcDbLine
 10
-7441.182061888587
 20
-496.1516306113272
 30
0.0
 11
-7441.182061888587
 21
-449.1516306113273
 31
0.0
  0
LINE
  5
9F04E
330
A
100
AcDbEntity
  8
ボルト
 62
     7
370
    40
100
AcDbLine
 10
-7358.458340521671
 20
-492.9164319630626
 30
0.0
 11
-7358.458340521671
 21
-487.9164319630627
 31
0.0
  0
LINE
  5
9F04F
330
A
100
AcDbEntity
  8
ボルト
 62
     7
370
    40
100
AcDbLine
 10
-7425.182061888584
 20
-449.1516306113273
 30
0.0
 11
-7425.182061888584
 21
-446.1516306113272
 31
0.0
  0
LINE
  5
9F050
330
A
100
AcDbEntity
  8
ボルト
 62
     7
370
    40
100
AcDbLine
 10
-7435.182061888585
 20
-449.1516306113273
 30
0.0
 11
-7435.182061888585
 21
-446.1516306113272
 31
0.0
  0
LINE
  5
9F051
330
A
100
AcDbEntity
  8
ボルト
 62
     7
370
    40
100
AcDbLine
 10
-7419.182061888585
 20
-467.2379660217254
 30
0.0
 11
-7419.182061888585
 21
-449.1516306113273
 31
0.0
  0
LINE
  5
9F052
330
A
100
AcDbEntity
  8
ボルト
 62
     7
370
    40
100
AcDbLine
 10
-7376.93752914481
 20
-487.9164319630627
 30
0.0
 11
-7376.93752914481
 21
-492.9164319630626
 31
0.0
  0
LINE
  5
9F053
330
A
100
AcDbEntity
  8
ボルト
 62
     7
370
    40
100
AcDbLine
 10
-7370.516734659296
 20
-506.4116194453606
 30
0.0
 11
-7382.991059261408
 21
-506.4116194453609
 31
0.0
  0
LINE
  5
9F054
330
A
100
AcDbEntity
  8
ボルト
 62
     7
370
    40
100
AcDbLine
 10
-7376.113291391829
 20
-498.1764207970964
 30
0.0
 11
-7381.250469470145
 21
-498.1764207970964
 31
0.0
  0
LINE
  5
9F055
330
A
100
AcDbEntity
  8
ボルト
 62
     7
370
    40
100
AcDbLine
 10
-7362.516734659296
 20
-492.9164319630626
 30
0.0
 11
-7362.516734659296
 21
-498.4116194453606
 31
0.0
  0
ARC
  5
9F056
330
A
100
AcDbEntity
  8
ボルト
 62
     7
370
    40
100
AcDbCircle
 10
-7370.516734659296
 20
-498.4116194453606
 30
0.0
 40
8.0
100
AcDbArc
 50
270.0
 51
0.0
  0
LINE
  5
9F057
330
A
100
AcDbEntity
  8
ボルト
 62
     7
370
    40
100
AcDbLine
 10
-7373.113291391828
 20
-492.9164319630626
 30
0.0
 11
-7373.113291391828
 21
-495.1764207970963
 31
0.0
  0
ARC
  5
9F058
330
A
100
AcDbEntity
  8
ボルト
 62
     7
370
    40
100
AcDbCircle
 10
-7376.113291391829
 20
-495.1764207970963
 30
0.0
 40
3.0
100
AcDbArc
 50
270.0
 51
0.0
  0
CIRCLE
  5
9F059
330
A
100
AcDbEntity
  8
寸法
 62
     7
370
    50
100
AcDbCircle
 10
-7411.182061888585
 20
-496.1516306113272
 30
0.0
 40
30.0
  0
CIRCLE
  5
9F05A
330
A
100
AcDbEntity
  8
寸法
 62
     7
370
    50
100
AcDbCircle
 10
-7411.182061888585
 20
-496.1516306113272
 30
0.0
 40
25.0
  0
LINE
  5
9F05B
330
A
100
AcDbEntity
  8
寸法
 62
     7
370
    25
100
AcDbLine
 10
-7421.087336943784
 20
-526.1662443354794
 30
0.0
 11
-7516.121706745067
 21
-526.1662443354796
 31
0.0
  0
LINE
  5
9F15A
330
A
100
AcDbEntity
  8
妻枠
  6
STYLE_08
 62
     7
370
    25
100
AcDbLine
 10
-9531.998349461089
 20
1293.970262478704
 30
0.0
 11
-9531.998349461089
 21
1046.970262478704
 31
0.0
  0
LINE
  5
9F15B
330
A
100
AcDbEntity
  8
樹脂
 62
     7
370
    50
100
AcDbLine
 10
-9531.91548530968
 20
1246.970262478707
 30
0.0
 11
-9531.915485309685
 21
1046.970262478707
 31
0.0
  0
LINE
  5
9F15C
330
A
100
AcDbEntity
  8
樹脂
 62
     7
370
    50
100
AcDbLine
 10
-9531.915485309692
 20
1046.970262478707
 30
0.0
 11
-9531.915485309692
 21
1010.634988309626
 31
0.0
  0
ARC
  5
9F15D
330
A
100
AcDbEntity
  8
樹脂
 62
     7
370
    50
100
AcDbCircle
 10
-9541.415485309681
 20
1257.470262478707
 30
0.0
 40
9.5
100
AcDbArc
 50
0.0
 51
90.0
  0
LINE
  5
9F15E
330
A
100
AcDbEntity
  8
樹脂
 62
     7
370
    50
100
AcDbLine
 10
-9550.913289995287
 20
1257.674483325208
 30
0.0
 11
-9550.915485309685
 21
836.4702624787076
 31
0.0
  0
LINE
  5
9F15F
330
A
100
AcDbEntity
  8
樹脂
 62
     7
370
    50
100
AcDbLine
 10
-9531.91548530968
 20
1257.470262478707
 30
0.0
 11
-9531.91548530968
 21
1108.485291934949
 31
0.0
  0
ARC
  5
9F160
330
A
100
AcDbEntity
  8
樹脂
 62
     7
370
    50
100
AcDbCircle
 10
-9541.415485309681
 20
1257.470262478707
 30
0.0
 40
9.5
100
AcDbArc
 50
90.0
 51
180.0
  0
ARC
  5
9F161
330
A
100
AcDbEntity
  8
樹脂
 62
     7
370
    30
100
AcDbCircle
 10
-9541.415485309681
 20
914.470262478707
 30
0.0
 40
9.5
100
AcDbArc
 50
180.0
 51
0.0
  0
ARC
  5
9F162
330
A
100
AcDbEntity
  8
樹脂
 62
     7
370
    30
100
AcDbCircle
 10
-9541.415485309681
 20
1179.470262478708
 30
0.0
 40
9.5
100
AcDbArc
 50
0.0
 51
90.0
  0
ARC
  5
9F163
330
A
100
AcDbEntity
  8
樹脂
 62
     7
370
    30
100
AcDbCircle
 10
-9541.415485309681
 20
1179.470262478708
 30
0.0
 40
9.5
100
AcDbArc
 50
90.0
 51
180.0
  0
ARC
  5
9F164
330
A
100
AcDbEntity
  8
樹脂
 62
     7
370
    50
100
AcDbCircle
 10
-9541.415485309684
 20
836.4702624787071
 30
0.0
 40
9.5
100
AcDbArc
 50
270.0
 51
0.0
  0
ARC
  5
9F165
330
A
100
AcDbEntity
  8
樹脂
 62
     7
370
    50
100
AcDbCircle
 10
-9541.415485309684
 20
836.4702624787071
 30
0.0
 40
9.5
100
AcDbArc
 50
180.0
 51
270.0
  0
LINE
  5
9F182
330
A
100
AcDbEntity
  8
妻枠
 62
     7
370
    50
100
AcDbLine
 10
-7448.872227690088
 20
-68.16624433542916
 30
0.0
 11
-7466.872227690089
 21
-68.16624433543393
 31
0.0
  0
ARC
  5
9F183
330
A
100
AcDbEntity
  8
寸法
 62
     7
370
    50
100
AcDbCircle
 10
-7466.872227690089
 20
-66.16624433543416
 30
0.0
 40
2.0
100
AcDbArc
 50
180.000000000013
 51
270.0
  0
LINE
  5
9F184
330
A
100
AcDbEntity
  8
寸法
 62
     7
370
    50
100
AcDbLine
 10
-7446.872227690104
 20
-18.16624433542824
 30
0.0
 11
-7446.87222769009
 21
-66.1662443354287
 31
0.0
  0
LINE
  5
9F185
330
A
100
AcDbEntity
  8
寸法
 62
     7
370
    50
100
AcDbLine
 10
-7468.872227690103
 20
-18.16624433543416
 30
0.0
 11
-7468.87222769009
 21
-66.16624433543461
 31
0.0
  0
ARC
  5
9F186
330
A
100
AcDbEntity
  8
寸法
 62
     7
370
    50
100
AcDbCircle
 10
-7448.872227690092
 20
-66.16624433542916
 30
0.0
 40
2.0
100
AcDbArc
 50
270.0
 51
0.0000000000130276
  0
CIRCLE
  5
9F191
330
A
100
AcDbEntity
  8
妻枠
 62
     7
370
    50
100
AcDbCircle
 10
-9401.998349461086
 20
1046.970262478704
 30
0.0
 40
4.0
  0
CIRCLE
  5
9F192
330
A
100
AcDbEntity
  8
妻枠
 62
     7
370
    50
100
AcDbCircle
 10
-9451.998349461083
 20
1046.970262478704
 30
0.0
 40
4.0
  0
LINE
  5
9F193
330
A
100
AcDbEntity
  8
ナット
  6
Continuous
 62
     7
100
AcDbLine
 10
-9406.328449461083
 20
1049.470262478704
 30
0.0
 11
-9401.998349461086
 21
1051.970262478704
 31
0.0
  0
LINE
  5
9F194
330
A
100
AcDbEntity
  8
ナット
  6
Continuous
 62
     7
100
AcDbLine
 10
-9406.328449461083
 20
1049.470262478704
 30
0.0
 11
-9406.328449461083
 21
1044.470262478704
 31
0.0
  0
LINE
  5
9F195
330
A
100
AcDbEntity
  8
ナット
  6
Continuous
 62
     7
100
AcDbLine
 10
-9406.328449461083
 20
1044.470262478704
 30
0.0
 11
-9401.998349461086
 21
1041.970262478704
 31
0.0
  0
LINE
  5
9F196
330
A
100
AcDbEntity
  8
ナット
  6
Continuous
 62
     7
100
AcDbLine
 10
-9401.998349461086
 20
1041.970262478704
 30
0.0
 11
-9397.668249461087
 21
1044.470262478704
 31
0.0
  0
LINE
  5
9F197
330
A
100
AcDbEntity
  8
ナット
  6
Continuous
 62
     7
100
AcDbLine
 10
-9397.668249461087
 20
1049.470262478704
 30
0.0
 11
-9397.668249461087
 21
1044.470262478704
 31
0.0
  0
LINE
  5
9F198
330
A
100
AcDbEntity
  8
ナット
  6
Continuous
 62
     7
100
AcDbLine
 10
-9401.998349461086
 20
1051.970262478704
 30
0.0
 11
-9397.668249461087
 21
1049.470262478704
 31
0.0
  0
CIRCLE
  5
9F199
330
A
100
AcDbEntity
  8
ナット
  6
Continuous
 62
     7
100
AcDbCircle
 10
-9401.998349461086
 20
1046.970262478704
 30
0.0
 40
7.25
  0
CIRCLE
  5
9F19A
330
A
100
AcDbEntity
  8
ナット
  6
Continuous
 62
     7
100
AcDbCircle
 10
-9401.998349461086
 20
1046.970262478704
 30
0.0
 40
4.33
  0
CIRCLE
  5
9F19B
330
A
100
AcDbEntity
  8
ナット
  6
Continuous
 62
     7
100
AcDbCircle
 10
-9401.998349461086
 20
1046.970262478704
 30
0.0
 40
4.03
  0
LINE
  5
9F19C
330
A
100
AcDbEntity
  8
ナット
  6
Hidden
 62
     7
100
AcDbLine
 10
-9456.328449461087
 20
1049.470262478704
 30
0.0
 11
-9451.998349461083
 21
1051.970262478704
 31
0.0
  0
LINE
  5
9F19D
330
A
100
AcDbEntity
  8
ナット
  6
Hidden
 62
     7
100
AcDbLine
 10
-9456.328449461087
 20
1049.470262478704
 30
0.0
 11
-9456.328449461087
 21
1044.470262478704
 31
0.0
  0
LINE
  5
9F19E
330
A
100
AcDbEntity
  8
ナット
  6
Hidden
 62
     7
100
AcDbLine
 10
-9456.328449461087
 20
1044.470262478704
 30
0.0
 11
-9451.998349461083
 21
1041.970262478704
 31
0.0
  0
LINE
  5
9F19F
330
A
100
AcDbEntity
  8
ナット
  6
Hidden
 62
     7
100
AcDbLine
 10
-9451.998349461083
 20
1041.970262478704
 30
0.0
 11
-9447.668249461086
 21
1044.470262478704
 31
0.0
  0
LINE
  5
9F1A0
330
A
100
AcDbEntity
  8
ナット
  6
Hidden
 62
     7
100
AcDbLine
 10
-9447.668249461086
 20
1049.470262478704
 30
0.0
 11
-9447.668249461086
 21
1044.470262478704
 31
0.0
  0
LINE
  5
9F1A1
330
A
100
AcDbEntity
  8
ナット
  6
Hidden
 62
     7
100
AcDbLine
 10
-9451.998349461083
 20
1051.970262478704
 30
0.0
 11
-9447.668249461086
 21
1049.470262478704
 31
0.0
  0
CIRCLE
  5
9F1A2
330
A
100
AcDbEntity
  8
ナット
  6
Hidden
 62
     7
100
AcDbCircle
 10
-9451.998349461083
 20
1046.970262478704
 30
0.0
 40
7.25
  0
CIRCLE
  5
9F1A3
330
A
100
AcDbEntity
  8
ナット
  6
Hidden
 62
     7
100
AcDbCircle
 10
-9451.998349461083
 20
1046.970262478704
 30
0.0
 40
4.33
  0
CIRCLE
  5
9F1A4
330
A
100
AcDbEntity
  8
ナット
  6
Hidden
 62
     7
100
AcDbCircle
 10
-9451.998349461083
 20
1046.970262478704
 30
0.0
 40
4.03
  0
LINE
  5
9F1B8
330
A
100
AcDbEntity
  8
樹脂
 62
     7
370
    50
100
AcDbLine
 10
-7423.714591838514
 20
-377.1592272699801
 30
0.0
 11
-7505.173137207973
 21
102.5371416666835
 31
0.0
  0
LINE
  5
9F1B9
330
A
100
AcDbEntity
  8
樹脂
 62
     7
370
    50
100
AcDbLine
 10
-7442.446432239389
 20
-380.3401320463276
 30
0.0
 11
-7523.904977608847
 21
99.35623689033425
 31
0.0
  0
LINE
  5
9F1BA
330
A
100
AcDbEntity
  8
樹脂
 62
     7
370
    50
100
AcDbLine
 10
-7442.446432239387
 20
-380.3401320463295
 30
0.0
 11
-7523.904977608847
 21
99.35623689033425
 31
0.0
  0
ARC
  5
9F1BB
330
A
100
AcDbEntity
  8
寸法
 62
     7
370
    50
100
AcDbCircle
 10
-7639.623699617004
 20
-413.8233402184265
 30
0.0
 40
200.0
100
AcDbArc
 50
0.0
 51
9.637616058371373
  0
ARC
  5
9F1BC
330
A
100
AcDbEntity
  8
寸法
 62
     7
370
    50
100
AcDbCircle
 10
-7639.623699617004
 20
-413.8233402184265
 30
0.0
 40
219.0
100
AcDbArc
 50
0.0
 51
9.637616058371373
  0
ARC
  5
9F1BD
330
A
100
AcDbEntity
  8
樹脂
 62
     7
370
    50
100
AcDbCircle
 10
-7553.481567715491
 20
94.33375566451969
 30
0.0
 40
30.0
100
AcDbArc
 50
9.637616058371373
 51
90.0
  0
ARC
  5
9F1BE
330
A
100
AcDbEntity
  8
樹脂
 62
     7
370
    50
100
AcDbCircle
 10
-7553.481567715491
 20
94.33375566451969
 30
0.0
 40
49.0
100
AcDbArc
 50
9.637616058371373
 51
90.0
  0
LINE
  5
9F1BF
330
A
100
AcDbEntity
  8
樹脂
 62
     7
370
    50
100
AcDbLine
 10
-7856.532807395494
 20
-377.1592272699806
 30
0.0
 11
-7775.074262026038
 21
102.5371416666835
 31
0.0
  0
LINE
  5
9F1C0
330
A
100
AcDbEntity
  8
樹脂
 62
     7
370
    50
100
AcDbLine
 10
-7837.80096699462
 20
-380.3401320463296
 30
0.0
 11
-7756.342421625162
 21
99.35623689033469
 31
0.0
  0
ARC
  5
9F1C1
330
A
100
AcDbEntity
  8
寸法
 62
     7
370
    50
100
AcDbCircle
 10
-7640.623699617005
 20
-413.8233402184268
 30
0.0
 40
200.0
100
AcDbArc
 50
170.3623839416286
 51
180.0
  0
ARC
  5
9F1C2
330
A
100
AcDbEntity
  8
寸法
 62
     7
370
    50
100
AcDbCircle
 10
-7640.623699617005
 20
-413.8233402184268
 30
0.0
 40
219.0
100
AcDbArc
 50
170.3623839416286
 51
180.0
  0
LINE
  5
9F1C5
330
A
100
AcDbEntity
  8
寸法
 62
     7
370
    25
100
AcDbLine
 10
-7855.394232665841
 20
-367.6542009688994
 30
0.0
 11
-7850.925983274471
 21
-341.3325253193161
 31
0.0
  0
LINE
  5
9F1C7
330
A
100
AcDbEntity
  8
寸法
 62
     7
370
    25
100
AcDbLine
 10
-7831.631350546655
 20
-347.1728670614434
 30
0.0
 11
-7831.212402533511
 21
-344.7049944897574
 31
0.0
  0
ARC
  5
9F1CA
330
A
100
AcDbEntity
  8
寸法
 62
     7
370
    25
100
AcDbCircle
 10
-7845.996505047236
 20
-342.1693313943488
 30
0.0
 40
4.999999999999998
100
AcDbArc
 50
145.3132905737845
 51
170.3655701864198
  0
ARC
  5
9F1CB
330
A
100
AcDbEntity
  8
寸法
 62
     7
370
    25
100
AcDbCircle
 10
-7836.141876458362
 20
-343.8681630705194
 30
0.0
 40
4.999999999999998
100
AcDbArc
 50
350.3652756082601
 51
16.97398069617072
  0
ARC
  5
9F1D0
330
A
100
AcDbEntity
  8
寸法
 62
     7
370
    25
100
AcDbCircle
 10
-7850.464754438603
 20
-368.4910070439324
 30
0.0
 40
4.999999999999998
100
AcDbArc
 50
170.3655701864069
 51
195.3712637421644
  0
ARC
  5
9F1D3
330
A
100
AcDbEntity
  8
寸法
 62
     7
370
    25
100
AcDbCircle
 10
-7807.128540282338
 20
-355.1996579104959
 30
0.0
 40
25.78404704819619
100
AcDbArc
 50
161.8619005784435
 51
266.1456760129979
  0
ARC
  5
9F1D4
330
A
100
AcDbEntity
  8
寸法
 62
     7
370
    25
100
AcDbCircle
 10
-7847.055282642293
 20
-566.1749047311657
 30
0.0
 40
189.1457921463863
100
AcDbArc
 50
78.35036399415398
 51
87.0380574864375
  0
LINE
  5
9F1F3
330
A
100
AcDbEntity
  8
0
 62
     7
370
    50
100
AcDbLine
 10
-9481.998349461086
 20
-18.16624433547963
 30
0.0
 11
-9481.998349461086
 21
-25.4247397082595
 31
0.0
  0
ARC
  5
9F1F4
330
A
100
AcDbEntity
  8
0
 62
     7
370
    50
100
AcDbCircle
 10
-9119.855006181301
 20
2132.085942383294
 30
0.0
 40
2200.259903102529
100
AcDbArc
 50
260.8594459699775
 51
269.9962672750396
  0
ARC
  5
9F1F6
330
A
100
AcDbEntity
  8
0
 62
     7
370
    50
100
AcDbCircle
 10
-9466.998349461086
 20
-25.42473970825927
 30
0.0
 40
15.0
100
AcDbArc
 50
180.0
 51
260.8582264846134
  0
LINE
  5
9F32F
330
A
100
AcDbEntity
  8
妻枠
 62
     7
370
    30
100
AcDbLine
 10
-7394.85891664419
 20
308.8374593519618
 30
0.0
 11
-7395.085656875187
 21
304.5109980116586
 31
0.0
  0
ARC
  5
9F330
330
A
100
AcDbEntity
  8
妻枠
 62
     7
370
    30
100
AcDbCircle
 10
-7406.659678343967
 20
293.8460610414302
 30
0.0
 40
20.0
100
AcDbArc
 50
56.99999999998798
 51
69.10627119275545
  0
ARC
  5
9F331
330
A
100
AcDbEntity
  8
妻枠
 62
     7
370
    30
100
AcDbCircle
 10
-7396.856175713698
 20
308.9421312644477
 30
0.0
 40
2.0
100
AcDbArc
 50
356.9999999999966
 51
56.99999999998798
  0
CIRCLE
  5
9F4C6
330
A
100
AcDbEntity
  8
ボルト
 62
     7
370
    30
100
AcDbCircle
 10
-7408.27902870413
 20
263.4249671641614
 30
0.0
 40
6.5
  0
CIRCLE
  5
9F4C7
330
A
100
AcDbEntity
  8
ボルト
 62
     7
370
    30
100
AcDbCircle
 10
-7408.27902870413
 20
263.4249671641614
 30
0.0
 40
5.7
  0
LINE
  5
9F4C8
330
A
100
AcDbEntity
  8
ボルト
 62
     7
370
    30
100
AcDbLine
 10
-7409.27902870413
 20
265.1569671641614
 30
0.0
 11
-7407.27902870413
 21
265.1569671641614
 31
0.0
  0
LINE
  5
9F4C9
330
A
100
AcDbEntity
  8
ボルト
 62
     7
370
    30
100
AcDbLine
 10
-7410.27902870413
 20
263.4249671641614
 30
0.0
 11
-7409.27902870413
 21
265.1569671641614
 31
0.0
  0
LINE
  5
9F4CA
330
A
100
AcDbEntity
  8
ボルト
 62
     7
370
    30
100
AcDbLine
 10
-7410.27902870413
 20
263.4249671641614
 30
0.0
 11
-7409.27902870413
 21
261.6928671641613
 31
0.0
  0
LINE
  5
9F4CB
330
A
100
AcDbEntity
  8
ボルト
 62
     7
370
    30
100
AcDbLine
 10
-7409.27902870413
 20
261.6928671641613
 30
0.0
 11
-7407.27902870413
 21
261.6928671641613
 31
0.0
  0
LINE
  5
9F4CC
330
A
100
AcDbEntity
  8
ボルト
 62
     7
370
    30
100
AcDbLine
 10
-7407.27902870413
 20
261.6928671641613
 30
0.0
 11
-7406.27902870413
 21
263.4249671641614
 31
0.0
  0
LINE
  5
9F4CD
330
A
100
AcDbEntity
  8
ボルト
 62
     7
370
    30
100
AcDbLine
 10
-7407.27902870413
 20
265.1569671641614
 30
0.0
 11
-7406.27902870413
 21
263.4249671641614
 31
0.0
  0
CIRCLE
  5
9F4CE
330
A
100
AcDbEntity
  8
ボルト
 62
     7
370
    30
100
AcDbCircle
 10
-7871.968370529879
 20
263.4249671641689
 30
0.0
 40
6.5
  0
CIRCLE
  5
9F4CF
330
A
100
AcDbEntity
  8
ボルト
 62
     7
370
    30
100
AcDbCircle
 10
-7871.968370529879
 20
263.4249671641689
 30
0.0
 40
6.5
  0
CIRCLE
  5
9F4D0
330
A
100
AcDbEntity
  8
ボルト
 62
     7
370
    30
100
AcDbCircle
 10
-7871.968370529879
 20
263.4249671641689
 30
0.0
 40
5.7
  0
LINE
  5
9F4D1
330
A
100
AcDbEntity
  8
ボルト
 62
     7
370
    30
100
AcDbLine
 10
-7872.968370529879
 20
265.1569671641689
 30
0.0
 11
-7870.96837052988
 21
265.1569671641689
 31
0.0
  0
LINE
  5
9F4D2
330
A
100
AcDbEntity
  8
ボルト
 62
     7
370
    30
100
AcDbLine
 10
-7873.96837052988
 20
263.4249671641689
 30
0.0
 11
-7872.968370529879
 21
265.1569671641689
 31
0.0
  0
LINE
  5
9F4D3
330
A
100
AcDbEntity
  8
ボルト
 62
     7
370
    30
100
AcDbLine
 10
-7873.96837052988
 20
263.4249671641689
 30
0.0
 11
-7872.968370529879
 21
261.6928671641688
 31
0.0
  0
LINE
  5
9F4D4
330
A
100
AcDbEntity
  8
ボルト
 62
     7
370
    30
100
AcDbLine
 10
-7872.968370529879
 20
261.6928671641688
 30
0.0
 11
-7870.96837052988
 21
261.6928671641688
 31
0.0
  0
LINE
  5
9F4D5
330
A
100
AcDbEntity
  8
ボルト
 62
     7
370
    30
100
AcDbLine
 10
-7870.96837052988
 20
261.6928671641688
 30
0.0
 11
-7869.968370529879
 21
263.4249671641689
 31
0.0
  0
LINE
  5
9F4D6
330
A
100
AcDbEntity
  8
ボルト
 62
     7
370
    30
100
AcDbLine
 10
-7870.96837052988
 20
265.1569671641689
 30
0.0
 11
-7869.968370529879
 21
263.4249671641689
 31
0.0
  0
CIRCLE
  5
9F4D7
330
A
100
AcDbEntity
  8
ボルト
 62
     7
370
    30
100
AcDbCircle
 10
-7489.698284656377
 20
-45.33665566320975
 30
0.0
 40
6.5
  0
CIRCLE
  5
9F4D8
330
A
100
AcDbEntity
  8
ボルト
 62
     7
370
    30
100
AcDbCircle
 10
-7489.698284656377
 20
-45.33665566320975
 30
0.0
 40
6.5
  0
CIRCLE
  5
9F4D9
330
A
100
AcDbEntity
  8
ボルト
 62
     7
370
    30
100
AcDbCircle
 10
-7489.698284656377
 20
-45.33665566320975
 30
0.0
 40
5.7
  0
LINE
  5
9F4DA
330
A
100
AcDbEntity
  8
ボルト
 62
     7
370
    30
100
AcDbLine
 10
-7490.698284656376
 20
-43.60465566320977
 30
0.0
 11
-7488.698284656376
 21
-43.60465566320977
 31
0.0
  0
LINE
  5
9F4DB
330
A
100
AcDbEntity
  8
ボルト
 62
     7
370
    30
100
AcDbLine
 10
-7491.698284656377
 20
-45.33665566320975
 30
0.0
 11
-7490.698284656376
 21
-43.60465566320977
 31
0.0
  0
LINE
  5
9F4DC
330
A
100
AcDbEntity
  8
ボルト
 62
     7
370
    30
100
AcDbLine
 10
-7491.698284656377
 20
-45.33665566320975
 30
0.0
 11
-7490.698284656376
 21
-47.06875566320991
 31
0.0
  0
LINE
  5
9F4DD
330
A
100
AcDbEntity
  8
ボルト
 62
     7
370
    30
100
AcDbLine
 10
-7490.698284656376
 20
-47.06875566320991
 30
0.0
 11
-7488.698284656376
 21
-47.06875566320991
 31
0.0
  0
LINE
  5
9F4DE
330
A
100
AcDbEntity
  8
ボルト
 62
     7
370
    30
100
AcDbLine
 10
-7488.698284656376
 20
-47.06875566320991
 30
0.0
 11
-7487.698284656378
 21
-45.33665566320975
 31
0.0
  0
LINE
  5
9F4DF
330
A
100
AcDbEntity
  8
ボルト
 62
     7
370
    30
100
AcDbLine
 10
-7488.698284656376
 20
-43.60465566320977
 30
0.0
 11
-7487.698284656378
 21
-45.33665566320975
 31
0.0
  0
CIRCLE
  5
9F4E0
330
A
100
AcDbEntity
  8
ボルト
 62
     7
370
    30
100
AcDbCircle
 10
-7790.585942421117
 20
-45.33540753717261
 30
0.0
 40
6.5
  0
CIRCLE
  5
9F4E1
330
A
100
AcDbEntity
  8
ボルト
 62
     7
370
    30
100
AcDbCircle
 10
-7790.585942421117
 20
-45.33540753717261
 30
0.0
 40
6.5
  0
CIRCLE
  5
9F4E2
330
A
100
AcDbEntity
  8
ボルト
 62
     7
370
    30
100
AcDbCircle
 10
-7790.585942421117
 20
-45.33540753717261
 30
0.0
 40
5.7
  0
LINE
  5
9F4E3
330
A
100
AcDbEntity
  8
ボルト
 62
     7
370
    30
100
AcDbLine
 10
-7791.585942421119
 20
-43.60340753717264
 30
0.0
 11
-7789.585942421118
 21
-43.60340753717264
 31
0.0
  0
LINE
  5
9F4E4
330
A
100
AcDbEntity
  8
ボルト
 62
     7
370
    30
100
AcDbLine
 10
-7792.585942421118
 20
-45.33540753717261
 30
0.0
 11
-7791.585942421119
 21
-43.60340753717264
 31
0.0
  0
LINE
  5
9F4E5
330
A
100
AcDbEntity
  8
ボルト
 62
     7
370
    30
100
AcDbLine
 10
-7792.585942421118
 20
-45.33540753717261
 30
0.0
 11
-7791.585942421119
 21
-47.06750753717279
 31
0.0
  0
LINE
  5
9F4E6
330
A
100
AcDbEntity
  8
ボルト
 62
     7
370
    30
100
AcDbLine
 10
-7791.585942421119
 20
-47.06750753717279
 30
0.0
 11
-7789.585942421118
 21
-47.06750753717279
 31
0.0
  0
LINE
  5
9F4E7
330
A
100
AcDbEntity
  8
ボルト
 62
     7
370
    30
100
AcDbLine
 10
-7789.585942421118
 20
-47.06750753717279
 30
0.0
 11
-7788.585942421119
 21
-45.33540753717261
 31
0.0
  0
LINE
  5
9F4E8
330
A
100
AcDbEntity
  8
ボルト
 62
     7
370
    30
100
AcDbLine
 10
-7789.585942421118
 20
-43.60340753717264
 30
0.0
 11
-7788.585942421119
 21
-45.33540753717261
 31
0.0
  0
CIRCLE
  5
9F4E9
330
A
100
AcDbEntity
  8
ボルト
 62
     7
370
    30
100
AcDbCircle
 10
-7436.844042098122
 20
-356.5868519820678
 30
0.0
 40
6.5
  0
CIRCLE
  5
9F4EA
330
A
100
AcDbEntity
  8
ボルト
 62
     7
370
    30
100
AcDbCircle
 10
-7436.844042098122
 20
-356.5868519820678
 30
0.0
 40
6.5
  0
CIRCLE
  5
9F4EB
330
A
100
AcDbEntity
  8
ボルト
 62
     7
370
    30
100
AcDbCircle
 10
-7436.844042098122
 20
-356.5868519820678
 30
0.0
 40
5.7
  0
LINE
  5
9F4EC
330
A
100
AcDbEntity
  8
ボルト
 62
     7
370
    30
100
AcDbLine
 10
-7437.844042098122
 20
-354.8548519820679
 30
0.0
 11
-7435.844042098121
 21
-354.8548519820679
 31
0.0
  0
LINE
  5
9F4ED
330
A
100
AcDbEntity
  8
ボルト
 62
     7
370
    30
100
AcDbLine
 10
-7438.844042098121
 20
-356.5868519820678
 30
0.0
 11
-7437.844042098122
 21
-354.8548519820679
 31
0.0
  0
LINE
  5
9F4EE
330
A
100
AcDbEntity
  8
ボルト
 62
     7
370
    30
100
AcDbLine
 10
-7438.844042098121
 20
-356.5868519820678
 30
0.0
 11
-7437.844042098122
 21
-358.318951982068
 31
0.0
  0
LINE
  5
9F4EF
330
A
100
AcDbEntity
  8
ボルト
 62
     7
370
    30
100
AcDbLine
 10
-7437.844042098122
 20
-358.318951982068
 30
0.0
 11
-7435.844042098121
 21
-358.318951982068
 31
0.0
  0
LINE
  5
9F4F0
330
A
100
AcDbEntity
  8
ボルト
 62
     7
370
    30
100
AcDbLine
 10
-7435.844042098121
 20
-358.318951982068
 30
0.0
 11
-7434.844042098122
 21
-356.5868519820678
 31
0.0
  0
LINE
  5
9F4F1
330
A
100
AcDbEntity
  8
ボルト
 62
     7
370
    30
100
AcDbLine
 10
-7435.844042098121
 20
-354.8548519820679
 30
0.0
 11
-7434.844042098122
 21
-356.5868519820678
 31
0.0
  0
CIRCLE
  5
9F4F2
330
A
100
AcDbEntity
  8
ボルト
 62
     7
370
    30
100
AcDbCircle
 10
-7843.331190801477
 20
-356.1618759599878
 30
0.0
 40
6.5
  0
CIRCLE
  5
9F4F3
330
A
100
AcDbEntity
  8
ボルト
 62
     7
370
    30
100
AcDbCircle
 10
-7843.331190801477
 20
-356.1618759599878
 30
0.0
 40
6.5
  0
CIRCLE
  5
9F4F4
330
A
100
AcDbEntity
  8
ボルト
 62
     7
370
    30
100
AcDbCircle
 10
-7843.331190801477
 20
-356.1618759599878
 30
0.0
 40
5.7
  0
LINE
  5
9F4F5
330
A
100
AcDbEntity
  8
ボルト
 62
     7
370
    30
100
AcDbLine
 10
-7844.331190801479
 20
-354.4298759599878
 30
0.0
 11
-7842.331190801478
 21
-354.4298759599878
 31
0.0
  0
LINE
  5
9F4F6
330
A
100
AcDbEntity
  8
ボルト
 62
     7
370
    30
100
AcDbLine
 10
-7845.331190801478
 20
-356.1618759599878
 30
0.0
 11
-7844.331190801479
 21
-354.4298759599878
 31
0.0
  0
LINE
  5
9F4F7
330
A
100
AcDbEntity
  8
ボルト
 62
     7
370
    30
100
AcDbLine
 10
-7845.331190801478
 20
-356.1618759599878
 30
0.0
 11
-7844.331190801479
 21
-357.893975959988
 31
0.0
  0
LINE
  5
9F4F8
330
A
100
AcDbEntity
  8
ボルト
 62
     7
370
    30
100
AcDbLine
 10
-7844.331190801479
 20
-357.893975959988
 30
0.0
 11
-7842.331190801478
 21
-357.893975959988
 31
0.0
  0
LINE
  5
9F4F9
330
A
100
AcDbEntity
  8
ボルト
 62
     7
370
    30
100
AcDbLine
 10
-7842.331190801478
 20
-357.893975959988
 30
0.0
 11
-7841.331190801479
 21
-356.1618759599878
 31
0.0
  0
LINE
  5
9F4FA
330
A
100
AcDbEntity
  8
ボルト
 62
     7
370
    30
100
AcDbLine
 10
-7842.331190801478
 20
-354.4298759599878
 30
0.0
 11
-7841.331190801479
 21
-356.1618759599878
 31
0.0
  0
LINE
  5
9F4FE
330
A
100
AcDbEntity
  8
妻枠
 62
     7
370
    50
100
AcDbLine
 10
-9488.998349461065
 20
313.8337556645654
 30
0.0
 11
-9119.998349461086
 21
313.8337556645206
 31
0.0
  0
ARC
  5
9F506
330
A
100
AcDbEntity
  8
妻枠
 62
     7
370
    50
100
AcDbCircle
 10
-9489.407505252572
 20
221.7568097610735
 30
0.0
 40
92.08035513888736
100
AcDbArc
 50
89.7454236748085
 51
92.85777763999837
  0
ARC
  5
9F50F
330
A
100
AcDbEntity
  8
妻枠
 62
     7
370
    50
100
AcDbCircle
 10
-9488.998375618464
 20
213.8312553517674
 30
0.0
 40
100.0
100
AcDbArc
 50
90.0
 51
98.34548443303578
  0
ARC
  5
9F510
330
A
100
AcDbEntity
  8
妻枠
 62
     7
370
    50
100
AcDbCircle
 10
-9498.99834946107
 20
294.3434749807991
 30
0.0
 40
20.0
100
AcDbArc
 50
161.9566634909214
 51
180.0000000000521
  0
ARC
  5
9F511
330
A
100
AcDbEntity
  8
妻枠
 62
     7
370
    50
100
AcDbCircle
 10
-9500.899994490483
 20
294.9629474839126
 30
0.0
 40
18.0
100
AcDbArc
 50
98.34548443303578
 51
161.9566634909214
  0
LINE
  5
9F518
330
A
100
AcDbEntity
  8
妻枠
 62
     7
370
    50
100
AcDbLine
 10
-9529.672751895096
 20
797.9969438969676
 30
0.0
 11
-9521.682260618977
 21
799.2758700038491
 31
0.0
  0
LINE
  5
9F519
330
A
100
AcDbEntity
  8
妻枠
 62
     7
370
    50
100
AcDbLine
 10
-9520.894188553711
 20
799.4020056697978
 30
0.0
 11
-9508.596887891775
 21
801.370262478702
 31
0.0
  0
ARC
  5
9F51F
330
A
100
AcDbEntity
  8
妻枠
 62
     7
370
    50
100
AcDbCircle
 10
-9521.998349461084
 20
801.2507340102795
 30
0.0
 40
2.0
100
AcDbArc
 50
279.09340561425
 51
0.0
  0
ARC
  5
9F520
330
A
100
AcDbEntity
  8
妻枠
 62
     7
370
    50
100
AcDbCircle
 10
-9529.998349461081
 20
1293.970262478704
 30
0.0
 40
2.0
100
AcDbArc
 50
80.6306149035543
 51
180.0
  0
LINE
  5
9F521
330
A
100
AcDbEntity
  8
妻枠
 62
     7
370
    50
100
AcDbLine
 10
-9529.672751895091
 20
1295.94358106044
 30
0.0
 11
-9521.682260618964
 21
1294.664654953558
 31
0.0
  0
LINE
  5
9F522
330
A
100
AcDbEntity
  8
妻枠
 62
     7
370
    50
100
AcDbLine
 10
-9521.68226061897
 20
1294.664654953558
 30
0.0
 11
-9508.596887891723
 21
1292.570262478697
 31
0.0
  0
ARC
  5
9F523
330
A
100
AcDbEntity
  8
妻枠
 62
     7
370
    50
100
AcDbCircle
 10
-9521.998349461078
 20
1292.689790947128
 30
0.0
 40
2.0
100
AcDbArc
 50
0.0
 51
80.90659438575004
  0
LINE
  5
A11BB
330
A
100
AcDbEntity
  8
樹脂
 62
     7
370
    50
100
AcDbLine
 10
-9531.998349461101
 20
-59.36589522867747
 30
0.0
 11
-9531.998349461115
 21
-336.1465197851412
 31
0.0
  0
LINE
  5
A11BD
330
A
100
AcDbEntity
  8
妻枠
 62
     7
370
    50
100
AcDbLine
 10
-8807.998349461085
 20
-7.166244335479857
 30
0.0
 11
-8807.998349461085
 21
-17.16624433547986
 31
0.0
  0
LINE
  5
A11BE
330
A
100
AcDbEntity
  8
妻枠
 62
     7
370
    50
100
AcDbLine
 10
-8806.998349461087
 20
-18.16624433548009
 30
0.0
 11
-8807.998349461085
 21
-17.16624433548008
 31
0.0
  0
LINE
  5
A11BF
330
A
100
AcDbEntity
  8
妻枠
 62
     7
370
    50
100
AcDbLine
 10
-8707.998349461085
 20
329.8337556645202
 30
0.0
 11
-8707.998349461085
 21
31.83375566452014
 31
0.0
  0
ARC
  5
A11C0
330
A
100
AcDbEntity
  8
妻枠
 62
     7
370
    50
100
AcDbCircle
 10
-8757.998349461086
 20
31.83375566452014
 30
0.0
 40
50.0
100
AcDbArc
 50
270.0
 51
0.000000000000007
  0
ARC
  5
A11C1
330
A
100
AcDbEntity
  8
妻枠
 62
     7
370
    50
100
AcDbCircle
 10
-8757.998349461086
 20
31.83375566452014
 30
0.0
 40
38.0
100
AcDbArc
 50
270.0
 51
0.000000000000007
  0
LINE
  5
A11C2
330
A
100
AcDbEntity
  8
妻枠
 62
     7
370
    50
100
AcDbLine
 10
-8719.998349461086
 20
329.8337556645202
 30
0.0
 11
-8719.998349461086
 21
31.83375566452014
 31
0.0
  0
ARC
  5
A11C3
330
A
100
AcDbEntity
  8
妻枠
 62
     7
370
    50
100
AcDbCircle
 10
-8717.998349461087
 20
329.8337556645202
 30
0.0
 40
2.0
100
AcDbArc
 50
90.0
 51
180.0
  0
LINE
  5
A11C4
330
A
100
AcDbEntity
  8
妻枠
 62
     7
370
    50
100
AcDbLine
 10
-8709.998349461086
 20
331.8337556645202
 30
0.0
 11
-8717.998349461087
 21
331.8337556645202
 31
0.0
  0
LINE
  5
A11C5
330
A
100
AcDbEntity
  8
樹脂
 62
     7
370
    50
100
AcDbLine
 10
-8697.998349461078
 20
143.8337556645199
 30
0.0
 11
-8697.998349461078
 21
143.8337556645199
 31
0.0
  0
ARC
  5
A11C6
330
A
100
AcDbEntity
  8
妻枠
 62
     7
370
    50
100
AcDbCircle
 10
-8709.998349461086
 20
329.8337556645202
 30
0.0
 40
2.0
100
AcDbArc
 50
0.000000000000007
 51
90.0
  0
LINE
  5
A11C7
330
A
100
AcDbEntity
  8
妻枠
 62
     7
370
    50
100
AcDbLine
 10
-8757.998349461086
 20
-18.16624433547986
 30
0.0
 11
-8806.998349461087
 21
-18.16624433548009
 31
0.0
  0
LINE
  5
A11C8
330
A
100
AcDbEntity
  8
妻枠
 62
     7
370
    50
100
AcDbLine
 10
-8808.998349461086
 20
-18.16624433547986
 30
0.0
 11
-9119.998349461084
 21
-18.16624433547986
 31
0.0
  0
LINE
  5
A11C9
330
A
100
AcDbEntity
  8
妻枠
 62
     7
370
    50
100
AcDbLine
 10
-8807.998349461085
 20
-17.16624433547986
 30
0.0
 11
-8808.998349461086
 21
-18.16624433547986
 31
0.0
  0
LINE
  5
A11CA
330
A
100
AcDbEntity
  8
妻枠
 62
     7
370
    50
100
AcDbLine
 10
-8757.998349461086
 20
-6.166244335479857
 30
0.0
 11
-8806.998349461087
 21
-6.166244335479857
 31
0.0
  0
LINE
  5
A11CB
330
A
100
AcDbEntity
  8
妻枠
 62
     7
370
    50
100
AcDbLine
 10
-8807.998349461085
 20
-7.166244335479857
 30
0.0
 11
-8806.998349461087
 21
-6.166244335479857
 31
0.0
  0
LINE
  5
A11CC
330
A
100
AcDbEntity
  8
妻枠
 62
     7
370
    50
100
AcDbLine
 10
-8808.998349461086
 20
-6.166244335480087
 30
0.0
 11
-9119.998349461084
 21
-6.166244335480087
 31
0.0
  0
LINE
  5
A11CD
330
A
100
AcDbEntity
  8
妻枠
 62
     7
370
    50
100
AcDbLine
 10
-8807.998349461085
 20
-7.166244335480087
 30
0.0
 11
-8808.998349461086
 21
-6.166244335480087
 31
0.0
  0
LINE
  5
A11CE
330
A
100
AcDbEntity
  8
妻枠
 62
     7
370
    50
100
AcDbLine
 10
-8755.998349461085
 20
28.83375566452059
 30
0.0
 11
-9119.998349461086
 21
28.83375566452038
 31
0.0
  0
LINE
  5
A11CF
330
A
100
AcDbEntity
  8
妻枠
 62
     7
370
    50
100
AcDbLine
 10
-8750.998349461108
 20
313.8337556645654
 30
0.0
 11
-9119.998349461086
 21
313.8337556645206
 31
0.0
  0
LINE
  5
A11D0
330
A
100
AcDbEntity
  8
妻枠
 62
     7
370
    30
100
AcDbLine
 10
-8755.998349461085
 20
278.8337556645203
 30
0.0
 11
-9119.998349461086
 21
278.8337556645203
 31
0.0
  0
ARC
  5
A11D1
330
A
100
AcDbEntity
  8
妻枠
 62
     7
370
    50
100
AcDbCircle
 10
-8758.998349461085
 20
31.83375566452014
 30
0.0
 40
38.0
100
AcDbArc
 50
270.0
 51
0.000000000000007
  0
LINE
  5
A11D2
330
A
100
AcDbEntity
  8
妻枠
 62
     7
370
    50
100
AcDbLine
 10
-8720.998085368785
 20
294.3488821623926
 30
0.0
 11
-8720.998349461087
 21
31.83375566452014
 31
0.0
  0
LINE
  5
A11D3
330
A
100
AcDbEntity
  8
妻枠
 62
     7
370
    30
100
AcDbLine
 10
-8755.998349461085
 20
278.8337556645199
 30
0.0
 11
-8755.998349461085
 21
28.83375566452014
 31
0.0
  0
LINE
  5
A11D4
330
A
100
AcDbEntity
  8
妻枠
 62
     7
370
    30
100
AcDbLine
 10
-8726.700087967122
 20
308.1320171584835
 30
0.0
 11
-8755.998349461085
 21
278.8337556645203
 31
0.0
  0
LINE
  5
A11D5
330
A
100
AcDbEntity
  8
妻枠
 62
     7
370
    30
100
AcDbLine
 10
-8755.998349461085
 20
28.83375566452014
 30
0.0
 11
-8732.128291775996
 21
4.963697979431342
 31
0.0
  0
LINE
  5
A11D7
102
{ACAD_REACTORS
330
A121C
102
}
330
A
100
AcDbEntity
  8
樹脂
 62
     7
370
    35
100
AcDbLine
 10
-9119.998349461088
 20
32.33375566452038
 30
0.0
 11
-8755.998349461085
 21
32.33375566454106
 31
0.0
  0
LINE
  5
A11D8
102
{ACAD_REACTORS
330
A121C
102
}
330
A
100
AcDbEntity
  8
樹脂
 62
     7
370
    30
100
AcDbLine
 10
-9119.998349461104
 20
275.3337556645206
 30
0.0
 11
-8755.998349461105
 21
275.3337556645415
 31
0.0
  0
LINE
  5
A11D9
102
{ACAD_REACTORS
330
A121C
102
}
330
A
100
AcDbEntity
  8
樹脂
 62
     7
370
    30
100
AcDbLine
 10
-8759.498349461102
 20
275.3337556645411
 30
0.0
 11
-8759.498349461088
 21
32.33375566454083
 31
0.0
  0
ARC
  5
A11DA
330
A
100
AcDbEntity
  8
樹脂
 62
     7
370
    50
100
AcDbCircle
 10
-8698.498349461086
 20
133.8337556645438
 30
0.0
 40
9.5
100
AcDbArc
 50
90.0
 51
180.0
  0
LINE
  5
A11DB
330
A
100
AcDbEntity
  8
樹脂
 62
     7
370
    50
100
AcDbLine
 10
-8688.998349461085
 20
133.8337556645438
 30
0.0
 11
-8688.998349461048
 21
-446.1764896841393
 31
0.0
  0
LINE
  5
A11DC
330
A
100
AcDbEntity
  8
樹脂
 62
     7
370
    50
100
AcDbLine
 10
-8707.998349461085
 20
133.8337556645433
 30
0.0
 11
-8707.998349461078
 21
-4.321626206967037
 31
0.0
  0
LINE
  5
A11DD
330
A
100
AcDbEntity
  8
樹脂
 62
     7
370
    50
100
AcDbLine
 10
-8707.998349461076
 20
20.63411314875702
 30
0.0
 11
-8707.998349461073
 21
-4.32162620696657
 31
0.0
  0
LINE
  5
A11DE
330
A
100
AcDbEntity
  8
樹脂
 62
     7
370
    50
100
AcDbLine
 10
-8707.998349461069
 20
-59.36589522867747
 30
0.0
 11
-8707.998349461059
 21
-336.1465197851412
 31
0.0
  0
LINE
  5
A11DF
330
A
100
AcDbEntity
  8
樹脂
 62
     7
370
    50
100
AcDbLine
 10
-8707.998349461053
 20
-376.146519785141
 30
0.0
 11
-8707.99834946105
 21
-446.1764896841393
 31
0.0
  0
ARC
  5
A11E0
330
A
100
AcDbEntity
  8
樹脂
 62
     7
370
    50
100
AcDbCircle
 10
-8698.498349461086
 20
133.8337556645438
 30
0.0
 40
9.5
100
AcDbArc
 50
0.000000000000007
 51
90.0
  0
ARC
  5
A11E1
330
A
100
AcDbEntity
  8
床板
 62
     7
370
    50
100
AcDbCircle
 10
-8757.998349461086
 20
32.66334433679253
 30
0.0
 40
52.0
100
AcDbArc
 50
270.0
 51
314.6633361904362
  0
LINE
  5
A11E2
330
A
100
AcDbEntity
  8
床板
 62
     7
370
    50
100
AcDbLine
 10
-8721.445484267269
 20
-4.321626206964992
 30
0.0
 11
-8703.998349461079
 21
-4.321626206967037
 31
0.0
  0
LINE
  5
A11E3
330
A
100
AcDbEntity
  8
床板
 62
     7
370
    50
100
AcDbLine
 10
-8923.362266611809
 20
-59.35740483438419
 30
0.0
 11
-8703.998349461079
 21
-59.36605292258287
 31
0.0
  0
LINE
  5
A11E4
330
A
100
AcDbEntity
  8
床板
 62
     7
370
    50
100
AcDbLine
 10
-8703.998349461079
 20
-4.321626206967037
 30
0.0
 11
-8703.998349461079
 21
-59.36605292258287
 31
0.0
  0
LINE
  5
A11E5
330
A
100
AcDbEntity
  8
収納棚板
 62
     7
370
    50
100
AcDbLine
 10
-9119.998349461086
 20
-376.146519785141
 30
0.0
 11
-8703.998349461077
 21
-376.146519785141
 31
0.0
  0
LINE
  5
A11E6
330
A
100
AcDbEntity
  8
収納棚板
 62
     7
370
    50
100
AcDbLine
 10
-9119.998349461086
 20
-336.1465197851412
 30
0.0
 11
-8703.998349461077
 21
-336.1465197851412
 31
0.0
  0
LINE
  5
A11E7
330
A
100
AcDbEntity
  8
寸法
 62
     7
370
    50
100
AcDbLine
 10
-8703.998349461077
 20
-336.1465197851412
 30
0.0
 11
-8703.998349461077
 21
-376.146519785141
 31
0.0
  0
LINE
  5
A11E8
330
A
100
AcDbEntity
  8
樹脂
 62
     7
370
    50
100
AcDbLine
 10
-8688.998349461048
 20
-446.1764896841393
 30
0.0
 11
-8707.99834946105
 21
-446.1764896841393
 31
0.0
  0
LINE
  5
A11E9
330
A
100
AcDbEntity
  8
ボルト
 62
     7
370
    40
100
AcDbLine
 10
-8626.832990365716
 20
-487.9310456872148
 30
0.0
 11
-8645.312178988856
 21
-487.9310456872148
 31
0.0
  0
LINE
  5
A11EA
330
A
100
AcDbEntity
  8
ボルト
 62
     7
370
    40
100
AcDbLine
 10
-8626.832990365716
 20
-492.9310456872149
 30
0.0
 11
-8645.312178988856
 21
-492.9310456872149
 31
0.0
  0
LINE
  5
A11EB
330
A
100
AcDbEntity
  8
ボルト
 62
     7
370
    40
100
AcDbLine
 10
-8687.55671173263
 20
-449.1662443354792
 30
0.0
 11
-8709.556711732629
 21
-449.1662443354792
 31
0.0
  0
LINE
  5
A11EC
330
A
100
AcDbEntity
  8
ボルト
 62
     7
370
    40
100
AcDbLine
 10
-8709.556711732629
 20
-496.1662443354793
 30
0.0
 11
-8709.556711732629
 21
-449.1662443354792
 31
0.0
  0
LINE
  5
A11ED
330
A
100
AcDbEntity
  8
ボルト
 62
     7
370
    40
100
AcDbLine
 10
-8626.832990365716
 20
-492.9310456872149
 30
0.0
 11
-8626.832990365716
 21
-487.9310456872148
 31
0.0
  0
LINE
  5
A11EE
330
A
100
AcDbEntity
  8
ボルト
 62
     7
370
    40
100
AcDbLine
 10
-8693.556711732631
 20
-449.1662443354792
 30
0.0
 11
-8693.556711732631
 21
-446.1662443354793
 31
0.0
  0
LINE
  5
A11EF
330
A
100
AcDbEntity
  8
ボルト
 62
     7
370
    40
100
AcDbLine
 10
-8703.556711732629
 20
-449.1662443354792
 30
0.0
 11
-8703.556711732629
 21
-446.1662443354791
 31
0.0
  0
LINE
  5
A11F0
330
A
100
AcDbEntity
  8
ボルト
 62
     7
370
    40
100
AcDbLine
 10
-8687.55671173263
 20
-467.2525797458773
 30
0.0
 11
-8687.55671173263
 21
-449.1662443354792
 31
0.0
  0
LINE
  5
A11F1
330
A
100
AcDbEntity
  8
ボルト
 62
     7
370
    40
100
AcDbLine
 10
-8645.312178988856
 20
-487.9310456872148
 30
0.0
 11
-8645.312178988856
 21
-492.9310456872149
 31
0.0
  0
LINE
  5
A11F2
330
A
100
AcDbEntity
  8
ボルト
 62
     7
370
    40
100
AcDbLine
 10
-8638.89138450334
 20
-506.4262331695127
 30
0.0
 11
-8651.365709105453
 21
-506.4262331695131
 31
0.0
  0
LINE
  5
A11F3
330
A
100
AcDbEntity
  8
ボルト
 62
     7
370
    40
100
AcDbLine
 10
-8644.487941235873
 20
-498.1910345212486
 30
0.0
 11
-8649.625119314189
 21
-498.1910345212486
 31
0.0
  0
LINE
  5
A11F4
330
A
100
AcDbEntity
  8
ボルト
 62
     7
370
    40
100
AcDbLine
 10
-8630.891384503341
 20
-492.9310456872149
 30
0.0
 11
-8630.891384503341
 21
-498.4262331695127
 31
0.0
  0
ARC
  5
A11F5
330
A
100
AcDbEntity
  8
ボルト
 62
     7
370
    40
100
AcDbCircle
 10
-8638.89138450334
 20
-498.4262331695127
 30
0.0
 40
8.0
100
AcDbArc
 50
270.0
 51
0.000000000000007
  0
LINE
  5
A11F6
330
A
100
AcDbEntity
  8
ボルト
 62
     7
370
    40
100
AcDbLine
 10
-8641.487941235871
 20
-492.9310456872149
 30
0.0
 11
-8641.487941235871
 21
-495.1910345212486
 31
0.0
  0
ARC
  5
A11F7
330
A
100
AcDbEntity
  8
ボルト
 62
     7
370
    40
100
AcDbCircle
 10
-8644.487941235873
 20
-495.1910345212486
 30
0.0
 40
3.0
100
AcDbArc
 50
270.0
 51
0.000000000000007
  0
CIRCLE
  5
A11F8
330
A
100
AcDbEntity
  8
寸法
 62
     7
370
    40
100
AcDbCircle
 10
-8679.556711732629
 20
-496.1662443354793
 30
0.0
 40
30.0
  0
CIRCLE
  5
A11F9
330
A
100
AcDbEntity
  8
寸法
 62
     7
370
    40
100
AcDbCircle
 10
-8679.556711732629
 20
-496.1662443354793
 30
0.0
 40
25.0
  0
LINE
  5
A11FA
330
A
100
AcDbEntity
  8
0
 62
     7
370
    50
100
AcDbLine
 10
-8757.998349461086
 20
-18.16624433547963
 30
0.0
 11
-8757.998349461086
 21
-25.4247397082595
 31
0.0
  0
ARC
  5
A11FB
330
A
100
AcDbEntity
  8
0
 62
     7
370
    50
100
AcDbCircle
 10
-9120.141692740871
 20
2132.085942383294
 30
0.0
 40
2200.259903102529
100
AcDbArc
 50
270.0037327250645
 51
279.140554030023
  0
ARC
  5
A11FC
330
A
100
AcDbEntity
  8
0
 62
     7
370
    50
100
AcDbCircle
 10
-8772.998349461087
 20
-25.42473970825927
 30
0.0
 40
15.0
100
AcDbArc
 50
279.1417735153871
 51
0.000000000000007
  0
LINE
  5
A11FD
330
A
100
AcDbEntity
  8
妻枠
 62
     7
370
    50
100
AcDbLine
 10
-8750.998349461108
 20
313.8337556645654
 30
0.0
 11
-9119.998349461086
 21
313.8337556645206
 31
0.0
  0
ARC
  5
A11FE
330
A
100
AcDbEntity
  8
妻枠
 62
     7
370
    50
100
AcDbCircle
 10
-8750.589193669602
 20
221.7568097610735
 30
0.0
 40
92.08035513888736
100
AcDbArc
 50
87.14222236000138
 51
90.25457632519147
  0
ARC
  5
A1204
330
A
100
AcDbEntity
  8
妻枠
 62
     7
370
    50
100
AcDbCircle
 10
-8750.99832330371
 20
213.8312553517674
 30
0.0
 40
100.0
100
AcDbArc
 50
81.65451556686141
 51
90.0
  0
ARC
  5
A1205
330
A
100
AcDbEntity
  8
妻枠
 62
     7
370
    50
100
AcDbCircle
 10
-8740.998349461102
 20
294.3434749807991
 30
0.0
 40
20.0
100
AcDbArc
 50
359.9999999999479
 51
18.04333650905027
  0
ARC
  5
A1206
330
A
100
AcDbEntity
  8
妻枠
 62
     7
370
    50
100
AcDbCircle
 10
-8739.096704431689
 20
294.9629474839126
 30
0.0
 40
18.0
100
AcDbArc
 50
18.04333650905027
 51
81.65451556686141
  0
HATCH
  5
A121C
330
A
100
AcDbEntity
  8
寸法
 62
     7
100
AcDbHatch
 10
0.0
 20
0.0
 30
0.0
210
0.0
220
0.0
230
1.0
  2
HONEY
 70
     0
 71
     1
 91
        1
 92
        7
 72
     0
 73
     1
 93
        6
 10
-9480.498349461068
 20
275.3337556645412
 10
-9480.498349461084
 20
32.33375566454086
 10
-9119.998349461084
 20
32.33375566452038
 10
-8759.498349461086
 20
32.33375566454088
 10
-8759.498349461102
 20
275.3337556645413
 10
-9119.998349461104
 20
275.3337556645206
 97
        6
330
A11D8
330
9E143
330
9E145
330
9E142
330
A11D7
330
A11D9
 75
     0
 76
     1
 52
0.0
 41
1.0
 77
     0
 78
     3
 53
0.0
 43
0.0
 44
0.0
 45
4.7625
 46
2.749629999999998
 79
     2
 49
3.174999999999998
 49
-6.349999999999997
 53
120.0
 43
0.0
 44
0.0
 45
-4.762499431007803
 46
2.74963098552339
 79
     2
 49
3.174999999999998
 49
-6.349999999999997
 53
60.0
 43
0.0
 44
0.0
 45
0.0000005689921947
 46
5.499260985523386
 79
     2
 49
-6.349999999999997
 49
3.174999999999998
 47
0.8296592365737552
 98
        1
 10
-9184.676290416064
 20
175.4318909294088
1001
ACAD
1010
0.0
1020
0.0
1030
0.0
  0
LINE
  5
A121D
330
A
100
AcDbEntity
  8
妻枠
 62
     7
370
    50
100
AcDbLine
 10
-8707.998349461085
 20
1293.970262478704
 30
0.0
 11
-8707.998349461085
 21
1046.970262478704
 31
0.0
  0
LINE
  5
A121E
330
A
100
AcDbEntity
  8
妻枠
 62
     7
370
    50
100
AcDbLine
 10
-8807.998349461088
 20
1253.970262478704
 30
0.0
 11
-8807.998349461085
 21
839.9702624787003
 31
0.0
  0
LINE
  5
A121F
330
A
100
AcDbEntity
  8
妻枠
 62
     7
370
    50
100
AcDbLine
 10
-8707.998349461085
 20
1047.61322029858
 30
0.0
 11
-8707.998349461085
 21
996.9702624787045
 31
0.0
  0
ARC
  5
A1220
330
A
100
AcDbEntity
  8
妻枠
 62
     7
370
    50
100
AcDbCircle
 10
-8709.998349461086
 20
799.9702624787032
 30
0.0
 40
2.0
100
AcDbArc
 50
260.6306149035551
 51
0.000000000000007
  0
LINE
  5
A1221
330
A
100
AcDbEntity
  8
妻枠
 62
     7
370
    50
100
AcDbLine
 10
-8867.998349461087
 20
1046.970262478704
 30
0.0
 11
-8867.998349461087
 21
1046.970262478704
 31
0.0
  0
ARC
  5
A1222
330
A
100
AcDbEntity
  8
妻枠
 62
     7
370
    50
100
AcDbCircle
 10
-8882.998349461086
 20
1046.970262478704
 30
0.0
 40
15.0
100
AcDbArc
 50
270.0
 51
0.000000000000007
  0
LINE
  5
A1223
330
A
100
AcDbEntity
  8
妻枠
 62
     7
370
    50
100
AcDbLine
 10
-8719.998349461086
 20
1292.689790947128
 30
0.0
 11
-8719.998349461086
 21
1046.970262478703
 31
0.0
  0
LINE
  5
A1224
330
A
100
AcDbEntity
  8
妻枠
 62
     7
370
    50
100
AcDbLine
 10
-8719.998349461086
 20
1046.970262478704
 30
0.0
 11
-8719.998349461086
 21
996.9702624787057
 31
0.0
  0
LINE
  5
A1225
330
A
100
AcDbEntity
  8
妻枠
 62
     7
370
    50
100
AcDbLine
 10
-8719.998349461086
 20
996.9702624787053
 30
0.0
 11
-8719.998349461086
 21
801.2507340102795
 31
0.0
  0
LINE
  5
A1226
330
A
100
AcDbEntity
  8
妻枠
 62
     7
370
    50
100
AcDbLine
 10
-8882.998349461086
 20
1031.970262478704
 30
0.0
 11
-9119.998349461086
 21
1031.970262478704
 31
0.0
  0
LINE
  5
A1227
330
A
100
AcDbEntity
  8
妻枠
 62
     7
370
    50
100
AcDbLine
 10
-8882.998349461086
 20
1061.970262478704
 30
0.0
 11
-9119.998349461086
 21
1061.970262478704
 31
0.0
  0
ARC
  5
A1228
330
A
100
AcDbEntity
  8
妻枠
 62
     7
370
    50
100
AcDbCircle
 10
-8882.998349461086
 20
1046.970262478704
 30
0.0
 40
15.0
100
AcDbArc
 50
0.000000000000007
 51
90.0
  0
LINE
  5
A1229
330
A
100
AcDbEntity
  8
寸法
 62
     7
100
AcDbLine
 10
-8697.998349461085
 20
1286.970262478704
 30
0.0
 11
-8697.998349461085
 21
1286.970262478704
 31
0.0
  0
LINE
  5
A122A
330
A
100
AcDbEntity
  8
妻枠
 62
     7
370
    30
100
AcDbLine
 10
-8719.998349461084
 20
1270.57026247869
 30
0.0
 11
-9119.998349461084
 21
1270.570262478618
 31
0.0
  0
LINE
  5
A122B
330
A
100
AcDbEntity
  8
妻枠
 62
     7
370
    30
100
AcDbLine
 10
-8719.998349461086
 20
1270.570262478704
 30
0.0
 11
-9119.998349461086
 21
1270.570262478704
 31
0.0
  0
LINE
  5
A122C
330
A
100
AcDbEntity
  8
寸法
 62
     7
100
AcDbLine
 10
-8697.998349461085
 20
806.9702624787039
 30
0.0
 11
-8697.998349461085
 21
806.9702624787039
 31
0.0
  0
LINE
  5
A122D
330
A
100
AcDbEntity
  8
寸法
 62
     7
100
AcDbLine
 10
-8719.998349461086
 20
1284.970262478703
 30
0.0
 11
-8719.998349461086
 21
1268.970262478703
 31
0.0
  0
LINE
  5
A122E
330
A
100
AcDbEntity
  8
寸法
 62
     7
100
AcDbLine
 10
-8719.998349461086
 20
824.9702624787039
 30
0.0
 11
-8719.998349461086
 21
808.9702624787037
 31
0.0
  0
LINE
  5
A122F
330
A
100
AcDbEntity
  8
妻枠
 62
     7
370
    50
100
AcDbLine
 10
-8867.998349461087
 20
1156.970262478704
 30
0.0
 11
-8867.998349461087
 21
1156.970262478704
 31
0.0
  0
ARC
  5
A1230
330
A
100
AcDbEntity
  8
妻枠
 62
     7
370
    50
100
AcDbCircle
 10
-8882.998349461086
 20
1156.970262478704
 30
0.0
 40
15.0
100
AcDbArc
 50
270.0
 51
0.000000000000007
  0
LINE
  5
A1231
330
A
100
AcDbEntity
  8
妻枠
 62
     7
370
    50
100
AcDbLine
 10
-8882.998349461086
 20
1141.970262478704
 30
0.0
 11
-9119.998349461086
 21
1141.970262478704
 31
0.0
  0
LINE
  5
A1232
330
A
100
AcDbEntity
  8
妻枠
 62
     7
370
    50
100
AcDbLine
 10
-8882.998349461086
 20
1171.970262478704
 30
0.0
 11
-9119.998349461086
 21
1171.970262478704
 31
0.0
  0
ARC
  5
A1233
330
A
100
AcDbEntity
  8
妻枠
 62
     7
370
    50
100
AcDbCircle
 10
-8882.998349461086
 20
1156.970262478704
 30
0.0
 40
15.0
100
AcDbArc
 50
0.000000000000007
 51
90.0
  0
LINE
  5
A1234
330
A
100
AcDbEntity
  8
妻枠
 62
     7
370
    50
100
AcDbLine
 10
-8867.998349461087
 20
936.970262478704
 30
0.0
 11
-8867.998349461087
 21
936.970262478704
 31
0.0
  0
ARC
  5
A1235
330
A
100
AcDbEntity
  8
妻枠
 62
     7
370
    50
100
AcDbCircle
 10
-8882.998349461086
 20
936.970262478704
 30
0.0
 40
15.0
100
AcDbArc
 50
270.0
 51
0.000000000000007
  0
LINE
  5
A1236
330
A
100
AcDbEntity
  8
妻枠
 62
     7
370
    50
100
AcDbLine
 10
-8882.998349461086
 20
921.9702624787041
 30
0.0
 11
-9119.998349461086
 21
921.9702624787041
 31
0.0
  0
LINE
  5
A1237
330
A
100
AcDbEntity
  8
妻枠
 62
     7
370
    50
100
AcDbLine
 10
-8882.998349461086
 20
951.970262478704
 30
0.0
 11
-9119.998349461086
 21
951.970262478704
 31
0.0
  0
ARC
  5
A1238
330
A
100
AcDbEntity
  8
妻枠
 62
     7
370
    50
100
AcDbCircle
 10
-8882.998349461086
 20
936.970262478704
 30
0.0
 40
15.0
100
AcDbArc
 50
0.000000000000007
 51
90.0
  0
LINE
  5
A1239
330
A
100
AcDbEntity
  8
樹脂
 62
     7
370
    30
100
AcDbLine
 10
-8702.498349461093
 20
905.970262478702
 30
0.0
 11
-8702.498349461093
 21
905.970262478702
 31
0.0
  0
LINE
  5
A123A
330
A
100
AcDbEntity
  8
樹脂
 62
     7
370
    30
100
AcDbLine
 10
-8702.498349461093
 20
1187.970262478702
 30
0.0
 11
-8702.498349461093
 21
1187.970262478702
 31
0.0
  0
LINE
  5
A123B
330
A
100
AcDbEntity
  8
妻枠
 62
     7
370
    30
100
AcDbLine
 10
-8719.998349461086
 20
1253.970262478704
 30
0.0
 11
-9119.998349461086
 21
1253.970262478704
 31
0.0
  0
LINE
  5
A123C
330
A
100
AcDbEntity
  8
妻枠
 62
     7
370
    30
100
AcDbLine
 10
-8719.998349461079
 20
801.3702624787025
 30
0.0
 11
-9119.998349461086
 21
801.3702624786922
 31
0.0
  0
LINE
  5
A123D
330
A
100
AcDbEntity
  8
妻枠
 62
     7
370
    30
100
AcDbLine
 10
-8719.998349461079
 20
823.4327228544751
 30
0.0
 11
-9119.998349461086
 21
823.4327228544641
 31
0.0
  0
LINE
  5
A123E
330
A
100
AcDbEntity
  8
妻枠
 62
     7
370
    30
100
AcDbLine
 10
-8719.998349461079
 20
839.9702624787025
 30
0.0
 11
-9119.998349461086
 21
839.9702624786923
 31
0.0
  0
LINE
  5
A123F
330
A
100
AcDbEntity
  8
樹脂
 62
     7
370
    50
100
AcDbLine
 10
-8702.498349461105
 20
896.9702624787021
 30
0.0
 11
-8702.498349461105
 21
896.9702624787021
 31
0.0
  0
LINE
  5
A1240
330
A
100
AcDbEntity
  8
樹脂
 62
     7
370
    50
100
AcDbLine
 10
-8707.998349461098
 20
1246.970262478703
 30
0.0
 11
-8707.998349461098
 21
1046.970262478704
 31
0.0
  0
LINE
  5
A1241
330
A
100
AcDbEntity
  8
樹脂
 62
     7
370
    50
100
AcDbLine
 10
-8707.998349461085
 20
1046.970262478704
 30
0.0
 11
-8707.998349461085
 21
1004.420582379778
 31
0.0
  0
LINE
  5
A1242
330
A
100
AcDbEntity
  8
樹脂
 62
     7
370
    50
100
AcDbLine
 10
-8707.998349461085
 20
996.9702624787045
 30
0.0
 11
-8707.998349461085
 21
799.9702624787032
 31
0.0
  0
LINE
  5
A1243
330
A
100
AcDbEntity
  8
樹脂
 62
     7
370
    50
100
AcDbLine
 10
-8688.998349461098
 20
1247.470262478704
 30
0.0
 11
-8688.998349461098
 21
846.970262478703
 31
0.0
  0
LINE
  5
A1244
330
A
100
AcDbEntity
  8
樹脂
 62
     7
370
    50
100
AcDbLine
 10
-8707.998349461098
 20
1247.470262478704
 30
0.0
 11
-8707.998349461098
 21
1108.485291934945
 31
0.0
  0
ARC
  5
A1245
330
A
100
AcDbEntity
  8
樹脂
 62
     7
370
    30
100
AcDbCircle
 10
-8698.498349461095
 20
914.4702624787028
 30
0.0
 40
9.5
100
AcDbArc
 50
180.0
 51
0.000000000000007
  0
ARC
  5
A1246
330
A
100
AcDbEntity
  8
樹脂
 62
     7
370
    30
100
AcDbCircle
 10
-8698.498349461095
 20
1179.470262478704
 30
0.0
 40
9.5
100
AcDbArc
 50
0.000000000000007
 51
90.0
  0
ARC
  5
A1247
330
A
100
AcDbEntity
  8
樹脂
 62
     7
370
    30
100
AcDbCircle
 10
-8698.498349461097
 20
1179.470262478704
 30
0.0
 40
9.5
100
AcDbArc
 50
90.0
 51
180.0
  0
LINE
  5
A1248
330
A
100
AcDbEntity
  8
妻枠
 62
     7
370
    30
100
AcDbLine
 10
-8720.998349461087
 20
1292.570262478697
 30
0.0
 11
-8720.998349461087
 21
1253.970262478697
 31
0.0
  0
LINE
  5
A1249
330
A
100
AcDbEntity
  8
妻枠
 62
     7
370
    30
100
AcDbLine
 10
-8720.998349461087
 20
1292.570262478697
 30
0.0
 11
-9119.998349461086
 21
1292.570262478697
 31
0.0
  0
LINE
  5
A124A
330
A
100
AcDbEntity
  8
樹脂
 62
     7
370
    30
100
AcDbLine
 10
-8744.498349461082
 20
1270.570262478693
 30
0.0
 11
-9119.998349461084
 21
1270.570262478619
 31
0.0
  0
LINE
  5
A124B
330
A
100
AcDbEntity
  8
妻枠
 62
     7
370
    30
100
AcDbLine
 10
-8720.998349461087
 20
1270.570262478696
 30
0.0
 11
-9119.998349461086
 21
1270.570262478703
 31
0.0
  0
LINE
  5
A124C
330
A
100
AcDbEntity
  8
寸法
 62
     7
100
AcDbLine
 10
-8719.998349461086
 20
1284.970262478696
 30
0.0
 11
-8719.998349461086
 21
1268.970262478696
 31
0.0
  0
LINE
  5
A124D
330
A
100
AcDbEntity
  8
妻枠
 62
     7
370
    30
100
AcDbLine
 10
-8720.998349461087
 20
1253.970262478697
 30
0.0
 11
-9119.998349461086
 21
1253.970262478703
 31
0.0
  0
LINE
  5
A124E
330
A
100
AcDbEntity
  8
妻枠
 62
     7
370
    25
100
AcDbLine
 10
-8808.998349461086
 20
839.9702624787
 30
0.0
 11
-8808.998349461086
 21
1253.970262478704
 31
0.0
  0
LINE
  5
A124F
330
A
100
AcDbEntity
  8
妻枠
 62
     7
370
    25
100
AcDbLine
 10
-8806.998349461087
 20
839.9702624787
 30
0.0
 11
-8806.998349461087
 21
1253.970262478704
 31
0.0
  0
CIRCLE
  5
A1250
330
A
100
AcDbEntity
  8
妻枠
 62
     7
370
    50
100
AcDbCircle
 10
-8787.998349461087
 20
1226.970262478704
 30
0.0
 40
7.0
  0
CIRCLE
  5
A1251
330
A
100
AcDbEntity
  8
ボルト
  6
Continuous
 62
     7
370
     5
100
AcDbCircle
 10
-8787.998349461087
 20
1226.970262478704
 30
0.0
 40
6.5
  0
CIRCLE
  5
A1252
330
A
100
AcDbEntity
  8
ボルト
  6
Continuous
 62
     7
370
     5
100
AcDbCircle
 10
-8787.998349461087
 20
1226.970262478704
 30
0.0
 40
5.7
  0
LINE
  5
A1253
330
A
100
AcDbEntity
  8
ボルト
  6
Continuous
 62
     7
370
     5
100
AcDbLine
 10
-8786.998349461086
 20
1228.702262478704
 30
0.0
 11
-8788.998349461087
 21
1228.702262478704
 31
0.0
  0
LINE
  5
A1254
330
A
100
AcDbEntity
  8
ボルト
  6
Continuous
 62
     7
370
     5
100
AcDbLine
 10
-8785.998349461086
 20
1226.970262478704
 30
0.0
 11
-8786.998349461086
 21
1228.702262478704
 31
0.0
  0
LINE
  5
A1255
330
A
100
AcDbEntity
  8
ボルト
  6
Continuous
 62
     7
370
     5
100
AcDbLine
 10
-8785.998349461086
 20
1226.970262478704
 30
0.0
 11
-8786.998349461086
 21
1225.238162478704
 31
0.0
  0
LINE
  5
A1256
330
A
100
AcDbEntity
  8
ボルト
  6
Continuous
 62
     7
370
     5
100
AcDbLine
 10
-8786.998349461086
 20
1225.238162478704
 30
0.0
 11
-8788.998349461087
 21
1225.238162478704
 31
0.0
  0
LINE
  5
A1257
330
A
100
AcDbEntity
  8
ボルト
  6
Continuous
 62
     7
370
     5
100
AcDbLine
 10
-8788.998349461087
 20
1225.238162478704
 30
0.0
 11
-8789.998349461086
 21
1226.970262478704
 31
0.0
  0
LINE
  5
A1258
330
A
100
AcDbEntity
  8
ボルト
  6
Continuous
 62
     7
370
     5
100
AcDbLine
 10
-8788.998349461087
 20
1228.702262478704
 30
0.0
 11
-8789.998349461086
 21
1226.970262478704
 31
0.0
  0
CIRCLE
  5
A1259
330
A
100
AcDbEntity
  8
妻枠
 62
     7
370
    50
100
AcDbCircle
 10
-8787.998349461087
 20
866.9702624787039
 30
0.0
 40
7.0
  0
CIRCLE
  5
A125A
330
A
100
AcDbEntity
  8
ボルト
  6
Continuous
 62
     7
370
     5
100
AcDbCircle
 10
-8787.998349461087
 20
866.9702624787039
 30
0.0
 40
6.5
  0
CIRCLE
  5
A125B
330
A
100
AcDbEntity
  8
ボルト
  6
Continuous
 62
     7
370
     5
100
AcDbCircle
 10
-8787.998349461087
 20
866.9702624787039
 30
0.0
 40
5.7
  0
LINE
  5
A125C
330
A
100
AcDbEntity
  8
ボルト
  6
Continuous
 62
     7
370
     5
100
AcDbLine
 10
-8786.998349461086
 20
865.2382624787039
 30
0.0
 11
-8788.998349461087
 21
865.2382624787039
 31
0.0
  0
LINE
  5
A125D
330
A
100
AcDbEntity
  8
ボルト
  6
Continuous
 62
     7
370
     5
100
AcDbLine
 10
-8785.998349461086
 20
866.9702624787039
 30
0.0
 11
-8786.998349461086
 21
865.2382624787039
 31
0.0
  0
LINE
  5
A125E
330
A
100
AcDbEntity
  8
ボルト
  6
Continuous
 62
     7
370
     5
100
AcDbLine
 10
-8785.998349461086
 20
866.9702624787039
 30
0.0
 11
-8786.998349461086
 21
868.7023624787036
 31
0.0
  0
LINE
  5
A125F
330
A
100
AcDbEntity
  8
ボルト
  6
Continuous
 62
     7
370
     5
100
AcDbLine
 10
-8786.998349461086
 20
868.7023624787036
 30
0.0
 11
-8788.998349461087
 21
868.7023624787036
 31
0.0
  0
LINE
  5
A1260
330
A
100
AcDbEntity
  8
ボルト
  6
Continuous
 62
     7
370
     5
100
AcDbLine
 10
-8788.998349461087
 20
868.7023624787036
 30
0.0
 11
-8789.998349461086
 21
866.9702624787039
 31
0.0
  0
LINE
  5
A1261
330
A
100
AcDbEntity
  8
ボルト
  6
Continuous
 62
     7
370
     5
100
AcDbLine
 10
-8788.998349461087
 20
865.2382624787039
 30
0.0
 11
-8789.998349461086
 21
866.9702624787039
 31
0.0
  0
CIRCLE
  5
A1262
330
A
100
AcDbEntity
  8
木ネジ、ダボ
  6
Continuous
 62
     7
100
AcDbCircle
 10
-8837.998349461086
 20
866.9702624787039
 30
0.0
 40
3.0
  0
LINE
  5
A1263
330
A
100
AcDbEntity
  8
木ネジ、ダボ
  6
Continuous
 62
     7
100
AcDbLine
 10
-8837.598349461087
 20
868.820252478704
 30
0.0
 11
-8838.398349461085
 21
868.820252478704
 31
0.0
  0
LINE
  5
A1264
330
A
100
AcDbEntity
  8
木ネジ、ダボ
  6
Continuous
 62
     7
100
AcDbLine
 10
-8837.598349461087
 20
867.8702524787039
 30
0.0
 11
-8837.598349461087
 21
868.820252478704
 31
0.0
  0
LINE
  5
A1265
330
A
100
AcDbEntity
  8
木ネジ、ダボ
  6
Continuous
 62
     7
100
AcDbLine
 10
-8836.148349461085
 20
867.3702724787043
 30
0.0
 11
-8837.098349461086
 21
867.3702724787043
 31
0.0
  0
LINE
  5
A1266
330
A
100
AcDbEntity
  8
木ネジ、ダボ
  6
Continuous
 62
     7
100
AcDbLine
 10
-8836.148349461085
 20
866.5702624787043
 30
0.0
 11
-8836.148349461085
 21
867.3702724787043
 31
0.0
  0
LINE
  5
A1267
330
A
100
AcDbEntity
  8
木ネジ、ダボ
  6
Continuous
 62
     7
100
AcDbLine
 10
-8836.148349461085
 20
866.5702624787043
 30
0.0
 11
-8837.098349461086
 21
866.5702624787043
 31
0.0
  0
LINE
  5
A1268
330
A
100
AcDbEntity
  8
木ネジ、ダボ
  6
Continuous
 62
     7
100
AcDbLine
 10
-8837.598349461087
 20
865.1202724787042
 30
0.0
 11
-8837.598349461087
 21
866.0702624787044
 31
0.0
  0
LINE
  5
A1269
330
A
100
AcDbEntity
  8
木ネジ、ダボ
  6
Continuous
 62
     7
100
AcDbLine
 10
-8837.598349461087
 20
865.1202724787042
 30
0.0
 11
-8838.398349461085
 21
865.1202724787042
 31
0.0
  0
LINE
  5
A126A
330
A
100
AcDbEntity
  8
木ネジ、ダボ
  6
Continuous
 62
     7
100
AcDbLine
 10
-8838.398349461085
 20
866.0702624787044
 30
0.0
 11
-8838.398349461085
 21
865.1202724787042
 31
0.0
  0
LINE
  5
A126B
330
A
100
AcDbEntity
  8
木ネジ、ダボ
  6
Continuous
 62
     7
100
AcDbLine
 10
-8838.898349461086
 20
866.5702624787043
 30
0.0
 11
-8839.848349461087
 21
866.5702624787043
 31
0.0
  0
LINE
  5
A126C
330
A
100
AcDbEntity
  8
木ネジ、ダボ
  6
Continuous
 62
     7
100
AcDbLine
 10
-8839.848349461087
 20
867.3702724787043
 30
0.0
 11
-8839.848349461087
 21
866.5702624787043
 31
0.0
  0
LINE
  5
A126D
330
A
100
AcDbEntity
  8
木ネジ、ダボ
  6
Continuous
 62
     7
100
AcDbLine
 10
-8838.898349461086
 20
867.3702724787043
 30
0.0
 11
-8839.848349461087
 21
867.3702724787043
 31
0.0
  0
LINE
  5
A126E
330
A
100
AcDbEntity
  8
木ネジ、ダボ
  6
Continuous
 62
     7
100
AcDbLine
 10
-8838.398349461085
 20
868.820252478704
 30
0.0
 11
-8838.398349461085
 21
867.8702524787039
 31
0.0
  0
ARC
  5
A126F
330
A
100
AcDbEntity
  8
木ネジ、ダボ
  6
Continuous
 62
     7
100
AcDbCircle
 10
-8837.098349461086
 20
867.8702524787039
 30
0.0
 40
0.5
100
AcDbArc
 50
180.0
 51
270.0
  0
ARC
  5
A1270
330
A
100
AcDbEntity
  8
木ネジ、ダボ
  6
Continuous
 62
     7
100
AcDbCircle
 10
-8837.098349461086
 20
866.0702624787044
 30
0.0
 40
0.5
100
AcDbArc
 50
90.0
 51
180.0
  0
ARC
  5
A1271
330
A
100
AcDbEntity
  8
木ネジ、ダボ
  6
Continuous
 62
     7
100
AcDbCircle
 10
-8838.898349461086
 20
866.0702624787044
 30
0.0
 40
0.5
100
AcDbArc
 50
0.000000000000007
 51
90.0
  0
ARC
  5
A1272
330
A
100
AcDbEntity
  8
木ネジ、ダボ
  6
Continuous
 62
     7
100
AcDbCircle
 10
-8838.898349461086
 20
867.8702524787039
 30
0.0
 40
0.5
100
AcDbArc
 50
270.0
 51
0.000000000000007
  0
CIRCLE
  5
A1273
330
A
100
AcDbEntity
  8
木ネジ、ダボ
  6
Continuous
 62
     7
100
AcDbCircle
 10
-8978.998349461086
 20
866.9702624787039
 30
0.0
 40
3.0
  0
LINE
  5
A1274
330
A
100
AcDbEntity
  8
木ネジ、ダボ
  6
Continuous
 62
     7
100
AcDbLine
 10
-8978.598349461085
 20
868.820252478704
 30
0.0
 11
-8979.398349461085
 21
868.820252478704
 31
0.0
  0
LINE
  5
A1275
330
A
100
AcDbEntity
  8
木ネジ、ダボ
  6
Continuous
 62
     7
100
AcDbLine
 10
-8978.598349461085
 20
867.8702524787039
 30
0.0
 11
-8978.598349461085
 21
868.820252478704
 31
0.0
  0
LINE
  5
A1276
330
A
100
AcDbEntity
  8
木ネジ、ダボ
  6
Continuous
 62
     7
100
AcDbLine
 10
-8977.148349461087
 20
867.3702724787043
 30
0.0
 11
-8978.098349461086
 21
867.3702724787043
 31
0.0
  0
LINE
  5
A1277
330
A
100
AcDbEntity
  8
木ネジ、ダボ
  6
Continuous
 62
     7
100
AcDbLine
 10
-8977.148349461087
 20
866.5702624787043
 30
0.0
 11
-8977.148349461087
 21
867.3702724787043
 31
0.0
  0
LINE
  5
A1278
330
A
100
AcDbEntity
  8
木ネジ、ダボ
  6
Continuous
 62
     7
100
AcDbLine
 10
-8977.148349461087
 20
866.5702624787043
 30
0.0
 11
-8978.098349461086
 21
866.5702624787043
 31
0.0
  0
LINE
  5
A1279
330
A
100
AcDbEntity
  8
木ネジ、ダボ
  6
Continuous
 62
     7
100
AcDbLine
 10
-8978.598349461085
 20
865.1202724787042
 30
0.0
 11
-8978.598349461085
 21
866.0702624787044
 31
0.0
  0
LINE
  5
A127A
330
A
100
AcDbEntity
  8
木ネジ、ダボ
  6
Continuous
 62
     7
100
AcDbLine
 10
-8978.598349461085
 20
865.1202724787042
 30
0.0
 11
-8979.398349461085
 21
865.1202724787042
 31
0.0
  0
LINE
  5
A127B
330
A
100
AcDbEntity
  8
木ネジ、ダボ
  6
Continuous
 62
     7
100
AcDbLine
 10
-8979.398349461085
 20
866.0702624787044
 30
0.0
 11
-8979.398349461085
 21
865.1202724787042
 31
0.0
  0
LINE
  5
A127C
330
A
100
AcDbEntity
  8
木ネジ、ダボ
  6
Continuous
 62
     7
100
AcDbLine
 10
-8979.898349461086
 20
866.5702624787043
 30
0.0
 11
-8980.848349461087
 21
866.5702624787043
 31
0.0
  0
LINE
  5
A127D
330
A
100
AcDbEntity
  8
木ネジ、ダボ
  6
Continuous
 62
     7
100
AcDbLine
 10
-8980.848349461087
 20
867.3702724787043
 30
0.0
 11
-8980.848349461087
 21
866.5702624787043
 31
0.0
  0
LINE
  5
A127E
330
A
100
AcDbEntity
  8
木ネジ、ダボ
  6
Continuous
 62
     7
100
AcDbLine
 10
-8979.898349461086
 20
867.3702724787043
 30
0.0
 11
-8980.848349461087
 21
867.3702724787043
 31
0.0
  0
LINE
  5
A127F
330
A
100
AcDbEntity
  8
木ネジ、ダボ
  6
Continuous
 62
     7
100
AcDbLine
 10
-8979.398349461085
 20
868.820252478704
 30
0.0
 11
-8979.398349461085
 21
867.8702524787039
 31
0.0
  0
ARC
  5
A1280
330
A
100
AcDbEntity
  8
木ネジ、ダボ
  6
Continuous
 62
     7
100
AcDbCircle
 10
-8978.098349461086
 20
867.8702524787039
 30
0.0
 40
0.5
100
AcDbArc
 50
180.0
 51
270.0
  0
ARC
  5
A1281
330
A
100
AcDbEntity
  8
木ネジ、ダボ
  6
Continuous
 62
     7
100
AcDbCircle
 10
-8978.098349461086
 20
866.0702624787044
 30
0.0
 40
0.5
100
AcDbArc
 50
90.0
 51
180.0
  0
ARC
  5
A1282
330
A
100
AcDbEntity
  8
木ネジ、ダボ
  6
Continuous
 62
     7
100
AcDbCircle
 10
-8979.898349461086
 20
866.0702624787044
 30
0.0
 40
0.5
100
AcDbArc
 50
0.000000000000007
 51
90.0
  0
ARC
  5
A1283
330
A
100
AcDbEntity
  8
木ネジ、ダボ
  6
Continuous
 62
     7
100
AcDbCircle
 10
-8979.898349461086
 20
867.8702524787039
 30
0.0
 40
0.5
100
AcDbArc
 50
270.0
 51
0.000000000000007
  0
CIRCLE
  5
A1284
330
A
100
AcDbEntity
  8
木ネジ、ダボ
  6
Continuous
 62
     7
100
AcDbCircle
 10
-8837.998349461075
 20
1226.970262478706
 30
0.0
 40
3.0
  0
LINE
  5
A1285
330
A
100
AcDbEntity
  8
木ネジ、ダボ
  6
Continuous
 62
     7
100
AcDbLine
 10
-8837.598349461075
 20
1225.120272478706
 30
0.0
 11
-8838.398349461074
 21
1225.120272478706
 31
0.0
  0
LINE
  5
A1286
330
A
100
AcDbEntity
  8
木ネジ、ダボ
  6
Continuous
 62
     7
100
AcDbLine
 10
-8837.598349461075
 20
1226.070272478706
 30
0.0
 11
-8837.598349461075
 21
1225.120272478706
 31
0.0
  0
LINE
  5
A1287
330
A
100
AcDbEntity
  8
木ネジ、ダボ
  6
Continuous
 62
     7
100
AcDbLine
 10
-8836.148349461074
 20
1226.570252478706
 30
0.0
 11
-8837.098349461076
 21
1226.570252478706
 31
0.0
  0
LINE
  5
A1288
330
A
100
AcDbEntity
  8
木ネジ、ダボ
  6
Continuous
 62
     7
100
AcDbLine
 10
-8836.148349461074
 20
1227.370262478706
 30
0.0
 11
-8836.148349461074
 21
1226.570252478706
 31
0.0
  0
LINE
  5
A1289
330
A
100
AcDbEntity
  8
木ネジ、ダボ
  6
Continuous
 62
     7
100
AcDbLine
 10
-8836.148349461074
 20
1227.370262478706
 30
0.0
 11
-8837.098349461076
 21
1227.370262478706
 31
0.0
  0
LINE
  5
A128A
330
A
100
AcDbEntity
  8
木ネジ、ダボ
  6
Continuous
 62
     7
100
AcDbLine
 10
-8837.598349461075
 20
1228.820252478706
 30
0.0
 11
-8837.598349461075
 21
1227.870262478706
 31
0.0
  0
LINE
  5
A128B
330
A
100
AcDbEntity
  8
木ネジ、ダボ
  6
Continuous
 62
     7
100
AcDbLine
 10
-8837.598349461075
 20
1228.820252478706
 30
0.0
 11
-8838.398349461074
 21
1228.820252478706
 31
0.0
  0
LINE
  5
A128C
330
A
100
AcDbEntity
  8
木ネジ、ダボ
  6
Continuous
 62
     7
100
AcDbLine
 10
-8838.398349461074
 20
1227.870262478706
 30
0.0
 11
-8838.398349461074
 21
1228.820252478706
 31
0.0
  0
LINE
  5
A128D
330
A
100
AcDbEntity
  8
木ネジ、ダボ
  6
Continuous
 62
     7
100
AcDbLine
 10
-8838.898349461075
 20
1227.370262478706
 30
0.0
 11
-8839.848349461076
 21
1227.370262478706
 31
0.0
  0
LINE
  5
A128E
330
A
100
AcDbEntity
  8
木ネジ、ダボ
  6
Continuous
 62
     7
100
AcDbLine
 10
-8839.848349461076
 20
1226.570252478706
 30
0.0
 11
-8839.848349461076
 21
1227.370262478706
 31
0.0
  0
LINE
  5
A128F
330
A
100
AcDbEntity
  8
木ネジ、ダボ
  6
Continuous
 62
     7
100
AcDbLine
 10
-8838.898349461075
 20
1226.570252478706
 30
0.0
 11
-8839.848349461076
 21
1226.570252478706
 31
0.0
  0
LINE
  5
A1290
330
A
100
AcDbEntity
  8
木ネジ、ダボ
  6
Continuous
 62
     7
100
AcDbLine
 10
-8838.398349461074
 20
1225.120272478706
 30
0.0
 11
-8838.398349461074
 21
1226.070272478706
 31
0.0
  0
ARC
  5
A1291
330
A
100
AcDbEntity
  8
木ネジ、ダボ
  6
Continuous
 62
     7
100
AcDbCircle
 10
-8837.098349461076
 20
1226.070272478706
 30
0.0
 40
0.5
100
AcDbArc
 50
90.0
 51
180.0
  0
ARC
  5
A1292
330
A
100
AcDbEntity
  8
木ネジ、ダボ
  6
Continuous
 62
     7
100
AcDbCircle
 10
-8837.098349461076
 20
1227.870262478706
 30
0.0
 40
0.5
100
AcDbArc
 50
180.0
 51
270.0
  0
ARC
  5
A1293
330
A
100
AcDbEntity
  8
木ネジ、ダボ
  6
Continuous
 62
     7
100
AcDbCircle
 10
-8838.898349461075
 20
1227.870262478706
 30
0.0
 40
0.5
100
AcDbArc
 50
270.0
 51
0.000000000000007
  0
ARC
  5
A1294
330
A
100
AcDbEntity
  8
木ネジ、ダボ
  6
Continuous
 62
     7
100
AcDbCircle
 10
-8838.898349461075
 20
1226.070272478706
 30
0.0
 40
0.5
100
AcDbArc
 50
0.000000000000007
 51
90.0
  0
CIRCLE
  5
A1295
330
A
100
AcDbEntity
  8
木ネジ、ダボ
  6
Continuous
 62
     7
100
AcDbCircle
 10
-8978.998349461075
 20
1226.970262478715
 30
0.0
 40
3.0
  0
LINE
  5
A1296
330
A
100
AcDbEntity
  8
木ネジ、ダボ
  6
Continuous
 62
     7
100
AcDbLine
 10
-8978.598349461076
 20
1225.120272478714
 30
0.0
 11
-8979.398349461074
 21
1225.120272478714
 31
0.0
  0
LINE
  5
A1297
330
A
100
AcDbEntity
  8
木ネジ、ダボ
  6
Continuous
 62
     7
100
AcDbLine
 10
-8978.598349461076
 20
1226.070272478714
 30
0.0
 11
-8978.598349461076
 21
1225.120272478714
 31
0.0
  0
LINE
  5
A1298
330
A
100
AcDbEntity
  8
木ネジ、ダボ
  6
Continuous
 62
     7
100
AcDbLine
 10
-8977.148349461074
 20
1226.570252478714
 30
0.0
 11
-8978.098349461076
 21
1226.570252478714
 31
0.0
  0
LINE
  5
A1299
330
A
100
AcDbEntity
  8
木ネジ、ダボ
  6
Continuous
 62
     7
100
AcDbLine
 10
-8977.148349461074
 20
1227.370262478714
 30
0.0
 11
-8977.148349461074
 21
1226.570252478714
 31
0.0
  0
LINE
  5
A129A
330
A
100
AcDbEntity
  8
木ネジ、ダボ
  6
Continuous
 62
     7
100
AcDbLine
 10
-8977.148349461074
 20
1227.370262478714
 30
0.0
 11
-8978.098349461076
 21
1227.370262478714
 31
0.0
  0
LINE
  5
A129B
330
A
100
AcDbEntity
  8
木ネジ、ダボ
  6
Continuous
 62
     7
100
AcDbLine
 10
-8978.598349461073
 20
1228.820252478714
 30
0.0
 11
-8978.598349461076
 21
1227.870262478714
 31
0.0
  0
LINE
  5
A129C
330
A
100
AcDbEntity
  8
木ネジ、ダボ
  6
Continuous
 62
     7
100
AcDbLine
 10
-8978.598349461073
 20
1228.820252478714
 30
0.0
 11
-8979.398349461074
 21
1228.820252478714
 31
0.0
  0
LINE
  5
A129D
330
A
100
AcDbEntity
  8
木ネジ、ダボ
  6
Continuous
 62
     7
100
AcDbLine
 10
-8979.398349461074
 20
1227.870262478714
 30
0.0
 11
-8979.398349461074
 21
1228.820252478714
 31
0.0
  0
LINE
  5
A129E
330
A
100
AcDbEntity
  8
木ネジ、ダボ
  6
Continuous
 62
     7
100
AcDbLine
 10
-8979.898349461075
 20
1227.370262478715
 30
0.0
 11
-8980.848349461075
 21
1227.370262478715
 31
0.0
  0
LINE
  5
A129F
330
A
100
AcDbEntity
  8
木ネジ、ダボ
  6
Continuous
 62
     7
100
AcDbLine
 10
-8980.848349461075
 20
1226.570252478715
 30
0.0
 11
-8980.848349461075
 21
1227.370262478715
 31
0.0
  0
LINE
  5
A12A0
330
A
100
AcDbEntity
  8
木ネジ、ダボ
  6
Continuous
 62
     7
100
AcDbLine
 10
-8979.898349461075
 20
1226.570252478715
 30
0.0
 11
-8980.848349461075
 21
1226.570252478715
 31
0.0
  0
LINE
  5
A12A1
330
A
100
AcDbEntity
  8
木ネジ、ダボ
  6
Continuous
 62
     7
100
AcDbLine
 10
-8979.398349461074
 20
1225.120272478714
 30
0.0
 11
-8979.398349461074
 21
1226.070272478714
 31
0.0
  0
ARC
  5
A12A2
330
A
100
AcDbEntity
  8
木ネジ、ダボ
  6
Continuous
 62
     7
100
AcDbCircle
 10
-8978.098349461076
 20
1226.070272478714
 30
0.0
 40
0.5
100
AcDbArc
 50
90.0
 51
180.0
  0
ARC
  5
A12A3
330
A
100
AcDbEntity
  8
木ネジ、ダボ
  6
Continuous
 62
     7
100
AcDbCircle
 10
-8978.098349461076
 20
1227.870262478714
 30
0.0
 40
0.5
100
AcDbArc
 50
180.0
 51
270.0
  0
ARC
  5
A12A4
330
A
100
AcDbEntity
  8
木ネジ、ダボ
  6
Continuous
 62
     7
100
AcDbCircle
 10
-8979.898349461075
 20
1227.870262478715
 30
0.0
 40
0.5
100
AcDbArc
 50
270.0
 51
0.000000000000007
  0
ARC
  5
A12A5
330
A
100
AcDbEntity
  8
木ネジ、ダボ
  6
Continuous
 62
     7
100
AcDbCircle
 10
-8979.898349461075
 20
1226.070272478715
 30
0.0
 40
0.5
100
AcDbArc
 50
0.000000000000007
 51
90.0
  0
LINE
  5
A12A6
330
A
100
AcDbEntity
  8
妻枠
  6
STYLE_08
 62
     7
370
    25
100
AcDbLine
 10
-8707.998349461085
 20
1293.970262478704
 30
0.0
 11
-8707.998349461085
 21
1046.970262478704
 31
0.0
  0
LINE
  5
A12A7
330
A
100
AcDbEntity
  8
樹脂
 62
     7
370
    50
100
AcDbLine
 10
-8708.081213612492
 20
1246.970262478707
 30
0.0
 11
-8708.081213612489
 21
1046.970262478707
 31
0.0
  0
LINE
  5
A12A8
330
A
100
AcDbEntity
  8
樹脂
 62
     7
370
    50
100
AcDbLine
 10
-8708.081213612478
 20
1046.970262478707
 30
0.0
 11
-8708.081213612482
 21
1010.634988309626
 31
0.0
  0
ARC
  5
A12A9
330
A
100
AcDbEntity
  8
樹脂
 62
     7
370
    50
100
AcDbCircle
 10
-8698.581213612492
 20
1257.470262478707
 30
0.0
 40
9.5
100
AcDbArc
 50
90.0
 51
180.0
  0
LINE
  5
A12AA
330
A
100
AcDbEntity
  8
樹脂
 62
     7
370
    50
100
AcDbLine
 10
-8689.083408926885
 20
1257.674483325208
 30
0.0
 11
-8689.081213612487
 21
836.4702624787076
 31
0.0
  0
LINE
  5
A12AB
330
A
100
AcDbEntity
  8
樹脂
 62
     7
370
    50
100
AcDbLine
 10
-8708.081213612492
 20
1257.470262478707
 30
0.0
 11
-8708.081213612492
 21
1108.485291934949
 31
0.0
  0
ARC
  5
A12AC
330
A
100
AcDbEntity
  8
樹脂
 62
     7
370
    50
100
AcDbCircle
 10
-8698.581213612492
 20
1257.470262478707
 30
0.0
 40
9.5
100
AcDbArc
 50
0.000000000000007
 51
90.0
  0
ARC
  5
A12AD
330
A
100
AcDbEntity
  8
樹脂
 62
     7
370
    30
100
AcDbCircle
 10
-8698.58121361249
 20
914.470262478707
 30
0.0
 40
9.5
100
AcDbArc
 50
180.0
 51
0.000000000000007
  0
ARC
  5
A12AE
330
A
100
AcDbEntity
  8
樹脂
 62
     7
370
    30
100
AcDbCircle
 10
-8698.581213612492
 20
1179.470262478708
 30
0.0
 40
9.5
100
AcDbArc
 50
90.0
 51
180.0
  0
ARC
  5
A12AF
330
A
100
AcDbEntity
  8
樹脂
 62
     7
370
    30
100
AcDbCircle
 10
-8698.581213612492
 20
1179.470262478708
 30
0.0
 40
9.5
100
AcDbArc
 50
0.000000000000007
 51
90.0
  0
ARC
  5
A12B0
330
A
100
AcDbEntity
  8
樹脂
 62
     7
370
    50
100
AcDbCircle
 10
-8698.581213612488
 20
836.4702624787071
 30
0.0
 40
9.5
100
AcDbArc
 50
180.0
 51
270.0
  0
ARC
  5
A12B1
330
A
100
AcDbEntity
  8
樹脂
 62
     7
370
    50
100
AcDbCircle
 10
-8698.581213612488
 20
836.4702624787071
 30
0.0
 40
9.5
100
AcDbArc
 50
270.0
 51
0.000000000000007
  0
CIRCLE
  5
A12B2
330
A
100
AcDbEntity
  8
妻枠
 62
     7
370
    50
100
AcDbCircle
 10
-8837.998349461086
 20
1046.970262478704
 30
0.0
 40
4.0
  0
CIRCLE
  5
A12B3
330
A
100
AcDbEntity
  8
妻枠
 62
     7
370
    50
100
AcDbCircle
 10
-8787.998349461087
 20
1046.970262478704
 30
0.0
 40
4.0
  0
LINE
  5
A12B4
330
A
100
AcDbEntity
  8
ナット
  6
Continuous
 62
     7
100
AcDbLine
 10
-8833.668249461087
 20
1049.470262478704
 30
0.0
 11
-8837.998349461086
 21
1051.970262478704
 31
0.0
  0
LINE
  5
A12B5
330
A
100
AcDbEntity
  8
ナット
  6
Continuous
 62
     7
100
AcDbLine
 10
-8833.668249461087
 20
1049.470262478704
 30
0.0
 11
-8833.668249461087
 21
1044.470262478704
 31
0.0
  0
LINE
  5
A12B6
330
A
100
AcDbEntity
  8
ナット
  6
Continuous
 62
     7
100
AcDbLine
 10
-8833.668249461087
 20
1044.470262478704
 30
0.0
 11
-8837.998349461086
 21
1041.970262478704
 31
0.0
  0
LINE
  5
A12B7
330
A
100
AcDbEntity
  8
ナット
  6
Continuous
 62
     7
100
AcDbLine
 10
-8837.998349461086
 20
1041.970262478704
 30
0.0
 11
-8842.328449461085
 21
1044.470262478704
 31
0.0
  0
LINE
  5
A12B8
330
A
100
AcDbEntity
  8
ナット
  6
Continuous
 62
     7
100
AcDbLine
 10
-8842.328449461085
 20
1049.470262478704
 30
0.0
 11
-8842.328449461085
 21
1044.470262478704
 31
0.0
  0
LINE
  5
A12B9
330
A
100
AcDbEntity
  8
ナット
  6
Continuous
 62
     7
100
AcDbLine
 10
-8837.998349461086
 20
1051.970262478704
 30
0.0
 11
-8842.328449461085
 21
1049.470262478704
 31
0.0
  0
CIRCLE
  5
A12BA
330
A
100
AcDbEntity
  8
ナット
  6
Continuous
 62
     7
100
AcDbCircle
 10
-8837.998349461086
 20
1046.970262478704
 30
0.0
 40
7.25
  0
CIRCLE
  5
A12BB
330
A
100
AcDbEntity
  8
ナット
  6
Continuous
 62
     7
100
AcDbCircle
 10
-8837.998349461086
 20
1046.970262478704
 30
0.0
 40
4.33
  0
CIRCLE
  5
A12BC
330
A
100
AcDbEntity
  8
ナット
  6
Continuous
 62
     7
100
AcDbCircle
 10
-8837.998349461086
 20
1046.970262478704
 30
0.0
 40
4.03
  0
LINE
  5
A12BD
330
A
100
AcDbEntity
  8
ナット
  6
Hidden
 62
     7
100
AcDbLine
 10
-8783.668249461086
 20
1049.470262478704
 30
0.0
 11
-8787.998349461087
 21
1051.970262478704
 31
0.0
  0
LINE
  5
A12BE
330
A
100
AcDbEntity
  8
ナット
  6
Hidden
 62
     7
100
AcDbLine
 10
-8783.668249461086
 20
1049.470262478704
 30
0.0
 11
-8783.668249461086
 21
1044.470262478704
 31
0.0
  0
LINE
  5
A12BF
330
A
100
AcDbEntity
  8
ナット
  6
Hidden
 62
     7
100
AcDbLine
 10
-8783.668249461086
 20
1044.470262478704
 30
0.0
 11
-8787.998349461087
 21
1041.970262478704
 31
0.0
  0
LINE
  5
A12C0
330
A
100
AcDbEntity
  8
ナット
  6
Hidden
 62
     7
100
AcDbLine
 10
-8787.998349461087
 20
1041.970262478704
 30
0.0
 11
-8792.328449461086
 21
1044.470262478704
 31
0.0
  0
LINE
  5
A12C1
330
A
100
AcDbEntity
  8
ナット
  6
Hidden
 62
     7
100
AcDbLine
 10
-8792.328449461086
 20
1049.470262478704
 30
0.0
 11
-8792.328449461086
 21
1044.470262478704
 31
0.0
  0
LINE
  5
A12C2
330
A
100
AcDbEntity
  8
ナット
  6
Hidden
 62
     7
100
AcDbLine
 10
-8787.998349461087
 20
1051.970262478704
 30
0.0
 11
-8792.328449461086
 21
1049.470262478704
 31
0.0
  0
CIRCLE
  5
A12C3
330
A
100
AcDbEntity
  8
ナット
  6
Hidden
 62
     7
100
AcDbCircle
 10
-8787.998349461087
 20
1046.970262478704
 30
0.0
 40
7.25
  0
CIRCLE
  5
A12C4
330
A
100
AcDbEntity
  8
ナット
  6
Hidden
 62
     7
100
AcDbCircle
 10
-8787.998349461087
 20
1046.970262478704
 30
0.0
 40
4.33
  0
CIRCLE
  5
A12C5
330
A
100
AcDbEntity
  8
ナット
  6
Hidden
 62
     7
100
AcDbCircle
 10
-8787.998349461087
 20
1046.970262478704
 30
0.0
 40
4.03
  0
LINE
  5
A12C6
330
A
100
AcDbEntity
  8
妻枠
 62
     7
370
    50
100
AcDbLine
 10
-8710.323947027076
 20
797.9969438969676
 30
0.0
 11
-8718.314438303194
 21
799.2758700038491
 31
0.0
  0
LINE
  5
A12C7
330
A
100
AcDbEntity
  8
妻枠
 62
     7
370
    50
100
AcDbLine
 10
-8719.102510368461
 20
799.4020056697978
 30
0.0
 11
-8731.399811030398
 21
801.370262478702
 31
0.0
  0
ARC
  5
A12C8
330
A
100
AcDbEntity
  8
妻枠
 62
     7
370
    50
100
AcDbCircle
 10
-8717.998349461087
 20
801.2507340102795
 30
0.0
 40
2.0
100
AcDbArc
 50
180.0
 51
260.9065943857501
  0
ARC
  5
A12C9
330
A
100
AcDbEntity
  8
妻枠
 62
     7
370
    50
100
AcDbCircle
 10
-8709.998349461093
 20
1293.970262478704
 30
0.0
 40
2.0
100
AcDbArc
 50
0.000000000000007
 51
99.36938509644486
  0
LINE
  5
A12CA
330
A
100
AcDbEntity
  8
妻枠
 62
     7
370
    50
100
AcDbLine
 10
-8710.323947027083
 20
1295.94358106044
 30
0.0
 11
-8718.314438303206
 21
1294.664654953558
 31
0.0
  0
LINE
  5
A12CB
330
A
100
AcDbEntity
  8
妻枠
 62
     7
370
    50
100
AcDbLine
 10
-8718.314438303201
 20
1294.664654953558
 30
0.0
 11
-8731.399811030449
 21
1292.570262478697
 31
0.0
  0
ARC
  5
A12CC
330
A
100
AcDbEntity
  8
妻枠
 62
     7
370
    50
100
AcDbCircle
 10
-8717.998349461094
 20
1292.689790947128
 30
0.0
 40
2.0
100
AcDbArc
 50
99.0934056142499
 51
180.0
  0
VIEWPORT
  5
A12FA
330
A12F3
100
AcDbEntity
 67
     1
  8
0
100
AcDbViewport
 10
128.5
 20
97.5
 30
0.0
 40
428.26
 41
222.18
 68
     1
 69
     1
 12
128.5
 22
97.5
 13
0.0
 23
0.0
 14
10.0
 24
10.0
 15
10.0
 25
10.0
 16
0.0
 26
0.0
 36
1.0
 17
0.0
 27
0.0
 37
0.0
 42
50.0
 43
0.0
 44
0.0
 45
222.18
 50
0.0
 51
0.0
 72
  2000
 90
   819232
  1

281
     0
 71
     1
 74
     0
110
0.0
120
0.0
130
0.0
111
1.0
121
0.0
131
0.0
112
0.0
122
1.0
132
0.0
 79
     0
146
0.0
170
     0
 61
     5
348
977
292
     1
282
     1
141
0.0
142
0.0
 63
   250
421
  3355443
  0
ENDSEC
  0
SECTION
  2
OBJECTS
  0
DICTIONARY
  5
19
330
0
100
AcDbDictionary
281
     1
  3
ACAD_BGPLOT_KEY
350
1108E
  3
ACAD_COLOR
350
982
  3
ACAD_GROUP
350
1A
  3
ACAD_LAYOUT
350
1E
  3
ACAD_MATERIAL
350
96D
  3
ACAD_MLINESTYLE
350
1B
  3
ACAD_PLOTSETTINGS
350
22
  3
ACAD_PLOTSTYLENAME
350
1F
  3
ACAD_TABLESTYLE
350
983
  3
ACAD_VISUALSTYLE
350
971
  3
ACAD_WIPEOUT_VARS
350
23
  3
AcadDim
350
955F1
  3
AcDbVariableDictionary
350
98E
  3
ASE_INDEX_DICTIONARY
350
A1318
  0
DICTIONARY
  5
3A0F
330
7
100
AcDbDictionary
280
     1
281
     1
  0
DICTIONARY
  5
C1E
330
2
100
AcDbDictionary
280
     1
281
     1
  3
ACAD_LAYERFILTERS
360
67712
  3
ACAD_LAYERSTATES
360
C1F
  3
ACLYDICTIONARY
360
67711
  0
DICTIONARY
  5
9CE
330
A
100
AcDbDictionary
280
     1
281
     1
  3
ACAD_SORTENTS
360
9CF
  0
DICTIONARY
  5
1108E
102
{ACAD_REACTORS
330
19
102
}
330
19
100
AcDbDictionary
280
     1
281
     1
  0
DICTIONARY
  5
982
102
{ACAD_REACTORS
330
19
102
}
330
19
100
AcDbDictionary
281
     1
  0
DICTIONARY
  5
1A
102
{ACAD_REACTORS
330
19
102
}
330
19
100
AcDbDictionary
281
     1
  0
DICTIONARY
  5
1E
102
{ACAD_REACTORS
330
19
102
}
330
19
100
AcDbDictionary
281
     1
  3
Model
350
20
  3
レイアウト1
350
A12F4
  0
DICTIONARY
  5
96D
102
{ACAD_REACTORS
330
19
102
}
330
19
100
AcDbDictionary
281
     1
  3
ByBlock
350
96F
  3
ByLayer
350
96E
  3
Global
350
970
  0
DICTIONARY
  5
1B
102
{ACAD_REACTORS
330
19
102
}
330
19
100
AcDbDictionary
281
     1
  3
Standard
350
1C
  0
DICTIONARY
  5
22
102
{ACAD_REACTORS
330
19
102
}
330
19
100
AcDbDictionary
281
     1
  0
ACDBDICTIONARYWDFLT
  5
1F
102
{ACAD_REACTORS
330
19
102
}
330
19
100
AcDbDictionary
281
     1
  3
Normal
350
1D
100
AcDbDictionaryWithDefault
340
1D
  0
DICTIONARY
  5
983
102
{ACAD_REACTORS
330
19
102
}
330
19
100
AcDbDictionary
281
     1
  3
Standard
350
984
  0
DICTIONARY
  5
971
102
{ACAD_REACTORS
330
19
102
}
330
19
100
AcDbDictionary
281
     1
  3
2dWireframe
350
977
  3
3dWireframe
350
978
  3
Basic
350
976
  3
Brighten
350
97D
  3
ColorChange
350
981
  3
Dim
350
97C
  3
Facepattern
350
980
  3
Flat
350
972
  3
FlatWithEdges
350
973
  3
Gouraud
350
974
  3
GouraudWithEdges
350
975
  3
Linepattern
350
97F
  3
Realistic
350
97B
  3
Thicken
350
97E
  0
WIPEOUTVARIABLES
  5
23
330
19
100
AcDbWipeoutVariables
 70
     0
  0
XRECORD
  5
955F1
102
{ACAD_REACTORS
330
19
102
}
330
19
100
AcDbXrecord
280
     1
 90
   990106
  3

 60
     0
 61
     0
 62
     1
 63
     3
 64
     0
 65
     0
 66
     0
 67
     3
 68
     1
 69
     0
 70
     0
 71
     0
 72
     0
 40
0.211212553367659
170
     0
340
0
  0
DICTIONARY
  5
98E
102
{ACAD_REACTORS
330
19
102
}
330
19
100
AcDbDictionary
281
     1
  3
CTABLESTYLE
350
98F
  3
FIELDEVAL
350
1108F
  0
DICTIONARY
  5
A1318
102
{ACAD_REACTORS
330
19
102
}
330
19
100
AcDbDictionary
281
     1
  3
ASEBlockHierarchyIndexRecord
350
A1319
1001
DCO15
1040
1942402814.493
  0
DICTIONARY
  5
67712
102
{ACAD_REACTORS
330
C1E
102
}
330
C1E
100
AcDbDictionary
281
     1
  0
DICTIONARY
  5
C1F
102
{ACAD_REACTORS
330
C1E
102
}
330
C1E
100
AcDbDictionary
281
     1
  0
DICTIONARY
  5
67711
102
{ACAD_REACTORS
330
C1E
102
}
330
C1E
100
AcDbDictionary
281
     1
1001
ACAD
1000
<All
  0
SORTENTSTABLE
  5
9CF
102
{ACAD_REACTORS
330
9CE
102
}
330
9CE
100
AcDbSortentsTable
330
A
331
9DC15
  5
9DC4C
331
9E3F2
  5
9E435
331
9DC1D
  5
9DC54
331
9E41A
  5
9E453
331
9DC25
  5
9DC5D
331
9E233
  5
9E26F
331
9F03A
  5
9F075
331
9F191
  5
9F1CB
331
9EDA4
  5
9EDDD
331
9E566
  5
9E59F
331
9EF5B
  5
9EF94
331
9F4EF
  5
9F532
331
9EF63
  5
9EF9C
331
9E56E
  5
9E5A7
331
9EDAC
  5
9EDE5
331
9F199
  5
9F1D3
331
9F1A1
  5
9F1DC
331
9F330
  5
9F3D9
331
9EDB4
  5
9EDED
331
9EF6B
  5
9EFA4
331
9E7D6
  5
9E80F
331
9ED6D
  5
9EDA6
331
9F04A
  5
9F084
331
9F4F7
  5
9F53C
331
9F1B9
  5
9F1FB
331
9EFD3
  5
9F00D
331
9ED75
  5
9EDAE
331
9F052
  5
9F08C
331
9F520
  5
9F55D
331
A11F7
  5
A11F8
331
A11C0
  5
A11C1
331
A11C8
  5
A11C9
331
9DCE4
  5
9DD1B
331
9DBF6
  5
9DC2D
331
9E27B
  5
9E2B3
331
9DBFE
  5
9DC35
331
9DC55
  5
9DC8D
331
A121C
  5
9E179
331
9DC75
  5
9DCAC
331
9F05A
  5
9F094
331
9F1C1
  5
9F205
331
9ED7D
  5
9EDB6
331
9EDCC
  5
9EE09
331
9EFDB
  5
9F015
331
9F4C8
  5
9F504
331
9F4D0
  5
9F50C
331
9F15A
  5
9F1AA
331
9F50F
  5
9F552
331
9EBBE
  5
9EBF7
331
9ED85
  5
9EDBE
331
9EDD4
  5
9EE0D
331
9F4D8
  5
9F51A
331
9F162
  5
9F1B2
331
9ED9D
  5
9EDD6
331
9EDDC
  5
9EE15
331
9F4E0
  5
9F522
331
9EBCE
  5
9EC07
331
9F182
  5
9F1C5
331
9F51F
  5
9F55C
331
A11D0
  5
A11D1
331
A11D8
  5
A11D9
331
A11E0
  5
A11E1
331
A11E8
  5
A11E9
331
9DC16
  5
9DC4D
331
9E3F3
  5
9E436
331
9E1AC
  5
9E1E4
331
9DC1E
  5
9DC55
331
9E3FB
  5
9E43F
331
9DC26
  5
9DC5E
331
9E41B
  5
9E454
331
9DC2E
  5
9DC66
331
9F192
  5
9F1CC
331
9EDA5
  5
9EDDE
331
9E567
  5
9E5A0
331
9EF5C
  5
9EF95
331
9F4E8
  5
9F52A
331
9F4F0
  5
9F533
331
9F19A
  5
9F1D4
331
9EDAD
  5
9EDE6
331
9EF64
  5
9EF9D
331
9E56F
  5
9E5A8
331
9ED66
  5
9ED9F
331
9F4F8
  5
9F53D
331
9F04B
  5
9F085
331
9F1A2
  5
9F1DD
331
9ED6E
  5
9EDA7
331
9EDB5
  5
9EDEE
331
9EF6C
  5
9EFA5
331
9F331
  5
9F501
331
9EFD4
  5
9F00E
331
9ED76
  5
9EDAF
331
9F053
  5
9F08D
331
9F1BA
  5
9F1FC
331
A11F0
  5
A11F1
331
9F521
  5
9F55E
331
A11F8
  5
A11F9
331
A11C1
  5
A11C2
331
A11C9
  5
A11CA
331
9DCE5
  5
9DD1C
331
9E27C
  5
9E2B4
331
9DC56
  5
9DC8E
331
9DC07
  5
9DC3E
331
9DC5E
  5
9DC95
331
9E145
  5
9E1CE
331
9DC76
  5
9DCAD
331
8AA22
  5
8B1FD
331
9F1C2
  5
9F207
331
9F4C9
  5
9F505
331
9EFDC
  5
9F016
331
9EACF
  5
9EB08
331
9ED7E
  5
9EDB7
331
9F05B
  5
9F095
331
9F510
  5
9F553
331
9F1CA
  5
9F210
331
9F4D1
  5
9F50D
331
9EDD5
  5
9EE0E
331
9EBBF
  5
9EBF8
331
9ED86
  5
9EDBF
331
9F15B
  5
9F1AB
331
9F518
  5
9F555
331
9F163
  5
9F1B3
331
9ED9E
  5
9EDD7
331
9EDDD
  5
9EE16
331
9F034
  5
9F06E
331
9F4D9
  5
9F51B
331
9F4E1
  5
9F523
331
9EBCF
  5
9EC08
331
9F183
  5
9F1C6
331
A11D1
  5
A11D2
331
A11D9
  5
A11DA
331
A11E1
  5
A11E2
331
A11E9
  5
A11EA
331
9DC7E
  5
9DCB5
331
9DC17
  5
9DC4E
331
9E3F4
  5
9E437
331
9E1AD
  5
9E1E5
331
9E41C
  5
9E455
331
9DCDE
  5
9DD16
331
9E23D
  5
9E2A7
331
9F4E9
  5
9F52B
331
9F03C
  5
9F078
331
9F193
  5
9F1CD
331
9EDA6
  5
9EDDF
331
9EF5D
  5
9EF96
331
9F4F1
  5
9F534
331
9EF65
  5
9EF9E
331
9ED67
  5
9EDA0
331
9EDAE
  5
9EDE7
331
9F19B
  5
9F1D6
331
9F1A3
  5
9F1DE
331
9EDB6
  5
9EDEF
331
9EF6D
  5
9F00A
331
9E9C0
  5
9E9F9
331
9ED6F
  5
9EDA8
331
9F04C
  5
9F086
331
9F4F9
  5
9F53E
331
9F054
  5
9F08E
331
9F1BB
  5
9F1FD
331
9EFD5
  5
9F00F
331
9ED77
  5
9EDB0
331
9F522
  5
9F55F
331
A11F1
  5
A11F2
331
A11F9
  5
A11FA
331
A11C2
  5
A11C3
331
A11CA
  5
A11CB
331
9DCE6
  5
9DD1D
331
9DBF8
  5
9DC2F
331
9DC4F
  5
9DC87
331
9DC57
  5
9DC8F
331
9DC00
  5
9DC37
331
9E27D
  5
9E2E9
331
9DC5F
  5
9DC96
331
9DC08
  5
9DC3F
331
9DC77
  5
9DCAE
331
9ED7F
  5
9EDB8
331
9EFDD
  5
9F017
331
9F4CA
  5
9F506
331
9F4D2
  5
9F50E
331
9F511
  5
9F554
331
9F15C
  5
9F1AC
331
9EBC0
  5
9EBF9
331
9ED87
  5
9EDC0
331
9EDD6
  5
9EE0F
331
9F1CB
  5
9F213
331
9F1D3
  5
9F217
331
9F4DA
  5
9F51C
331
9EDDE
  5
9EE17
331
9F035
  5
9F06F
331
9ED9F
  5
9EDD8
331
9F164
  5
9F1B4
331
9F519
  5
9F556
331
9F4E2
  5
9F524
331
9F184
  5
9F1C7
331
A11D2
  5
A11D3
331
A11DA
  5
A11DB
331
A11E2
  5
A11E3
331
A11EA
  5
A11EB
331
9DC18
  5
9DC4F
331
9E3F5
  5
9E438
331
9E1AE
  5
9E1E6
331
9DC20
  5
9DC57
331
9E3FD
  5
9E440
331
9E41D
  5
9E456
331
9EBD0
  5
9EC09
331
9F194
  5
9F1CE
331
9F1F3
  5
9F22D
331
9EDA7
  5
9EDE0
331
9EF5E
  5
9EF97
331
9F03D
  5
9F079
331
9F4EA
  5
9F52D
331
9F4F2
  5
9F535
331
9F19C
  5
9F1D7
331
9ED68
  5
9EDA1
331
9EDAF
  5
9EDE8
331
9EF66
  5
9EF9F
331
9F4FA
  5
9F53F
331
9F04D
  5
9F087
331
9ED70
  5
9EDA9
331
9EDB7
  5
9EDF0
331
9F1A4
  5
9F1DF
331
9E9C1
  5
9EB07
331
9EFD6
  5
9F010
331
9F055
  5
9F08F
331
9F1BC
  5
9F1FE
331
A11F2
  5
A11F3
331
9F523
  5
9F560
331
A11BB
  5
9E2B5
331
A11FA
  5
A11FB
331
A11C3
  5
A11C4
331
A11CB
  5
A11CC
331
9DC50
  5
9DC88
331
9DCE7
  5
9DD1E
331
9DBF9
  5
9DC30
331
9E27E
  5
9E425
331
9DC01
  5
9DC38
331
9DC58
  5
9DC90
331
9DC09
  5
9DC40
331
9ED78
  5
9EDB1
331
9EFDE
  5
9F018
331
9F4CB
  5
9F507
331
9ED80
  5
9EDB9
331
9F15D
  5
9F1AD
331
9EDD7
  5
9EE10
331
9EBC1
  5
9EBFA
331
9F4D3
  5
9F50F
331
9F165
  5
9F1B5
331
9F1D4
  5
9F218
331
9EDDF
  5
9EECB
331
9F036
  5
9F072
331
9F4DB
  5
9F51D
331
9F4E3
  5
9F525
331
9F185
  5
9F1C8
331
A11D3
  5
A11D4
331
A11DB
  5
A11DC
331
A11E3
  5
A11E4
331
A11EB
  5
A11EC
331
9DC78
  5
9DCAF
331
9DC11
  5
9DC48
331
9E197
  5
9E1E3
331
9DC19
  5
9DC50
331
9E3F6
  5
9E439
331
9E3FE
  5
9E44E
331
9DC21
  5
9DC58
331
9E1AF
  5
9E1E7
331
9E41E
  5
9E59B
331
9EBD1
  5
9EC0A
331
9EDA0
  5
9EDD9
331
9F1F4
  5
9F22F
331
9F4EB
  5
9F52E
331
9EF5F
  5
9EF98
331
9EDA8
  5
9EDE1
331
9F195
  5
9F1CF
331
9F4F3
  5
9F536
331
9EF67
  5
9EFA0
331
9F046
  5
9F082
331
9ED69
  5
9EDA2
331
9EDB0
  5
9EDE9
331
9F19D
  5
9F1D8
331
9EDB8
  5
9EDF1
331
9ED71
  5
9EDAA
331
9F04E
  5
9F088
331
9F056
  5
9F090
331
9F1BD
  5
9F1FF
331
9EFD7
  5
9F011
331
A11F3
  5
A11F4
331
A11FB
  5
A11FC
331
A11C4
  5
A11C5
331
A11CC
  5
A11CD
331
9DCE0
  5
9DD17
331
9DCE8
  5
9DD1F
331
9DC51
  5
9DC89
331
9DC59
  5
9DC91
331
9DC02
  5
9DC39
331
9E3D7
  5
9E426
331
9DC0A
  5
9DC41
331
9ED79
  5
9EDB2
331
9F4CC
  5
9F508
331
9F1C5
  5
9F20A
331
9ED81
  5
9EDBA
331
9EFDF
  5
9F019
331
9F4D4
  5
9F510
331
9F15E
  5
9F1AE
331
9EBC2
  5
9EBFB
331
9ED99
  5
9EDD2
331
9EDD8
  5
9EE11
331
9EDE0
  5
9EF8E
331
9F037
  5
9F074
331
9F4DC
  5
9F51E
331
9F186
  5
9F1CA
331
9F4E4
  5
9F526
331
A11D4
  5
A11D5
331
A11DC
  5
A11DD
331
A11E4
  5
A11E5
331
A11EC
  5
A11ED
331
9DC12
  5
9DC49
331
9DC79
  5
9DCB0
331
9E3F7
  5
9E43A
331
9DC1A
  5
9DC51
331
9DC81
  5
9DCB8
331
9DC22
  5
9DC59
331
9E41F
  5
9E59C
331
9EBD2
  5
9ED17
331
9EDA1
  5
9EDDA
331
9F196
  5
9F1D0
331
9EDA9
  5
9EDE2
331
9EF60
  5
9EF99
331
9F4EC
  5
9F52F
331
9F4F4
  5
9F537
331
9F047
  5
9F083
331
9F19E
  5
9F1D9
331
9ED6A
  5
9EDA3
331
9EDB1
  5
9EDEA
331
9EF68
  5
9EFA1
331
9F04F
  5
9F089
331
9ED72
  5
9EDAB
331
9EDB9
  5
9EDF2
331
9F057
  5
9F091
331
9F1BE
  5
9F200
331
A11F4
  5
A11F5
331
A11BD
  5
A11BE
331
A11FC
  5
A11FD
331
A11C5
  5
A11C6
331
A1204
  5
A1205
331
A11CD
  5
A11CE
331
9DC4A
  5
9DC82
331
9DCE1
  5
9DD18
331
9E270
  5
9E2A8
331
9DC52
  5
9DC8A
331
9DCE9
  5
9DD20
331
9DC03
  5
9DC3A
331
9DC5A
  5
9DC92
331
9DC0B
  5
9DC42
331
9DC72
  5
9DCA9
331
9EFD8
  5
9F012
331
9ED7A
  5
9EDB3
331
9EFE0
  5
9F01A
331
9F4CD
  5
9F509
331
9ED82
  5
9EDBB
331
9F15F
  5
9F1AF
331
9ED9A
  5
9EDD3
331
9EDD9
  5
9EE12
331
9EBC3
  5
9EBFC
331
9F4D5
  5
9F511
331
9F4DD
  5
9F51F
331
9EBCB
  5
9EC04
331
9F4E5
  5
9F527
331
A11D5
  5
A11D7
331
A11DD
  5
A11DE
331
A11E5
  5
A11E6
331
A11ED
  5
A11EE
331
9DC7A
  5
9DCB1
331
9DC13
  5
9DC4A
331
9E3F8
  5
9E43C
331
9DC82
  5
9DCB9
331
9DC1B
  5
9DC52
331
9DC23
  5
9DC5A
331
9EBD3
  5
9ED9E
331
9EDA2
  5
9EDDB
331
9E564
  5
9E59D
331
9EF59
  5
9EF92
331
9F1F6
  5
9F3D7
331
9F4ED
  5
9F530
331
9EF61
  5
9EF9A
331
9F040
  5
9F07E
331
9EDAA
  5
9EDE3
331
9F197
  5
9F1D1
331
9F19F
  5
9F1DA
331
9EF69
  5
9EFA2
331
9F4F5
  5
9F53A
331
9ED6B
  5
9EDA4
331
9EDB2
  5
9EDEB
331
9EDBA
  5
9EDF3
331
9EFD1
  5
9F00B
331
9ED73
  5
9EDAC
331
9F050
  5
9F08A
331
9F1BF
  5
9F201
331
9F4C6
  5
9F502
331
A11F5
  5
A11F6
331
A11BE
  5
A11BF
331
A11FD
  5
A11FE
331
A1205
  5
A1206
331
A11C6
  5
A11C7
331
A11CE
  5
A11CF
331
9E271
  5
9E2A9
331
9DC4B
  5
9DC83
331
9E279
  5
9E2B1
331
9DC53
  5
9DC8B
331
9DC04
  5
9DC3B
331
9E3D9
  5
9E427
331
9DC73
  5
9DCAA
331
9E142
  5
9E17A
331
9F058
  5
9F092
331
9ED7B
  5
9EDB4
331
9EFD9
  5
9F013
331
9F4CE
  5
9F50A
331
9EFE1
  5
9F06C
331
9ED83
  5
9EDBC
331
9EDD2
  5
9EE0B
331
9F1C7
  5
9F20B
331
9EBBC
  5
9EBF5
331
9F4D6
  5
9F518
331
9F160
  5
9F1B0
331
9EBC4
  5
9EBFD
331
9ED9B
  5
9EDD4
331
9EDDA
  5
9EE13
331
9EBCC
  5
9EC05
331
9F4DE
  5
9F520
331
9F4E6
  5
9F528
331
A11DE
  5
A11DF
331
A11E6
  5
A11E7
331
A11EE
  5
A11EF
331
9E3F1
  5
9E434
331
9DC14
  5
9DC4B
331
9DC7B
  5
9DCB2
331
9DC1C
  5
9DC53
331
9E3F9
  5
9E43E
331
9E232
  5
9E26E
331
9DC2C
  5
9DC64
331
9EDA3
  5
9EDDC
331
9E565
  5
9E59E
331
9EF5A
  5
9EF93
331
9F4EE
  5
9F531
331
9F198
  5
9F1D2
331
9EDAB
  5
9EDE4
331
9EF62
  5
9EF9B
331
9F041
  5
9F07F
331
9F4F6
  5
9F53B
331
9F1A0
  5
9F1DB
331
9ED6C
  5
9EDA5
331
9EDB3
  5
9EDEC
331
9E7D5
  5
9E80E
331
9EF6A
  5
9EFA3
331
9F32F
  5
9F3D8
331
9F4FE
  5
9F548
331
9EFD2
  5
9F00C
331
9ED74
  5
9EDAD
331
9F051
  5
9F08B
331
9F1B8
  5
9F1FA
331
9F4C7
  5
9F503
331
9F506
  5
9F549
331
A11F6
  5
A11F7
331
A11BF
  5
A11C0
331
A11FE
  5
A11FF
331
A11C7
  5
A11C8
331
A1206
  5
A1216
331
A11CF
  5
A11D0
331
9DC4C
  5
9DC84
331
9DCE3
  5
9DD1A
331
9DBF5
  5
9DC2C
331
9E272
  5
9E2B0
331
9E27A
  5
9E2B2
331
9DC54
  5
9DC8C
331
9DC05
  5
9DC3C
331
9DC5C
  5
9DC93
331
9E143
  5
9E17C
331
8A8E8
  5
8B044
331
9DC74
  5
9DCAB
331
9F1C0
  5
9F202
331
9EFDA
  5
9F014
331
9ED7C
  5
9EDB5
331
9F059
  5
9F093
331
9EDD3
  5
9EE0C
331
9EFE2
  5
9F06D
331
9F4CF
  5
9F50B
331
9EBBD
  5
9EBF6
331
9ED84
  5
9EDBD
331
9F161
  5
9F1B1
331
9ED9C
  5
9EDD5
331
9EDDB
  5
9EE14
331
9F1D0
  5
9F214
331
9F4D7
  5
9F519
331
9F4DF
  5
9F521
331
9EBCD
  5
9EC06
331
9F4E7
  5
9F529
331
A11D7
  5
A11D8
331
A11DF
  5
A11E0
331
A11E7
  5
A11E8
331
A11EF
  5
A11F0
  0
LAYOUT
  5
20
102
{ACAD_REACTORS
330
1E
102
}
330
1E
100
AcDbPlotSettings
  1

  2
none_device
  4
ISO_A4_(210.00_x_297.00_MM)
  6

 40
7.5
 41
20.0
 42
7.5
 43
20.0
 44
210.0
 45
297.0
 46
0.0
 47
0.0
 48
0.0
 49
0.0
140
0.0
141
0.0
142
1.0
143
1.0
 70
 11264
 72
     1
 73
     1
 74
     0
  7

 75
     0
147
1.0
 76
     0
 77
     2
 78
   300
148
916.8712341080579
149
627.2450171497188
100
AcDbLayout
  1
Model
 70
     0
 71
     0
 10
0.0
 20
0.0
 11
0.0
 21
0.0
 12
0.0
 22
0.0
 32
0.0
 14
0.0
 24
0.0
 34
0.0
 15
0.0
 25
0.0
 35
0.0
146
0.0
 13
0.0
 23
0.0
 33
0.0
 16
0.0
 26
0.0
 36
0.0
 17
0.0
 27
0.0
 37
0.0
 76
     0
330
A
331
15
1001
ACAD_PSEXT
1000
なし
1000
なし
1000
適切ではありません
1000
新しいプロッタ環境設定名を選択しない限り、レイアウトは印刷されません。
1070
     0
  0
LAYOUT
  5
A12F4
102
{ACAD_XDICTIONARY
360
A1301
102
}
102
{ACAD_REACTORS
330
1E
102
}
330
1E
100
AcDbPlotSettings
  1

  2
none_device
  4
ISO_A4_(210.00_x_297.00_MM)
  6

 40
7.5
 41
20.0
 42
7.5
 43
20.0
 44
210.0
 45
297.0
 46
0.0
 47
0.0
 48
0.0
 49
0.0
140
0.0
141
0.0
142
1.0
143
1.0
 70
   688
 72
     1
 73
     1
 74
     5
  7

 75
    16
147
1.0
 76
     0
 77
     2
 78
   300
148
0.0
149
0.0
100
AcDbLayout
  1
レイアウト1
 70
     1
 71
     1
 10
-20.0
 20
-7.5
 11
277.0
 21
202.5
 12
0.0
 22
0.0
 32
0.0
 14
25.69999999999999
 24
19.5
 34
0.0
 15
231.3
 25
175.5
 35
0.0
146
0.0
 13
0.0
 23
0.0
 33
0.0
 16
1.0
 26
0.0
 36
0.0
 17
0.0
 27
1.0
 37
0.0
 76
     0
330
A12F3
331
A12FA
1001
ACAD_PSEXT
1000
なし
1000
なし
1000
適切ではありません
1000
新しいプロッタ環境設定名を選択しない限り、レイアウトは印刷されません。
1070
     0
  0
MATERIAL
  5
96F
102
{ACAD_REACTORS
330
96D
102
}
330
96D
100
AcDbMaterial
  1
ByBlock
  0
MATERIAL
  5
96E
102
{ACAD_REACTORS
330
96D
102
}
330
96D
100
AcDbMaterial
  1
ByLayer
  0
MATERIAL
  5
970
102
{ACAD_REACTORS
330
96D
102
}
330
96D
100
AcDbMaterial
  1
Global
  0
MLINESTYLE
  5
1C
102
{ACAD_REACTORS
330
1B
102
}
330
1B
100
AcDbMlineStyle
  2
STANDARD
 70
     0
  3

 62
     0
 51
90.0
 52
90.0
 71
     2
 49
0.5
 62
   256
  6
BYLAYER
 49
-0.5
 62
   256
  6
BYLAYER
  0
ACDBPLACEHOLDER
  5
1D
102
{ACAD_REACTORS
330
1F
102
}
330
1F
  0
TABLESTYLE
  5
984
102
{ACAD_REACTORS
330
983
102
}
330
983
100
AcDbTableStyle
  3
Standard
 70
     0
 71
     0
 40
1.5
 41
1.5
280
     0
281
     0
  7
Standard
140
4.5
170
     2
 62
     0
 63
     7
283
     0
 90
      512
 91
        0
  1

274
    -2
284
     1
 64
     0
275
    -2
285
     1
 65
     0
276
    -2
286
     1
 66
     0
277
    -2
287
     1
 67
     0
278
    -2
288
     1
 68
     0
279
    -2
289
     1
 69
     0
  7
Standard
140
6.0
170
     5
 62
     0
 63
     7
283
     0
 90
      512
 91
        0
  1

274
    -2
284
     1
 64
     0
275
    -2
285
     1
 65
     0
276
    -2
286
     1
 66
     0
277
    -2
287
     1
 67
     0
278
    -2
288
     1
 68
     0
279
    -2
289
     1
 69
     0
  7
Standard
140
4.5
170
     5
 62
     0
 63
     7
283
     0
 90
      512
 91
        0
  1

274
    -2
284
     1
 64
     0
275
    -2
285
     1
 65
     0
276
    -2
286
     1
 66
     0
277
    -2
287
     1
 67
     0
278
    -2
288
     1
 68
     0
279
    -2
289
     1
 69
     0
  0
VISUALSTYLE
  5
977
102
{ACAD_REACTORS
330
971
102
}
330
971
100
AcDbVisualStyle
  2
2dWireframe
 70
     4
 71
     0
 72
     2
 73
     0
 90
        0
 40
-0.6
 41
-30.0
 62
     5
 63
     7
421
 16777215
 74
     1
 91
        4
 64
     7
 65
   257
 75
     1
175
     1
 42
1.0
 92
        0
 66
   257
 43
1.0
 76
     1
 77
     6
 78
     2
 67
     7
 79
     5
170
     0
171
     0
290
     0
174
     0
 93
        1
 44
0.0
173
     0
291
     0
 45
0.0
  0
VISUALSTYLE
  5
978
102
{ACAD_REACTORS
330
971
102
}
330
971
100
AcDbVisualStyle
  2
3dWireframe
 70
     5
 71
     0
 72
     2
 73
     0
 90
        0
 40
-0.6
 41
-30.0
 62
     5
 63
     7
421
 16777215
 74
     1
 91
        4
 64
     7
 65
   257
 75
     1
175
     1
 42
1.0
 92
        0
 66
   257
 43
1.0
 76
     1
 77
     6
 78
     2
 67
     7
 79
     5
170
     0
171
     0
290
     0
174
     0
 93
        1
 44
0.0
173
     0
291
     0
 45
0.0
  0
VISUALSTYLE
  5
976
102
{ACAD_REACTORS
330
971
102
}
330
971
100
AcDbVisualStyle
  2
Basic
 70
     7
 71
     1
 72
     0
 73
     1
 90
        0
 40
-0.6
 41
-30.0
 62
     5
 63
     7
421
 16777215
 74
     0
 91
        4
 64
     7
 65
   257
 75
     1
175
     1
 42
1.0
 92
        8
 66
     7
 43
1.0
 76
     1
 77
     6
 78
     2
 67
     7
 79
     5
170
     0
171
     0
290
     0
174
     0
 93
        1
 44
0.0
173
     0
291
     1
 45
0.0
  0
VISUALSTYLE
  5
97D
102
{ACAD_REACTORS
330
971
102
}
330
971
100
AcDbVisualStyle
  2
Brighten
 70
    12
 71
     2
 72
     2
 73
     0
 90
        0
 40
-0.6
 41
-30.0
 62
     5
 63
     7
421
 16777215
 74
     1
 91
        4
 64
     7
 65
   257
 75
     1
175
     1
 42
1.0
 92
        8
 66
     7
 43
1.0
 76
     1
 77
     6
 78
     2
 67
     7
 79
     5
170
     0
171
     0
290
     0
174
     0
 93
        1
 44
50.0
173
     0
291
     1
 45
0.0
  0
VISUALSTYLE
  5
981
102
{ACAD_REACTORS
330
971
102
}
330
971
100
AcDbVisualStyle
  2
ColorChange
 70
    16
 71
     2
 72
     2
 73
     3
 90
        0
 40
-0.6
 41
-30.0
 62
     5
 63
     8
421
  8421504
 74
     1
 91
        4
 64
     7
 65
   257
 75
     1
175
     1
 42
1.0
 92
        8
 66
     8
424
  8421504
 43
1.0
 76
     1
 77
     6
 78
     2
 67
     7
 79
     5
170
     0
171
     0
290
     0
174
     0
 93
        1
 44
0.0
173
     0
291
     1
 45
0.0
  0
VISUALSTYLE
  5
97C
102
{ACAD_REACTORS
330
971
102
}
330
971
100
AcDbVisualStyle
  2
Dim
 70
    11
 71
     2
 72
     2
 73
     0
 90
        0
 40
-0.6
 41
-30.0
 62
     5
 63
     7
421
 16777215
 74
     1
 91
        4
 64
     7
 65
   257
 75
     1
175
     1
 42
1.0
 92
        8
 66
     7
 43
1.0
 76
     1
 77
     6
 78
     2
 67
     7
 79
     5
170
     0
171
     0
290
     0
174
     0
 93
        1
 44
-50.0
173
     0
291
     1
 45
0.0
  0
VISUALSTYLE
  5
980
102
{ACAD_REACTORS
330
971
102
}
330
971
100
AcDbVisualStyle
  2
Facepattern
 70
    15
 71
     2
 72
     2
 73
     0
 90
        0
 40
-0.6
 41
-30.0
 62
     5
 63
     7
421
 16777215
 74
     1
 91
        4
 64
     7
 65
   257
 75
     1
175
     1
 42
1.0
 92
        8
 66
     7
 43
1.0
 76
     1
 77
     6
 78
     2
 67
     7
 79
     5
170
     0
171
     0
290
     0
174
     0
 93
        1
 44
0.0
173
     0
291
     1
 45
0.0
  0
VISUALSTYLE
  5
972
102
{ACAD_REACTORS
330
971
102
}
330
971
100
AcDbVisualStyle
  2
Flat
 70
     0
 71
     2
 72
     1
 73
     1
 90
        2
 40
-0.6
 41
30.0
 62
     5
 63
     7
421
 16777215
 74
     0
 91
        4
 64
     7
 65
   257
 75
     1
175
     1
 42
1.0
 92
        8
 66
     7
 43
1.0
 76
     1
 77
     6
 78
     2
 67
     7
 79
     5
170
     0
171
     0
290
     0
174
     0
 93
       13
 44
0.0
173
     0
291
     1
 45
0.0
  0
VISUALSTYLE
  5
973
102
{ACAD_REACTORS
330
971
102
}
330
971
100
AcDbVisualStyle
  2
FlatWithEdges
 70
     1
 71
     2
 72
     1
 73
     1
 90
        2
 40
-0.6
 41
30.0
 62
     5
 63
     7
421
 16777215
 74
     1
 91
        4
 64
     7
 65
   257
 75
     1
175
     1
 42
1.0
 92
        0
 66
   257
 43
1.0
 76
     1
 77
     6
 78
     2
 67
     7
 79
     5
170
     0
171
     0
290
     0
174
     0
 93
       13
 44
0.0
173
     0
291
     1
 45
0.0
  0
VISUALSTYLE
  5
974
102
{ACAD_REACTORS
330
971
102
}
330
971
100
AcDbVisualStyle
  2
Gouraud
 70
     2
 71
     2
 72
     2
 73
     1
 90
        2
 40
-0.6
 41
30.0
 62
     5
 63
     7
421
 16777215
 74
     0
 91
        4
 64
     7
 65
   257
 75
     1
175
     1
 42
1.0
 92
        0
 66
     7
 43
1.0
 76
     1
 77
     6
 78
     2
 67
     7
 79
     5
170
     0
171
     0
290
     0
174
     0
 93
       13
 44
0.0
173
     0
291
     1
 45
0.0
  0
VISUALSTYLE
  5
975
102
{ACAD_REACTORS
330
971
102
}
330
971
100
AcDbVisualStyle
  2
GouraudWithEdges
 70
     3
 71
     2
 72
     2
 73
     1
 90
        2
 40
-0.6
 41
30.0
 62
     5
 63
     7
421
 16777215
 74
     1
 91
        4
 64
     7
 65
   257
 75
     1
175
     1
 42
1.0
 92
        0
 66
   257
 43
1.0
 76
     1
 77
     6
 78
     2
 67
     7
 79
     5
170
     0
171
     0
290
     0
174
     0
 93
       13
 44
0.0
173
     0
291
     1
 45
0.0
  0
VISUALSTYLE
  5
97F
102
{ACAD_REACTORS
330
971
102
}
330
971
100
AcDbVisualStyle
  2
Linepattern
 70
    14
 71
     2
 72
     2
 73
     0
 90
        0
 40
-0.6
 41
-30.0
 62
     5
 63
     7
421
 16777215
 74
     1
 91
        4
 64
     7
 65
   257
 75
     7
175
     7
 42
1.0
 92
        8
 66
     7
 43
1.0
 76
     1
 77
     6
 78
     2
 67
     7
 79
     5
170
     0
171
     0
290
     0
174
     0
 93
        1
 44
0.0
173
     0
291
     1
 45
0.0
  0
VISUALSTYLE
  5
97B
102
{ACAD_REACTORS
330
971
102
}
330
971
100
AcDbVisualStyle
  2
Realistic
 70
     8
 71
     2
 72
     2
 73
     0
 90
        0
 40
-0.6
 41
-30.0
 62
     5
 63
     7
421
 16777215
 74
     1
 91
        0
 64
     7
 65
   257
 75
     1
175
     1
 42
1.0
 92
        8
 66
     8
424
  7895160
 43
1.0
 76
     1
 77
     6
 78
     2
 67
     7
 79
     5
170
     0
171
     0
290
     0
174
     0
 93
       13
 44
0.0
173
     0
291
     0
 45
0.0
  0
VISUALSTYLE
  5
97E
102
{ACAD_REACTORS
330
971
102
}
330
971
100
AcDbVisualStyle
  2
Thicken
 70
    13
 71
     2
 72
     2
 73
     0
 90
        0
 40
-0.6
 41
-30.0
 62
     5
 63
     7
421
 16777215
 74
     1
 91
        4
 64
     7
 65
   257
 75
     1
175
     1
 42
1.0
 92
       12
 66
     7
 43
1.0
 76
     1
 77
     6
 78
     2
 67
     7
 79
     5
170
     0
171
     0
290
     0
174
     0
 93
        1
 44
0.0
173
     0
291
     1
 45
0.0
  0
DICTIONARYVAR
  5
98F
102
{ACAD_REACTORS
330
98E
102
}
330
98E
100
DictionaryVariables
280
     0
  1
STANDARD
  0
DICTIONARYVAR
  5
1108F
102
{ACAD_REACTORS
330
98E
102
}
330
98E
100
DictionaryVariables
280
     0
  1
4
  0
XRECORD
  5
A1319
102
{ACAD_REACTORS
330
A1318
102
}
330
A1318
100
AcDbXrecord
280
     1
  0
DICTIONARY
  5
A1301
330
A12F4
100
AcDbDictionary
280
     1
281
     1
  3
ADSK_XREC_LAYOUTTHUMBNAIL
360
A1302
  0
XRECORD
  5
A1302
102
{ACAD_REACTORS
330
A1301
102
}
330
A1301
100
AcDbXrecord
280
     1
310
28000000B40000007F00000001000800000000004C59000000000000000000000001000000000000FFFFFF0000000000FFFFFF000000000000000000000000000000000000000000000000000000000000000000330000006600000099000000CC000000FF00000000330000333300006633000099330000CC330000FF3300
310
0000660000336600006666000099660000CC660000FF66000000990000339900006699000099990000CC990000FF99000000CC000033CC000066CC000099CC0000CCCC0000FFCC000000FF000033FF000066FF000099FF0000CCFF0000FFFF000000003300330033006600330099003300CC003300FF003300003333003333
310
33006633330099333300CC333300FF33330000663300336633006666330099663300CC663300FF66330000993300339933006699330099993300CC993300FF99330000CC330033CC330066CC330099CC3300CCCC3300FFCC330000FF330033FF330066FF330099FF3300CCFF3300FFFF330000006600330066006600660099
310
006600CC006600FF00660000336600333366006633660099336600CC336600FF33660000666600336666006666660099666600CC666600FF66660000996600339966006699660099996600CC996600FF99660000CC660033CC660066CC660099CC6600CCCC6600FFCC660000FF660033FF660066FF660099FF6600CCFF6600
310
FFFF660000009900330099006600990099009900CC009900FF00990000339900333399006633990099339900CC339900FF33990000669900336699006666990099669900CC669900FF66990000999900339999006699990099999900CC999900FF99990000CC990033CC990066CC990099CC9900CCCC9900FFCC990000FF99
310
0033FF990066FF990099FF9900CCFF9900FFFF99000000CC003300CC006600CC009900CC00CC00CC00FF00CC000033CC003333CC006633CC009933CC00CC33CC00FF33CC000066CC003366CC006666CC009966CC00CC66CC00FF66CC000099CC003399CC006699CC009999CC00CC99CC00FF99CC0000CCCC0033CCCC0066CC
310
CC0099CCCC00CCCCCC00FFCCCC0000FFCC0033FFCC0066FFCC0099FFCC00CCFFCC00FFFFCC000000FF003300FF006600FF009900FF00CC00FF00FF00FF000033FF003333FF006633FF009933FF00CC33FF00FF33FF000066FF003366FF006666FF009966FF00CC66FF00FF66FF000099FF003399FF006699FF009999FF00CC
310
99FF00FF99FF0000CCFF0033CCFF0066CCFF0099CCFF00CCCCFF00FFCCFF0000FFFF0033FFFF0066FFFF0099FFFF00CCFFFF00FFFFFF00000000000D0D0D001A1A1A00282828003535350043434300505050005D5D5D006B6B6B00787878008686860093939300A1A1A100AEAEAE00BBBBBB00C9C9C900D6D6D600E4E4E400
310
F1F1F100FFFFFF0000000000000000000000000000000000000000000000000000000000000000000000000000000000E2E2E2E2E2E2E2E2E2E2E2E2E2E2E2E2E2E2E2E2E2E2E2E2E2E2E2E2E2E2E2E2E2E2E2E2E2E2E2E2E2E2E2E2E2E2E2E2E2E2E2E2E2E2E2E2E2E2E2E2E2E2E2E2E2E2E2E2E2E2E2E2E2E2E2E2E2E2E2
310
E2E2E2E2E2E2E2E2E2E2E2E2E2E2E2E2E2E2E2E2E2E2E2E2E2E2E2E2E2E2E2E2E2E2E2E2E2E2E2E2E2E2E2E2E2E2E2E2E2E2E2E2E2E2E2E2E2E2E2E2E2E2E2E2E2E2E2E2E2E2E2E2E2E2E2E2E2E2E2E2E2E2E2E2E2E2E2E2E2E2E2E2E2E2E2E2E2E2E2E2E2E2F5F5F5F5F5F5F5F5F5F5F5F5F5F5F5F5F5F5F5F5F5F5F5F5F5
310
F5F5F5F5F5F5F5F5F5F5F5F5F5F5F5F5F5F5F5F5F5F5F5F5F5F5F5F5F5F5F5F5F5F5F5F5F5F5F5F5F5F5F5F5F5F5F5F5F5F5F5F5F5F5F5F5F5F5F5F5F5F5F5F5F5F5F5F5F5F5F5F5F5F5F5F5F5F5F5F5F5F5F5F5F5F5F5F5F5F5F5F5F5F5F5F5F5F5F5F5F5F5F5F5F5F5F5F5F5F5F5F5F5F5F5F5F5F5F5F5F5F5F5F5F5F5F5
310
F5F5F5F5F5F5F5F5F5F5F5F5F5F5F5F5F5F5F5F5F5F5F5F5F5F5E2E2F5F5F5F5F5F5F5F5F5F5F5F5F5F5F5F5F5F5F5F5F5F5F5F5F5F5F5F5F5F5F5F5F5F5F5F5F5F5F5F5F5F5F5F5F5F5F5F5F5F5F5F5F5F5F5F5F5F5F5F5F5F5F5F5F5F5F5F5F5F5F5F5F5F5F5F5F5F5F5F5F5F5F5F5F5F5F5F5F5F5F5F5F5F5F5F5F5F5F5
310
F5F5F5F5F5F5F5F5F5F5F5F5F5F5F5F5F5F5F5F5F5F5F5F5F5F5F5F5F5F5F5F5F5F5F5F5F5F5F5F5F5F5F5F5F5F5F5F5F5F5F5F5F5F5F5F5F5F5F5F5F5F5F5F5F5F5F5F5F5F5F5F5F5F5F5F5F5F5F5E2E2F5F5F5F5F5F5F5F5F5F5F5F5F5F5F5F5F5F5F5F5F5F5F5F5F5F5F5F5F5F5F5F5F5F5F5F5F5F5F5F5F5F5F5F5F5F5
310
F5F5F5F5F5F5F5F5F5F5F5F5F5F5F5F5F5F5F5F5F5F5F5F5F5F5F5F5F5F5F5F5F5F5F5F5F5F5F5F5F5F5F5F5F5F5F5F5F5F5F5F5F5F5F5F5F5F5F5F5F5F5F5F5F5F5F5F5F5F5F5F5F5F5F5F5F5F5F5F5F5F5F5F5F5F5F5F5F5F5F5F5F5F5F5F5F5F5F5F5F5F5F5F5F5F5F5F5F5F5F5F5F5F5F5F5F5F5F5F5F5F5F5F5F5F5F5
310
F5F5F5F5F5E2E2F5F5F5F5F5F5F5F5F5F5F5F5F5F5F5F5F5F5F5F5F5F5F5F5F5F5F5F5F5F5F5F5F5F5F5F5F5F5F5F5F5F5F5F5F5F5F5F5F5F5F5F5F5F5F5F5F5F5F5F5F5F5F5F5F5F5F5F5F5F5F5F5F5F5F5F5F5F5F5F5F5F5F5F5F5F5F5F5F5F5F5F5F5F5F5F5F5F5F5F5F5F5F5F5F5F5F5F5F5F5F5F5F5F5F5F5F5F5F5F5
310
F5F5F5F5F5F5F5F5F5F5F5F5F5F5F5F5F5F5F5F5F5F5F5F5F5F5F5F5F5F5F5F5F5F5F5F5F5F5F5F5F5F5F5F5F5F5F5F5F5F5F5F5F5F5F5F5F5F5E2E2F5F5F5F5F5F5F5F5F5F5F5E2E2E2E2E2E2E2E2E2F5F5F5F5F5F5F5F5F5E2E2E2E2E2E2E2E2E2E2E2E2E2E2E2E2E2F5F5F5F5F5F5F5F5F5E2E2E2E2E2E2E2E2E2E2E2E2
310
E2E2E2E2F5F5F5F5F5F5F5F5F5F5E2E2E2E2E2E2E2E2E2E2E2E2E2E2E2E2F5F5F5F5F5F5F5F5F5F5E2E2E2E2E2E2E2E2E2E2E2E2E2E2E2E2F5F5F5F5F5F5F5F5F5E2E2E2E2E2E2E2E2E2E2E2E2E2E2E2E2E2F5F5F5F5F5F5F5F5F5E2E2E2E2E2E2E2E2E2F5F5F5F5F5F5F5F5F5F5F5E2E2F5F5F5F5F5F5F5F5F5F5F5E2F5F5
310
F5F5F5F5F5F5F5F5F5F5F5F5F5F5F5F5F5F5F5F5F5F5F5F5F5F5F5F5F5F5F5F5F5F5F5F5F5F5F5F5F5F5F5F5F5F5F5F5F5F5F5F5F5F5F5F5F5F5F5F5F5F5F5F5F5F5F5F5F5F5F5F5F5F5F5F5F5F5F5F5F5F5F5F5F5F5F5F5F5F5F5F5F5F5F5F5F5F5F5F5F5F5F5F5F5F5F5F5F5F5F5F5F5F5F5F5F5F5F5F5F5F5F5F5F5F5F5
310
F5F5F5F5F5F5F5F5F5F5F5F5F5F5F5F5F5F5F5F5F5F5F5F5F5E2F5F5F5F5F5F5F5F5F5F5F5E2E2F5F5F5F5F5F5F5F5F5F5F5E2F5F5F5F5F5F5F5F5F5F5F5F5F5F5F5F5F5F5F5F5F5F5F5F5F5F5F5F5F5F5F5F5F5F5F5F5F5F5F5F5F5F5F5F5F5F5F5F5F5F5F5F5F5F5F5F5F5F5F5F5F5F5F5F5F5F5F5F5F5F5F5F5F5F5F5F5
310
F5F5F5F5F5F5F5F5F5F5F5F5F5F5F5F5F5F5F5F5F5F5F5F5F5F5F5F5F5F5F5F5F5F5F5F5F5F5F5F5F5F5F5F5F5F5F5F5F5F5F5F5F5F5F5F5F5F5F5F5F5F5F5F5F5F5F5F5F5F5F5F5F5F5F5F5F5F5E2F5F5F5F5F5F5F5F5F5F5F5E2E2F5F5F5F5F5F5F5F5F5F5F5E2F5F5F5F5F5F5F5F5F5F5F5F5F5F5F5F5F5F5F5F5F5F5F5
310
F5F5F5F5F5F5F5F5F5F5F5F5F5F5F5F5F5F5F5F5F5F5F5F5F5F5F5F5F5F5F5F5F5F5F5F5F5F5F5F5F5F5F5F5F5F5F5F5F5F5F5F5F5F5F5F5F5F5F5F5F5F5F5F5F5F5F5F5F5F5F5F5F5F5F5F5F5F5F5F5F5F5F5F5F5F5F5F5F5F5F5F5F5F5F5F5F5F5F5F5F5F5F5F5F5F5F5F5F5F5F5F5F5F5F5F5F5F5F5F5F5F5F5F5F5F5F5
310
F5F5F5F5E2F5F5F5F5F5F5F5F5F5F5F5E2E2F5F5F5F5F5F5F5F5F5F5F5E2F5F5F5F5F5F5F5F5F5F5F5F5F5F5F5F5F5F5F5F5F5F5F5F5F5F5F5F5F5F5F5F5F5F5F5F5F5F5F5F5F5F5F5F5F5F5F5F5F5F5F5F5F5F5F5F5F5F5F5F5F5F5F5F5F5F5F5F5F5F5F5F5F5F5F5F5F5F5F5F5F5F5F5F5F5F5F5F5F5F5F5F5F5F5F5F5F5
310
F5F5F5F5F5F5F5F5F5F5F5F5F5F5F5F5F5F5F5F5F5F5F5F5F5F5F5F5F5F5F5F5F5F5F5F5F5F5F5F5F5F5F5F5F5F5F5F5F5F5F5F5F5F5F5F5F5E2F5F5F5F5F5F5F5F5F5F5F5E2E2F5F5F5F5F5F5F5F5F5F5F5E2F5F5F5F5F5F5F5F5F5F5F5F5F5F5F5F5F5F5F5F5F5F5F5F5F5F5F5F5F5F5F5F5F5F5F5F5F5F5F5F5F5F5F5F5
310
F5F5F5F5F5F5F5F5F5F5F5F5F5F5F5F5F5F5F5F5F5F5F5F5F5F5F5F5F5F5F5F5F5F5F5F5F5F5F5F5F5F5F5F5F5F5F5F5F5F5F5F5F5F5F5F5F5F5F5F5F5F5F5F5F5F5F5F5F5F5F5F5F5F5F5F5F5F5F5F5F5F5F5F5F5F5F5F5F5F5F5F5F5F5F5F5F5F5F5F5F5F5F5F5F5F5F5F5F5F5E2F5F5F5F5F5F5F5F5F5F5F5E2E2F5F5F5
310
F5F5F5F5F5F5F5F5E2F5F5F5F5F5F5F5F5F5F5F5F5F5F5F5F5F5F5F5F5F5F5F5F5F5F5F5F5F5F5F5F5F5F5F5F5F5F5F5F5F5F5F5F5F5F5F5F5F5F5F5F5F5F5F5F5F5F5F5F5F5F5F5F5F5F5F5F5F5F5F5F5F5F5F5F5F5F5F5F5F5F5F5F5F5F5F5F5F5F5F5F5F5F5F5F5F5F5F5F5F5F5F5F5F5F5F5F5F5F5F5F5F5F5F5F5F5F5
310
F5F5F5F5F5F5F5F5F5F5F5F5F5F5F5F5F5F5F5F5F5F5F5F5F5F5F5F5F5F5F5F5F5F5F5F5E2F5F5F5F5F5F5F5F5F5F5F5E2E2F5F5F5F5F5F5F5F5F5F5F5E2F5F5F5F5F5F5F5F5F5F5F5F5F5F5F5F5F5F5F5F5F5F5F5F5F5F5F5F5F5F5F5F5F5F5F5F5F5F5F5F5F5F5F5F5F5F5F5F5F5F5F5F5F5F5F5F5F5F5F5F5F5F5F5F5F5
310
F5F5F5F5F5F5F5F5F5F5F5F5F5F5F5F5F5F5F5F5F5F5F5F5F5F5F5F5F5F5F5F5F5F5F5F5F5F5F5F5F5F5F5F5F5F5F5F5F5F5F5F5F5F5F5F5F5F5F5F5F5F5F5F5F5F5F5F5F5F5F5F5F5F5F5F5F5F5F5F5F5F5F5F5F5F5F5F5F5E2F5F5F5F5F5F5F5F5F5F5F5E2E2F5F5F5F5F5F5F5F5F5F5F5F5F5F5F5F5F5F5F5F5F5F5F5F5
310
F5F5F5F5F5F5F5F5F5F5F5F5F5F5F5F5F5F5F5F5F5F5F5F5F5F5F5F5F5F5F5F5F5F5F5F5F5F5F5F5F5F5F5F5F5F5F5F5F5F5F5F5F5F5F5F5F5F5F5F5F5F5F5F5F5F5F5F5F5F5F5F5F5F5F5F5F5F5F5F5F5F5F5F5F5F5F5F5F5F5F5F5F5F5F5F5F5F5F5F5F5F5F5F5F5F5F5F5F5F5F5F5F5F5F5F5F5F5F5F5F5F5F5F5F5F5F5
310
F5F5F5F5F5F5F5F5F5F5F5F5F5F5F5F5F5F5F5F5F5F5F5F5F5F5F5E2E2F5F5F5F5F5F5F5F5F5F5F5F5F5F5F5F5F5F5F5F5F5F5F5F5F5F5F5F5F5F5F5F5F5F5F5F5F5F5F5F5F5F5F5F5F5F5F5F5F5F5F5F5F5F5F5F5F5F5F5F5F5F5F5F5F5F5F5F5F5F5F5F5F5F5F5F5F5F5F5F5F5F5F5F5F5F5F5F5F5F5F5F5F5F5F5F5F5F5
310
F5F5F5F5F5F5F5F5F5F5F5F5F5F5F5F5F5F5F5F5F5F5F5F5F5F5F5F5F5F5F5F5F5F5F5F5F5F5F5F5F5F5F5F5F5F5F5F5F5F5F5F5F5F5F5F5F5F5F5F5F5F5F5F5F5F5F5F5F5F5F5F5F5F5F5F5F5F5F5F5E2E2F5F5F5F5F5F5F5F5F5F5F5F5F5F5F5F5F5F5F5F5F5F5F5F5F5F5F5F5F5F5F5F5F5F5F5F5F5F5F5F5F5F5F5F5F5
310
F5F5F5F5F5F5F5F5F5F5F5F5F5F5F5F5F5F5F5F5F5F5F5F5F5F5F5F5F5F5F5F5F5F5F5F5F5F5F5F5F5F5F5F5F5F5F5F5F5F5F5F5F5F5F5F5F5F5F5F5F5F5F5F5F5F5F5F5F5F5F5F5F5F5F5F5F5F5F5F5F5F5F5F5F5F5F5F5F5F5F5F5F5F5F5F5F5F5F5F5F5F5F5F5F5F5F5F5F5F5F5F5F5F5F5F5F5F5F5F5F5F5F5F5F5F5F5
310
F5F5F5F5F5F5E2E2F5F5F5F5F5F5F5F5F5F5F5F5F5F5F5F5F5F5F5F5F5F5F5F5F5F5F5F5F5F5F5F5F5F5F5F5F5F5F5F5F5F5F5F5F5F5F5F5F5F5F5F5F5F5F5F5F5F5F5F5F5F5F5F5F5F5F5F5F5F5F5F5F5F5F5F5F5F5F5F5F5F5F5F5F5F5F5F5F5F5F5F5F5F5F5F5F5F5F5F5F5F5F5F5F5F5F5F5F5F5F5F5F5F5F5F5F5F5F5
310
F5F5F5F5F5F5F5F5F5F5F5F5F5F5F5F5F5F5F5F5F5F5F5F5F5F5F5F5F5F5F5F5F5F5F5F5F5F5F5F5F5F5F5F5F5F5F5F5F5F5F5F5F5F5F5F5F5F5F5E2E2F5F5F5F5F5F5F5F5F5F5F5F5F5F5F5F5F5F5F5F5F5F5F5F5F5F5F5F5F5F5F5F5F5F5F5F5F5F5F5F5F5F5F5F5F5F5F5F5F5F5F5F5F5F5F5F5F5F5F5F5F5F5F5F5F5F5
310
F5F5F5F5F5F5F5F5F5F5F5F5F5F5F5F5F5F5F5F5F5F5F5F5F5F5F5F5F5F5F5F5F5F5F5F5F5F5F5F5F5F5F5F5F5F5F5F5F5F5F5F5F5F5F5F5F5F5F5F5F5F5F5F5F5F5F5F5F5F5F5F5F5F5F5F5F5F5F5F5F5F5F5F5F5F5F5F5F5F5F5F5F5F5F5F5F5F5F5F5F5F5F5F5F5F5F5F5F5F5F5F5E2E2F5F5F5F5F5F5F5F5F5F5F5F5F5
310
F5F5F5F5F5F5F5F5F5F5F5F5F5F5F5F5F5F5F5F5F5F5F5F5F5F5F5F5F5F5F5F5F5F5F5F5F5F5F5F5F5F5F5F5F5F5F5F5F5F5F5F5F5F5F5F5F5F5F5F5F5F5F5F5F5F5F5F5F5F5F5F5F5F5F5F5F5F5F5F5F5F5F5F5F5F5F5F5F5F5F5F5F5F5F5F5F5F5F5F5F5F5F5F5F5F5F5F5F5F5F5F5F5F5F5F5F5F5F5F5F5F5F5F5F5F5F5
310
F5F5F5F5F5F5F5F5F5F5F5F5F5F5F5F5F5F5F5F5F5F5F5F5F5F5F5F5F5F5F5F5F5F5F5F5F5F5E2E2F5F5F5F5F5F5F5F5F5F5F5F5F5F5F5F5F5F5F5F5F5F5F5F5F5F5F5F5F5F5F5F5F5F5F5F5F5F5F5F5F5F5F5F5F5F5F5F5F5F5F5F5F5F5F5F5F5F5F5F5F5F5F5F5F5F5F5F5F5F5F5F5F5F5F5F5F5F5F5F5F5F5F5F5F5F5F5
310
F5F5F5F5F5F5F5F5F5F5F5F5F5F5F5F5F5F5F5F5F5F5F5F5F5F5F5F5F5F5F5F5F5F5F5F5F5F5F5F5F5F5F5F5F5F5F5F5F5F5F5F5F5F5F5F5F5F5F5F5F5F5F5F5F5F5F5F5F5F5F5F5F5F5F5F5F5F5F5F5F5F5F5F5F5F5F5F5F5F5F5E2E2F5F5F5F5F5F5F5F5F5F5F5F5F5F5F5F5F5F5F5F5F5F5F5F5F5F5F5F5F5F5F5F5F5F5
310
F5F5F5F5F5F5F5F5F5F5F5F5F5F5F5F5F5F5F5F5F5F5F5F5F5F5F5F5F5F5F5F5F5F5F5F5F5F5F5F5F5F5F5F5F5F5F5F5F5F5F5F5F5F5F5F5F5F5F5F5F5F5F5F5F5F5F5F5F5F5F5F5F5F5F5F5F5F5F5F5F5F5F5F5F5F5F5F5F5F5F5F5F5F5F5F5F5F5F5F5F5F5F5F5F5F5F5F5F5F5F5F5F5F5F5F5F5F5F5F5F5F5F5F5F5F5F5
310
F5F5F5F5F5F5F5F5F5F5F5F5F5F5F5F5F5E2E2F5F5F5F5F5F5F5F5F5F5F5E2F5F5F5F5F5F5F5F5F5F5F5F5F5F5F5F5F5F5F5F5F5F5F5F5F5F5F5F5F5F5F5F5F5F5F5F5F5F5F5F5F5F5F5F5F5F5F5F5F5F5F5F5F5F5F5F5F5F5F5F5F5F5F5F5F5F5F5F5F5F5F5F5F5F5F5F5F5F5F5F5F5F5F5F5F5F5F5F5F5F5F5F5F5F5F5F5
310
F5F5F5F5F5F5F5F5F5F5F5F5F5F5F5F5F5F5F5F5F5F5F5F5F5F5F5F5F5F5F5F5F5F5F5F5F5F5F5F5F5F5F5F5F5F5F5F5F5F5F5F5F5F5F5F5F5F5E2F5F5F5F5F5F5F5F5F5F5F5E2E2F5F5F5F5F5F5F5F5F5F5F5E2F5F5F5F5F5F5F5F5F5F5F5F5F5F5F5F5F5F5F5F5F5F5F5F5F5F5F5F5F5F5F5F5F5F5F5F5F5F5F5F5F5F5F5
310
F5F5F5F5F5F5F5F5F5F5F5F5F5F5F5F5F5F5F5F5F5F5F5F5F5F5F5F5F5F5F5F5F5F5F5F5F5F5F5F5F5F5F5F5F5F5F5F5F5F5F5F5F5F5F5F5F5F5F5F5F5F5F5F5F5F5F5F5F5F5F5F5F5F5F5F5F5F5F5F5F5F5F5F5F5F5F5F5F5F5F5F5F5F5F5F5F5F5F5F5F5F5F5F5F5F5F5F5F5F5F5E2F5F5F5F5F5F5F5F5F5F5F5E2E2F5F5
310
F5F5F5F5F5F5F5F5F5E2F5F5F5F5F5F5F5F5F5F5F5F5F5F5F5F5F5F5F5F5F5F5F5F5F5F5F5F5F5F5F5F5F5F5F5F5F5F5F5F5F5F5F5F5F5F5F5F5F5F5F5F5F5F5F5F5F5F5F5F5F5F5F5F5F5F5F5F5F5F5F5F5F5F5F5F5F5F5F5F5F5F5F5F5F5F5F5F5F5F5F5F5F5F5F5F5F5F5F5F5F5F5F5F5F5F5F5F5F5F5F5F5F5F5F5F5F5
310
F5F5F5F5F5F5F5F5F5F5F5F5F5F5F5F5F5F5F5F5F5F5F5F5F5F5F5F5F5F5F5F5F5F5F5F5F5E2F5F5F5F5F5F5F5F5F5F5F5E2E2F5F5F5F5F5F5F5F5F5F5F5E2F5F5F5F5F5F5F5F5F5F5F5F5F5F5F5F5F5F5F5F5F5F5F5F5F5F5F5F5F5F5F5F5F5F5F5F5F5F5F5F5F5F5F5F5F5F5F5F5F5F5F5F5F5F5F5F5F5F5F5F5F5F5F5F5
310
F5F5F5F5F5F5F5F5F5F5F5F5F5F5F5F5F5F5F5F5F5F5F5F5F5F5F5F5F5F5F5F5F5F5F5F5F5F5F5F5F5F5F5F5F5F5F5F5F5F5F5F5F5F5F5F5F5F5F5F5F5F5F5F5F5F5F5F5F5F5F5F5F5F5F5F5F5F5F5F5F5F5F5F5F5F5F5F5F5F5E2F5F5F5F5F5F5F5F5F5F5F5E2E2F5F5F5F5F5F5F5F5F5F5F5E2F5F5F5F5F5F5F5F5F5F5F5
310
F5F5F5F5F5F5F5F5F5F5F5F5F5F5F5F5F5F5F5F5F5F5F5F5F5F5F5F5F5F5F5F5F5F5F5F5F5F5F5F5F5F5F5F5F5F5F5F5F5F5F5F5F5F5F5F5F5F5F5F5F5F5F5F5F5F5F5F5F5F5F5F5F5F5F5F5F5F5F5F5F5F5F5F5F5F5F5F5F5F5F5F5F5F5F5F5F5F5F5F5F5F5F5F5F5F5F5F5F5F5F5F5F5F5F5F5F5F5F5F5F5F5F5F5F5F5F5
310
F5F5F5F5F5F5F5F5F5F5F5F5F5F5F5F5E2F5F5F5F5F5F5F5F5F5F5F5E2E2F5F5F5F5F5F5F5F5F5F5F5E2F5F5F5F5F5F5F5F5F5F5F5F5F5F5F5F5F5F5F5F5F5F5F5F5F5F5F5F5F5F5F5F5F5F5F5F5F5F5F5F5F5F5F5F5F5F5F5F5F5F5F5F5F5F5F5F5F5F5F5F5F5F5F5F5F5F5F5F5F5F5F5F5F5F5F5F5F5F5F5F5F5F5F5F5F5
310
F5F5F5F5F5F5F5F5F5F5F5F5F5F5F5F5F5F5F5F5F5F5F5F5F5F5F5F5F5F5F5F5F5F5F5F5F5F5F5F5F5F5F5F5F5F5F5F5F5F5F5F5F5F5F5F5F5F5F5F5F5F5F5F5F5F5F5F5F5E2F5F5F5F5F5F5F5F5F5F5F5E2E2F5F5F5F5F5F5F5F5F5F5F5E2F5F5F5F5F5F5F5F5F5F5F5F5F5F5F5F5F5F5F5F5F5F5F5F5F5F5F5F5F5F5F5F5
310
F5F5F5F5F5F5F5F5F5F5F5F5F5F5F5F5F5F5F5F5F5F5F5F5F5F5F5F5F5F5F5F5F5F5F5F5F5F5F5F5F5F5F5F5F5F5F5F5F5F5F5F5F5F5F5F5F5F5F5F5F5F5F5F5F5F5F5F5F5F5F5F5F5F5F5F5F5F5F5F5F5F5F5F5F5F5F5F5F5F5F5F5F5F5F5F5F5F5F5F5F5F5F5F5F5F5F5F5F5F5F5F5F5F5F5F5F5F5F5F5F5F5E2F5F5F5F5
310
F5F5F5F5F5F5F5E2E2F5F5F5F5F5F5F5F5F5F5F5E2F5F5F5F5F5F5F5F5F5F5F5F5F5F5F5F5F5F5F5F5F5F5F5F5F5F5F5F5F5F5F5F5F5F5F5F5F5F5F5F5F5F5F5F5F5F5F5F5F5F5F5F5F5F5F5F5F5F5F5F5F5F5F5F5F5F5F5F5F5F5F5F5F5F5F5F5F5F5F5F5F5F5F5F5F5F5F5F5F5F5F5F5F5F5F5F5F5F5F5F5F5F5F5F5F5F5
310
F5F5F5F5F5F5F5F5F5F5F5F5F5F5F5F5F5F5F5F5F5F5F5F5F5F5F5F5F5F5F5F5F5F5F5F5F5F5F5F5F5F5F5F5F5F5F5F5E2F5F5F5F5F5F5F5F5F5F5F5E2E2F5F5F5F5F5F5F5F5F5F5F5E2F5F5F5F5F5F5F5F5F5F5F5F5F5F5F5F5F5F5F5F5F5F5F5F5F5F5F5F5F5F5F5F5F5F5F5F5F5F5F5F5F5F5F5F5F5F5F5F5F5F5F5F5F5
310
F5F5F5F5F5F5F5F5F5F5F5F5F5F5F5F5F5F5F5F5F5F5F5F5F5F5F5F5F5F5F5F5F5F5F5F5F5F5F5F5F5F5F5F5F5F5F5F5F5F5F5F5F5F5F5F5F5F5F5F5F5F5F5F5F5F5F5F5F5F5F5F5F5F5F5F5F5F5F5F5F5F5F5F5F5F5F5F5F5F5F5F5F5F5F5F5F5F5F5F5F5E2F5F5F5F5F5F5F5F5F5F5F5E2E2F5F5F5F5F5F5F5F5F5F5F5E2
310
F5F5F5F5F5F5F5F5F5F5F5F5F5F5F5F5F5F5F5F5F5F5F5F5F5F5F5F5F5F5F5F5F5F5F5F5F5F5F5F5F5F5F5F5F5F5F5F5F5F5F5F5F5F5F5F5F5F5F5F5F5F5F5F5F5F5F5F5F5F5F5F5F5F5F5F5F5F5F5F5F5F5F5F5F5F5F5F5F5F5F5F5F5F5F5F5F5F5F5F5F5F5F5F5F5F5F5F5F5F5F5F5F5F5F5F5F5F5F5F5F5F5F5F5F5F5F5
310
F5F5F5F5F5F5F5F5F5F5F5F5F5F5F5F5F5F5F5F5F5F5F5F5F5F5F5E2F5F5F5F5F5F5F5F5F5F5F5E2E2F5F5F5F5F5F5F5F5F5F5F5E2F5F5F5F5F5F5F5F5F5F5F5F5F5F5F5F5F5F5F5F5F5F5F5F5F5F5F5F5F5F5F5F5F5F5F5F5F5F5F5F5F5F5F5F5F5F5F5F5F5F5F5F5F5F5F5F5F5F5F5F5F5F5F5F5F5F5F5F5F5F5F5F5F5F5
310
F5F5F5F5F5F5F5F5F5F5F5F5F5F5F5F5F5F5F5F5F5F5F5F5F5F5F5F5F5F5F5F5F5F5F5F5F5F5F5F5F5F5F5F5F5F5F5F5F5F5F5F5F5F5F5F5F5F5F5F5F5F5F5F5F5F5F5F5F5F5F5F5F5F5F5F5F5F5F5F5E2F5F5F5F5F5F5F5F5F5F5F5E2E2F5F5F5F5F5F5F5F5F5F5F5E2F5F5F5F5F5F5F5F5F5F5F5F5F5F5F5F5F5F5F5F5F5
310
F5F5F5F5F5F5F5F5F5F5F5F5F5F5F5F5F5F5F5F5F5F5F5F5F5F5F5F5F5F5F5F5F5F5F5F5F5F5F5F5F5F5F5F5F5F5F5F5F5F5F5F5F5F5F5F5F5F5F5F5F5F5F5F5F5F5F5F5F5F5F5F5F5F5F5F5F5F5F5F5F5F5F5F5F5F5F5F5F5F5F5F5F5F5F5F5F5F5F5F5F5F5F5F5F5F5F5F5F5F5F5F5F5F5F5F5F5F5F5F5F5F5F5F5F5F5F5
310
F5F5F5F5F5F5E2F5F5F5F5F5F5F5F5F5F5F5E2E2F5F5F5F5F5F5F5F5F5F5F5E2F5F5F5F5F5F5F5F5F5F5F5F5F5F5F5F5F5F5F5F5F5F5F5F5F5F5F5F5F5F5F5F5F5F5F5F5F5F5F5F5F5F5F5F5F5F5F5F5F5F5F5F5F5F5F5F5F5F5F5F5F5F5F5F5F5F5F5F5F5F5F5F5F5F5F5F5F5F5F5F5F5F5F5F5F5F5F5F5F5F5F5F5F5F5F5
310
F5F5F5F5F5F5F5F5F5F5F5F5F5F5F5F5F5F5F5F5F5F5F5F5F5F5F5F5F5F5F5F5F5F5F5F5F5F5F5F5F5F5F5F5F5F5F5F5F5F5F5F5F5F5F5F5F5F5F5E2F5F5F5F5F5F5F5F5F5F5F5E2E2F5F5F5F5F5F5F5F5F5F5F5E2F5F5F5F5F5F5F5F5F5F5F5F5F5F5F5F5F5F5F5F5F5F5F5F5F5F5F5F5F5F5F5F5F5F5F5F5F5F5F5F5F5F5
310
F5F5F5F5F5F5F5F5F5F5F5F5F5F5F5F5F5F5F5F5F5F5F5F5F5F5F5F5F5F5F5F5F5F5F5F5F5F5F5F5F5F5F5F5F5F5F5F5F5F5F5F5F5F5F5F5F5F5F5F5F5F5F5F5F5F5F5F5F5F5F5F5F5F5F5F5F5F5F5F5F5F5F5F5F5F5F5F5F5F5F5F5F5F5F5F5F5F5F5F5F5F5F5F5F5F5F5F5F5F5F5F5E2F5F5F5F5F5F5F5F5F5F5F5E2E2F5
310
F5F5F5F5F5F5F5F5F5F5E2F5F5F5F5F5F5F5F5F5F5F5F5F5F5F5F5F5F5F5F5F5F5F5F5F5F5F5F5F5F5F5F5F5F5F5F5F5F5F5F5F5F5F5F5F5F5F5F5F5F5F5F5F5F5F5F5F5F5F5F5F5F5F5F5F5F5F5F5F5F5F5F5F5F5F5F5F5F5F5F5F5F5F5F5F5F5F5F5F5F5F5F5F5F5F5F5F5F5F5F5F5F5F5F5F5F5F5F5F5F5F5F5F5F5F5F5
310
F5F5F5F5F5F5F5F5F5F5F5F5F5F5F5F5F5F5F5F5F5F5F5F5F5F5F5F5F5F5F5F5F5F5F5F5F5F5E2F5F5F5F5F5F5F5F5F5F5F5E2E2F5F5F5F5F5F5F5F5F5F5F5F5F5F5F5F5F5F5F5F5F5F5F5F5F5F5F5F5F5F5F5F5F5F5F5F5F5F5F5F5F5F5F5F5F5F5F5F5F5F5F5F5F5F5F5F5F5F5F5F5F5F5F5F5F5F5F5F5F5F5F5F5F5F5F5
310
F5F5F5F5F5F5F5F5F5F5F5F5F5F5F5F5F5F5F5F5F5F5F5F5F5F5F5F5F5F5F5F5F5F5F5F5F5F5F5F5F5F5F5F5F5F5F5F5F5F5F5F5F5F5F5F5F5F5F5F5F5F5F5F5F5F5F5F5F5F5F5F5F5F5F5F5F5F5F5F5F5F5F5F5F5F5F5F5F5F5F5F5F5F5F5F5F5F5F5F5F5F5F5E2E2F5F5F5F5F5F5F5F5F5F5F5F5F5F5F5F5F5F5F5F5F5F5
310
F5F5F5F5F5F5F5F5F5F5F5F5F5F5F5F5F5F5F5F5F5F5F5F5F5F5F5F5F5F5F5F5F5F5F5F5F5F5F5F5F5F5F5F5F5F5F5F5F5F5F5F5F5F5F5F5F5F5F5F5F5F5F5F5F5F5F5F5F5F5F5F5F5F5F5F5F5F5F5F5F5F5F5F5F5F5F5F5F5F5F5F5F5F5F5F5F5F5F5F5F5F5F5F5F5F5F5F5F5F5F5F5F5F5F5F5F5F5F5F5F5F5F5F5F5F5F5
310
F5F5F5F5F5F5F5F5F5F5F5F5F5F5F5F5F5F5F5F5F5F5F5F5F5F5F5F5F5E2E2F5F5F5F5F5F5F5F5F5F5F5F5F5F5F5F5F5F5F5F5F5F5F5F5F5F5F5F5F5F5F5F5F5F5F5F5F5F5F5F5F5F5F5F5F5F5F5F5F5F5F5F5F5F5F5F5F5F5F5F5F5F5F5F5F5F5F5F5F5F5F5F5F5F5F5F5F5F5F5F5F5F5F5F5F5F5F5F5F5F5F5F5F5F5F5F5
310
F5F5F5F5F5F5F5F5F5F5F5F5F5F5F5F5F5F5F5F5F5F5F5F5F5F5F5F5F5F5F5F5F5F5F5F5F5F5F5F5F5F5F5F5F5F5F5F5F5F5F5F5F5F5F5F5F5F5F5F5F5F5F5F5F5F5F5F5F5F5F5F5F5F5F5F5F5F5F5F5F5F5E2E2F5F5F5F5F5F5F5F5F5F5F5F5F5F5F5F5F5F5F5F5F5F5F5F5F5F5F5F5F5F5F5F5F5F5F5F5F5F5F5F5F5F5F5
310
F5F5F5F5F5F5F5F5F5F5F5F5F5F5F5F5F5F5F5F5F5F5F5F5F5F5F5F5F5F5F5F5F5F5F5F5F5F5F5F5F5F5F5F5F5F5F5F5F5F5F5F5F5F5F5F5F5F5F5F5F5F5F5F5F5F5F5F5F5F5F5F5F5F5F5F5F5F5F5F5F5F5F5F5F5F5F5F5F5F5F5F5F5F5F5F5F5F5F5F5F5F5F5F5F5F5F5F5F5F5F5F5F5F5F5F5F5F5F5F5F5F5F5F5F5F5F5
310
F5F5F5F5F5F5F5F5E2E2F5F5F5F5F5F5F5F5F5F5F5F5F5F5F5F5F5F5F5F5F5F5F5F5F5F5F5F5F5F5F5F5F5F5F5F5F5F5F5F5F5F5F5F5F5F5F5F5F5F5F5F5F5F5F5F5F5F5F5F5F5F5F5F5F5F5F5F5F5F5F5F5F5F5F5F5F5F5F5F5F5F5F5F5F5F5F5F5F5F5F5F5F5F5F5F5F5F5F5F5F5F5F5F5F5F5F5F5F5F5F5F5F5F5F5F5F5
310
F5F5F5F5F5F5F5F5F5F5F5F5F5F5F5F5F5F5F5F5F5F5F5F5F5F5F5F5F5F5F5F5F5F5F5F5F5F5F5F5F5F5F5F5F5F5F5F5F5F5F5F5F5F5F5F5F5F5F5F5F5E2E2F5F5F5F5F5F5F5F5F5F5F5F5F5F5F5F5F5F5F5F5F5F5F5F5F5F5F5F5F5F5F5F5F5F5F5F5F5F5F5F5F5F5F5F5F5F5F5F5F5F5F5F5F5F5F5F5F5F5F5F5F5F5F5F5
310
F5F5F5F5F5F5F5F5F5F5F5F5F5F5F5F5F5F5F5F5F5F5F5F5F5F5F5F5F5F5F5F5F5F5F5F5F5F5F5F5F5F5F5F5F5F5F5F5F5F5F5F5F5F5F5F5F5F5F5F5F5F5F5F5F5F5F5F5F5F5F5F5F5F5F5F5F5F5F5F5F5F5F5F5F5F5F5F5F5F5F5F5F5F5F5F5F5F5F5F5F5F5F5F5F5F5F5F5F5F5F5F5F5F5E2E2F5F5F5F5F5F5F5F5F5F5F5
310
F5F5F5F5F5F5F5F5F5F5F5F5F5F5F5F5F5F5F5F5F5F5F5F5F5F5F5F5F5F5F5F5F5F5F5F5F5F5F5F5F5F5F5F5F5F5F5F5F5F5F5F5F5F5F5F5F5F5F5F5F5F5F5F5F5F5F5F5F5F5F5F5F5F5F5F5F5F5F5F5F5F5F5F5F5F5F5F5F5F5F5F5F5F5F5F5F5F5F5F5F5F5F5F5F5F5F5F5F5F5F5F5F5F5F5F5F5F5F5F5F5F5F5F5F5F5F5
310
F5F5F5F5F5F5F5F5F5F5F5F5F5F5F5F5F5F5F5F5F5F5F5F5F5F5F5F5F5F5F5F5F5F5F5F5F5F5F5F5E2E2F5F5F5F5F5F5F5F5F5F5F5F5F5F5F5F5F5F5F5F5F5F5F5F5F5F5F5F5F5F5F5F5F5F5F5F5F5F5F5F5F5F5F5F5F5F5F5F5F5F5F5F5F5F5F5F5F5F5F5F5F5F5F5F5F5F5F5F5F5F5F5F5F5F5F5F5F5F5F5F5F5F5F5F5F5
310
F5F5F5F5F5F5F5F5F5F5F5F5F5F5F5F5F5F5F5F5F5F5F5F5F5F5F5F5F5F5F5F5F5F5F5F5F5F5F5F5F5F5F5F5F5F5F5F5F5F5F5F5F5F5F5F5F5F5F5F5F5F5F5F5F5F5F5F5F5F5F5F5F5F5F5F5F5F5F5F5F5F5F5F5F5F5F5F5F5F5F5F5F5E2E2F5F5F5F5F5F5F5F5F5F5F5E2F5F5F5F5F5F5F5F5F5F5F5F5F5F5F5F5F5F5F5F5
310
F5F5F5F5F5F5F5F5F5F5F5F5F5F5F5F5F5F5F5F5F5F5F5F5F5F5F5F5F5F5F5F5F5F5F5F5F5F5F5F5F5F5F5F5F5F5F5F5F5F5F5F5F5F5F5F5F5F5F5F5F5F5F5F5F5F5F5F5F5F5F5F5F5F5F5F5F5F5F5F5F5F5F5F5F5F5F5F5F5F5F5F5F5F5F5F5F5F5F5F5F5F5F5F5F5F5F5F5F5F5F5F5F5F5F5F5F5F5F5F5F5F5F5F5F5F5F5
310
F5F5F5F5F5F5F5E2F5F5F5F5F5F5F5F5F5F5F5E2E2F5F5F5F5F5F5F5F5F5F5F5E2F5F5F5F5F5F5F5F5F5F5F5F5F5F5F5F5F5F5F5F5F5F5F5F5F5F5F5F5F5F5F5F5F5F5F5F5F5F5F5F5F5F5F5F5F5F5F5F5F5F5F5F5F5F5F5F5F5F5F5F5F5F5F5F5F5F5F5F5F5F5F5F5F5F5F5F5F5F5F5F5F5F5F5F5F5F5F5F5F5F5F5F5F5F5
310
F5F5F5F5F5F5F5F5F5F5F5F5F5F5F5F5F5F5F5F5F5F5F5F5F5F5F5F5F5F5F5F5F5F5F5F5F5F5F5F5F5F5F5F5F5F5F5F5F5F5F5F5F5F5F5F5F5F5F5F5E2F5F5F5F5F5F5F5F5F5F5F5E2E2F5F5F5F5F5F5F5F5F5F5F5E2F5F5F5F5F5F5F5F5F5F5F5F5F5F5F5F5F5F5F5F5F5F5F5F5F5F5F5F5F5F5F5F5F5F5F5F5F5F5F5F5F5
310
F5F5F5F5F5F5F5F5F5F5F5F5F5F5F5F5F5F5F5F5F5F5F5F5F5F5F5F5F5F5F5F5F5F5F5F5F5F5F5F5F5F5F5F5F5F5F5F5F5F5F5F5F5F5F5F5F5F5F5F5F5F5F5F5F5F5F5F5F5F5F5F5F5F5F5F5F5F5F5F5F5F5F5F5F5F5F5F5F5F5F5F5F5F5F5F5F5F5F5F5F5F5F5F5F5F5F5F5F5F5F5F5F5E2F5F5F5F5F5F5F5F5F5F5F5E2E2
310
F5F5F5F5F5F5F5F5F5F5F5E2F5F5F5F5F5F5F5F5F5F5F5F5F5F5F5F5F5F5F5F5F5F5F5F5F5F5F5F5F5F5F5F5F5F5F5F5F5F5F5F5F5F5F5F5F5F5F5F5F5F5F5F5F5F5F5F5F5F5F5F5F5F5F5F5F5F5F5F5F5F5F5F5F5F5F5F5F5F5F5F5F5F5F5F5F5F5F5F5F5F5F5F5F5F5F5F5F5F5F5F5F5F5F5F5F5F5F5F5F5F5F5F5F5F5F5
310
F5F5F5F5F5F5F5F5F5F5F5F5F5F5F5F5F5F5F5F5F5F5F5F5F5F5F5F5F5F5F5F5F5F5F5F5F5F5F5E2F5F5F5F5F5F5F5F5F5F5F5E2E2F5F5F5F5F5F5F5F5F5F5F5E2F5F5F5F5F5F5F5F5F5F5F5F5F5F5F5F5F5F5F5F5F5F5F5F5F5F5F5F5F5F5F5F5F5F5F5F5F5F5F5F5F5F5F5F5F5F5F5F5F5F5F5F5F5F5F5F5F5F5F5F5F5F5
310
F5F5F5F5F5F5F5F5F5F5F5F5F5F5F5F5F5F5F5F5F5F5F5F5F5F5F5F5F5F5F5F5F5F5F5F5F5F5F5F5F5F5F5F5F5F5F5F5F5F5F5F5F5F5F5F5F5F5F5F5F5F5F5F5F5F5F5F5F5F5F5F5F5F5F5F5F5F5F5F5F5F5F5F5F5F5F5F5F5F5F5F5E2F5F5F5F5F5F5F5F5F5F5F5E2E2F5F5F5F5F5F5F5F5F5F5F5E2F5F5F5F5F5F5F5F5F5
310
F5F5F5F5F5F5F5F5F5F5F5F5F5F5F5F5F5F5F5F5F5F5F5F5F5F5F5F5F5F5F5F5F5F5F5F5F5F5F5F5F5F5F5F5F5F5F5F5F5F5F5F5F5F5F5F5F5F5F5F5F5F5F5F5F5F5F5F5F5F5F5F5F5F5F5F5F5F5F5F5F5F5F5F5F5F5F5F5F5F5F5F5F5F5F5F5F5F5F5F5F5F5F5F5F5F5F5F5F5F5F5F5F5F5F5F5F5F5F5F5F5F5F5F5F5F5F5
310
F5F5F5F5F5F5F5F5F5F5F5F5F5F5F5F5F5F5E2F5F5F5F5F5F5F5F5F5F5F5E2E2F5F5F5F5F5F5F5F5F5F5F5E2F5F5F5F5F5F5F5F5F5F5F5F5F5F5F5F5F5F5F5F5F5F5F5F5F5F5F5F5F5F5F5F5F5F5F5F5F5F5F5F5F5F5F5F5F5F5F5F5F5F5F5F5F5F5F5F5F5F5F5F5F5F5F5F5F5F5F5F5F5F5F5F5F5F5F5F5F5F5F5F5F5F5F5
310
F5F5F5F5F5F5F5F5F5F5F5F5F5F5F5F5F5F5F5F5F5F5F5F5F5F5F5F5F5F5F5F5F5F5F5F5F5F5F5F5F5F5F5F5F5F5F5F5F5F5F5F5F5F5F5F5F5F5F5F5F5F5F5F5F5F5F5F5F5F5F5E2F5F5F5F5F5F5F5F5F5F5F5E2E2F5F5F5F5F5F5F5F5F5F5F5E2F5F5F5F5F5F5F5F5F5F5F5F5F5F5F5F5F5F5F5F5F5F5F5F5F5F5F5F5F5F5
310
F5F5F5F5F5F5F5F5F5F5F5F5F5F5F5F5F5F5F5F5F5F5F5F5F5F5F5F5F5F5F5F5F5F5F5F5F5F5F5F5F5F5F5F5F5F5F5F5F5F5F5F5F5F5F5F5F5F5F5F5F5F5F5F5F5F5F5F5F5F5F5F5F5F5F5F5F5F5F5F5F5F5F5F5F5F5F5F5F5F5F5F5F5F5F5F5F5F5F5F5F5F5F5F5F5F5F5F5F5F5F5F5F5F5F5F5F5F5F5F5F5F5F5F5E2F5F5
310
F5F5F5F5F5F5F5F5F5E2E2F5F5F5F5F5F5F5F5F5F5F5E2F5F5F5F5F5F5F5F5F5F5F5F5F5F5F5F5F5F5F5F5F5F5F5F5F5F5F5F5F5F5F5F5F5F5F5F5F5F5F5F5F5F5F5F5F5F5F5F5F5F5F5F5F5F5F5F5F5F5F5F5F5F5F5F5F5F5F5F5F5F5F5F5F5F5F5F5F5F5F5F5F5F5F5F5F5F5F5F5F5F5F5F5F5F5F5F5F5F5F5F5F5F5F5F5
310
F5F5F5F5F5F5F5F5F5F5F5F5F5F5F5F5F5F5F5F5F5F5F5F5F5F5F5F5F5F5F5F5F5F5F5F5F5F5F5F5F5F5F5F5F5F5F5F5F5F5E2F5F5F5F5F5F5F5F5F5F5F5E2E2F5F5F5F5F5F5F5F5F5F5F5E2F5F5F5F5F5F5F5F5F5F5F5F5F5F5F5F5F5F5F5F5F5F5F5F5F5F5F5F5F5F5F5F5F5F5F5F5F5F5F5F5F5F5F5F5F5F5F5F5F5F5F5
310
F5F5F5F5F5F5F5F5F5F5F5F5F5F5F5F5F5F5F5F5F5F5F5F5F5F5F5F5F5F5F5F5F5F5F5F5F5F5F5F5F5F5F5F5F5F5F5F5F5F5F5F5F5F5F5F5F5F5F5F5F5F5F5F5F5F5F5F5F5F5F5F5F5F5F5F5F5F5F5F5F5F5F5F5F5F5F5F5F5F5F5F5F5F5F5F5F5F5F5F5F5F5F5E2F5F5F5F5F5F5F5F5F5F5F5E2E2F5F5F5F5F5F5F5F5F5F5
310
F5E2F5F5F5F5F5F5F5F5F5F5F5F5F5F5F5F5F5F5F5F5F5F5F5F5F5F5F5F5F5F5F5F5F5F5F5F5F5F5F5F5F5F5F5F5F5F5F5F5F5F5F5F5F5F5F5F5F5F5F5F5F5F5F5F5F5F5F5F5F5F5F5F5F5F5F5F5F5F5F5F5F5F5F5F5F5F5F5F5F5F5F5F5F5F5F5F5F5F5F5F5F5F5F5F5F5F5F5F5F5F5F5F5F5F5F5F5F5F5F5F5F5F5F5F5F5
310
F5F5F5F5F5F5F5F5F5F5F5F5F5F5F5F5F5F5F5F5F5F5F5F5F5F5F5F5F5E2F5F5F5F5F5F5F5F5F5F5F5E2E2F5F5F5F5F5F5F5F5F5F5F5E2F5F5F5F5F5F5F5F5F5F5F5F5F5F5F5F5F5F5F5F5F5F5F5F5F5F5F5F5F5F5F5F5F5F5F5F5F5F5F5F5F5F5F5F5F5F5F5F5F5F5F5F5F5F5F5F5F5F5F5F5F5F5F5F5F5F5F5F5F5F5F5F5
310
F5F5F5F5F5F5F5F5F5F5F5F5F5F5F5F5F5F5F5F5F5F5F5F5F5F5F5F5F5F5F5F5F5F5F5F5F5F5F5F5F5F5F5F5F5F5F5F5F5F5F5F5F5F5F5F5F5F5F5F5F5F5F5F5F5F5F5F5F5F5F5F5F5F5F5F5F5F5F5F5F5F5E2F5F5F5F5F5F5F5F5F5F5F5E2E2F5F5F5F5F5F5F5F5F5F5F5E2F5F5F5F5F5F5F5F5F5F5F5F5F5F5F5F5F5F5F5
310
F5F5F5F5F5F5F5F5F5F5F5F5F5F5F5F5F5F5F5F5F5F5F5F5F5F5F5F5F5F5F5F5F5F5F5F5F5F5F5F5F5F5F5F5F5F5F5F5F5F5F5F5F5F5F5F5F5F5F5F5F5F5F5F5F5F5F5F5F5F5F5F5F5F5F5F5F5F5F5F5F5F5F5F5F5F5F5F5F5F5F5F5F5F5F5F5F5F5F5F5F5F5F5F5F5F5F5F5F5F5F5F5F5F5F5F5F5F5F5F5F5F5F5F5F5F5F5
310
F5F5F5F5F5F5F5F5E2F5F5F5F5F5F5F5F5F5F5F5E2E2F5F5F5F5F5F5F5F5F5F5F5E2F5F5F5F5F5F5F5F5F5F5F5F5F5F5F5F5F5F5F5F5F5F5F5F5F5F5F5F5F5F5F5F5F5F5F5F5F5F5F5F5F5F5F5F5F5F5F5F5F5F5F5F5F5F5F5F5F5F5F5F5F5F5F5F5F5F5F5F5F5F5F5F5F5F5F5F5F5F5F5F5F5F5F5F5F5F5F5F5F5F5F5F5F5
310
F5F5F5F5F5F5F5F5F5F5F5F5F5F5F5F5F5F5F5F5F5F5F5F5F5F5F5F5F5F5F5F5F5F5F5F5F5F5F5F5F5F5F5F5F5F5F5F5F5F5F5F5F5F5F5F5F5F5F5F5F5E2F5F5F5F5F5F5F5F5F5F5F5E2E2F5F5F5F5F5F5F5F5F5F5F5E2F5F5F5F5F5F5F5F5F5F5F5F5F5F5F5F5F5F5F5F5F5F5F5F5F5F5F5F5F5F5F5F5F5F5F5F5F5F5F5F5
310
F5F5F5F5F5F5F5F5F5F5F5F5F5F5F5F5F5F5F5F5F5F5F5F5F5F5F5F5F5F5F5F5F5F5F5F5F5F5F5F5F5F5F5F5F5F5F5F5F5F5F5F5F5F5F5F5F5F5F5F5F5F5F5F5F5F5F5F5F5F5F5F5F5F5F5F5F5F5F5F5F5F5F5F5F5F5F5F5F5F5F5F5F5F5F5F5F5F5F5F5F5F5F5F5F5F5F5F5F5F5F5F5F5F5E2F5F5F5F5F5F5F5F5F5F5F5E2
310
E2F5F5F5F5F5F5F5F5F5F5F5F5F5F5F5F5F5F5F5F5F5F5F5F5F5F5F5F5F5F5F5F5F5F5F5F5F5F5F5F5F5F5F5F5F5F5F5F5F5F5F5F5F5F5F5F5F5F5F5F5F5F5F5F5F5F5F5F5F5F5F5F5F5F5F5F5F5F5F5F5F5F5F5F5F5F5F5F5F5F5F5F5F5F5F5F5F5F5F5F5F5F5F5F5F5F5F5F5F5F5F5F5F5F5F5F5F5F5F5F5F5F5F5F5F5F5
310
F5F5F5F5F5F5F5F5F5F5F5F5F5F5F5F5F5F5F5F5F5F5F5F5F5F5F5F5F5F5F5F5F5F5F5F5F5F5F5F5F5F5F5F5F5F5F5F5F5F5F5F5E2E2F5F5F5F5F5F5F5F5F5F5F5F5F5F5F5F5F5F5F5F5F5F5F5F5F5F5F5F5F5F5F5F5F5F5F5F5F5F5F5F5F5F5F5F5F5F5F5F5F5F5F5F5F5F5F5F5F5F5F5F5F5F5F5F5F5F5F5F5F5F5F5F5F5
310
F5F5F5F5F5F5F5F5F5F5F5F5F5F5F5F5F5F5F5F5F5F5F5F5F5F5F5F5F5F5F5F5F5F5F5F5F5F5F5F5F5F5F5F5F5F5F5F5F5F5F5F5F5F5F5F5F5F5F5F5F5F5F5F5F5F5F5F5F5F5F5F5F5F5F5F5F5F5F5F5F5F5F5F5F5F5F5F5F5F5F5F5F5F5F5F5F5F5F5F5F5F5F5F5F5E2E2F5F5F5F5F5F5F5F5F5F5F5F5F5F5F5F5F5F5F5F5
310
F5F5F5F5F5F5F5F5F5F5F5F5F5F5F5F5F5F5F5F5F5F5F5F5F5F5F5F5F5F5F5F5F5F5F5F5F5F5F5F5F5F5F5F5F5F5F5F5F5F5F5F5F5F5F5F5F5F5F5F5F5F5F5F5F5F5F5F5F5F5F5F5F5F5F5F5F5F5F5F5F5F5F5F5F5F5F5F5F5F5F5F5F5F5F5F5F5F5F5F5F5F5F5F5F5F5F5F5F5F5F5F5F5F5F5F5F5F5F5F5F5F5F5F5F5F5F5
310
F5F5F5F5F5F5F5F5F5F5F5F5F5F5F5F5F5F5F5F5F5F5F5F5F5F5F5F5F5F5F5E2E2F5F5F5F5F5F5F5F5F5F5F5F5F5F5F5F5F5F5F5F5F5F5F5F5F5F5F5F5F5F5F5F5F5F5F5F5F5F5F5F5F5F5F5F5F5F5F5F5F5F5F5F5F5F5F5F5F5F5F5F5F5F5F5F5F5F5F5F5F5F5F5F5F5F5F5F5F5F5F5F5F5F5F5F5F5F5F5F5F5F5F5F5F5F5
310
F5F5F5F5F5F5F5F5F5F5F5F5F5F5F5F5F5F5F5F5F5F5F5F5F5F5F5F5F5F5F5F5F5F5F5F5F5F5F5F5F5F5F5F5F5F5F5F5F5F5F5F5F5F5F5F5F5F5F5F5F5F5F5F5F5F5F5F5F5F5F5F5F5F5F5F5F5F5F5F5F5F5F5F5E2E2F5F5F5F5F5F5F5F5F5F5F5F5F5F5F5F5F5F5F5F5F5F5F5F5F5F5F5F5F5F5F5F5F5F5F5F5F5F5F5F5F5
310
F5F5F5F5F5F5F5F5F5F5F5F5F5F5F5F5F5F5F5F5F5F5F5F5F5F5F5F5F5F5F5F5F5F5F5F5F5F5F5F5F5F5F5F5F5F5F5F5F5F5F5F5F5F5F5F5F5F5F5F5F5F5F5F5F5F5F5F5F5F5F5F5F5F5F5F5F5F5F5F5F5F5F5F5F5F5F5F5F5F5F5F5F5F5F5F5F5F5F5F5F5F5F5F5F5F5F5F5F5F5F5F5F5F5F5F5F5F5F5F5F5F5F5F5F5F5F5
310
F5F5F5F5F5F5F5F5F5F5E2E2F5F5F5F5F5F5F5F5F5F5F5F5F5F5F5F5F5F5F5F5F5F5F5F5F5F5F5F5F5F5F5F5F5F5F5F5F5F5F5F5F5F5F5F5F5F5F5F5F5F5F5F5F5F5F5F5F5F5F5F5F5F5F5F5F5F5F5F5F5F5F5F5F5F5F5F5F5F5F5F5F5F5F5F5F5F5F5F5F5F5F5F5F5F5F5F5F5F5F5F5F5F5F5F5F5F5F5F5F5F5F5F5F5F5F5
310
F5F5F5F5F5F5F5F5F5F5F5F5F5F5F5F5F5F5F5F5F5F5F5F5F5F5F5F5F5F5F5F5F5F5F5F5F5F5F5F5F5F5F5F5F5F5F5F5F5F5F5F5F5F5F5F5F5F5F5F5F5F5F5E2E2F5F5F5F5F5F5F5F5F5F5F5F5F5F5F5F5F5F5F5F5F5F5F5F5F5F5F5F5F5F5F5F5F5F5F5F5F5F5F5F5F5F5F5F5F5F5F5F5F5F5F5F5F5F5F5F5F5F5F5F5F5F5
310
F5F5F5F5F5F5F5F5F5F5F5F5F5F5F5F5F5F5F5F5F5F5F5F5F5F5F5F5F5F5F5F5F5F5F5F5F5F5F5F5F5F5F5F5F5F5F5F5F5F5F5F5F5F5F5F5F5F5F5F5F5F5F5F5F5F5F5F5F5F5F5F5F5F5F5F5F5F5F5F5F5F5F5F5F5F5F5F5F5F5F5F5F5F5F5F5F5F5F5F5F5F5F5F5F5F5F5F5F5F5F5F5F5F5F5F5E2E2F5F5F5F5F5F5F5F5F5
310
F5F5F5F5F5F5F5F5F5F5F5F5F5F5F5F5F5F5F5F5F5F5F5F5F5F5F5F5F5F5F5F5F5F5F5F5F5F5F5F5F5F5F5F5F5F5F5F5F5F5F5F5F5F5F5F5F5F5F5F5F5F5F5F5F5F5F5F5F5F5F5F5F5F5F5F5F5F5F5F5F5F5F5F5F5F5F5F5F5F5F5F5F5F5F5F5F5F5F5F5F5F5F5F5F5F5F5F5F5F5F5F5F5F5F5F5F5F5F5F5F5F5F5F5F5F5F5
310
F5F5F5F5F5F5F5F5F5F5F5F5F5F5F5F5F5F5F5F5F5F5F5F5F5F5F5F5F5F5F5F5F5F5F5F5F5F5F5F5F5F5E2E2F5F5F5F5F5F5F5F5F5F5F5F5F5F5F5F5F5F5F5F5F5F5F5F5F5F5F5F5F5F5F5F5F5F5F5F5F5F5F5F5F5F5F5F5F5F5F5F5F5F5F5F5F5F5F5F5F5F5F5F5F5F5F5F5F5F5F5F5F5F5F5F5F5F5F5F5F5F5F5F5F5F5F5
310
F5F5F5F5F5F5F5F5F5F5F5F5F5F5F5F5F5F5F5F5F5F5F5F5F5F5F5F5F5F5F5F5F5F5F5F5F5F5F5F5F5F5F5F5F5F5F5F5F5F5F5F5F5F5F5F5F5F5F5F5F5F5F5F5F5F5F5F5F5F5F5F5F5F5F5F5F5F5F5F5F5F5F5F5F5F5F5F5F5F5F5F5F5F5F5E2E2F5F5F5F5F5F5F5F5F5F5F5E2F5F5F5F5F5F5F5F5F5F5F5F5F5F5F5F5F5F5
310
F5F5F5F5F5F5F5F5F5F5F5F5F5F5F5F5F5F5F5F5F5F5F5F5F5F5F5F5F5F5F5F5F5F5F5F5F5F5F5F5F5F5F5F5F5F5F5F5F5F5F5F5F5F5F5F5F5F5F5F5F5F5F5F5F5F5F5F5F5F5F5F5F5F5F5F5F5F5F5F5F5F5F5F5F5F5F5F5F5F5F5F5F5F5F5F5F5F5F5F5F5F5F5F5F5F5F5F5F5F5F5F5F5F5F5F5F5F5F5F5F5F5F5F5F5F5F5
310
F5F5F5F5F5F5F5F5F5E2F5F5F5F5F5F5F5F5F5F5F5E2E2F5F5F5F5F5F5F5F5F5F5F5E2F5F5F5F5F5F5F5F5F5F5F5F5F5F5F5F5F5F5F5F5F5F5F5F5F5F5F5F5F5F5F5F5F5F5F5F5F5F5F5F5F5F5F5F5F5F5F5F5F5F5F5F5F5F5F5F5F5F5F5F5F5F5F5F5F5F5F5F5F5F5F5F5F5F5F5F5F5F5F5F5F5F5F5F5F5F5F5F5F5F5F5F5
310
F5F5F5F5F5F5F5F5F5F5F5F5F5F5F5F5F5F5F5F5F5F5F5F5F5F5F5F5F5F5F5F5F5F5F5F5F5F5F5F5F5F5F5F5F5F5F5F5F5F5F5F5F5F5F5F5F5F5F5F5F5F5E2F5F5F5F5F5F5F5F5F5F5F5E2E2F5F5F5F5F5F5F5F5F5F5F5E2F5F5F5F5F5F5F5F5F5F5F5F5F5F5F5F5F5F5F5F5F5F5F5F5F5F5F5F5F5F5F5F5F5F5F5F5F5F5F5
310
F5F5F5F5F5F5F5F5F5F5F5F5F5F5F5F5F5F5F5F5F5F5F5F5F5F5F5F5F5F5F5F5F5F5F5F5F5F5F5F5F5F5F5F5F5F5F5F5F5F5F5F5F5F5F5F5F5F5F5F5F5F5F5F5F5F5F5F5F5F5F5F5F5F5F5F5F5F5F5F5F5F5F5F5F5F5F5F5F5F5F5F5F5F5F5F5F5F5F5F5F5F5F5F5F5F5F5F5F5F5F5F5F5F5F5E2F5F5F5F5F5F5F5F5F5F5F5
310
E2E2F5F5F5F5F5F5F5F5F5F5F5E2F5F5F5F5F5F5F5F5F5F5F5F5F5F5F5F5F5F5F5F5F5F5F5F5F5F5F5F5F5F5F5F5F5F5F5F5F5F5F5F5F5F5F5F5F5F5F5F5F5F5F5F5F5F5F5F5F5F5F5F5F5F5F5F5F5F5F5F5F5F5F5F5F5F5F5F5F5F5F5F5F5F5F5F5F5F5F5F5F5F5F5F5F5F5F5F5F5F5F5F5F5F5F5F5F5F5F5F5F5F5F5F5F5
310
F5F5F5F5F5F5F5F5F5F5F5F5F5F5F5F5F5F5F5F5F5F5F5F5F5F5F5F5F5F5F5F5F5F5F5F5F5F5F5F5F5E2F5F5F5F5F5F5F5F5F5F5F5E2E2F5F5F5F5F5F5F5F5F5F5F5E2F5F5F5F5F5F5F5F5F5F5F5F5F5F5F5F5F5F5F5F5F5F5F5F5F5F5F5F5F5F5F5F5F5F5F5F5F5F5F5F5F5F5F5F5F5F5F5F5F5F5F5F5F5F5F5F5F5F5F5F5
310
F5F5F5F5F5F5F5F5F5F5F5F5F5F5F5F5F5F5F5F5F5F5F5F5F5F5F5F5F5F5F5F5F5F5F5F5F5F5F5F5F5F5F5F5F5F5F5F5F5F5F5F5F5F5F5F5F5F5F5F5F5F5F5F5F5F5F5F5F5F5F5F5F5F5F5F5F5F5F5F5F5F5F5F5F5F5F5F5F5F5F5F5F5F5E2F5F5F5F5F5F5F5F5F5F5F5E2E2F5F5F5F5F5F5F5F5F5F5F5E2F5F5F5F5F5F5F5
310
F5F5F5F5F5F5F5F5F5F5F5F5F5F5F5F5F5F5F5F5F5F5F5F5F5F5F5F5F5F5F5F5F5F5F5F5F5F5F5F5F5F5F5F5F5F5F5F5F5F5F5F5F5F5F5F5F5F5F5F5F5F5F5F5F5F5F5F5F5F5F5F5F5F5F5F5F5F5F5F5F5F5F5F5F5F5F5F5F5F5F5F5F5F5F5F5F5F5F5F5F5F5F5F5F5F5F5F5F5F5F5F5F5F5F5F5F5F5F5F5F5F5F5F5F5F5F5
310
F5F5F5F5F5F5F5F5F5F5F5F5F5F5F5F5F5F5F5F5E2F5F5F5F5F5F5F5F5F5F5F5E2E2F5F5F5F5F5F5F5F5F5F5F5E2F5F5F5F5F5F5F5F5F5F5F5F5F5F5F5F5F5F5F5F5F5F5F5F5F5F5F5F5F5F5F5F5F5F5F5F5F5F5F5F5F5F5F5F5F5F5F5F5F5F5F5F5F5F5F5F5F5F5F5F5F5F5F5F5F5F5F5F5F5F5F5F5F5F5F5F5F5F5F5F5F5
310
F5F5F5F5F5F5F5F5F5F5F5F5F5F5F5F5F5F5F5F5F5F5F5F5F5F5F5F5F5F5F5F5F5F5F5F5F5F5F5F5F5F5F5F5F5F5F5F5F5F5F5F5F5F5F5F5F5F5F5F5F5F5F5F5F5F5F5F5F5F5F5F5F5E2F5F5F5F5F5F5F5F5F5F5F5E2E2F5F5F5F5F5F5F5F5F5F5F5E2F5F5F5F5F5F5F5F5F5F5F5F5F5F5F5F5F5F5F5F5F5F5F5F5F5F5F5F5
310
F5F5F5F5F5F5F5F5F5F5F5F5F5F5F5F5F5F5F5F5F5F5F5F5F5F5F5F5F5F5F5F5F5F5F5F5F5F5F5F5F5F5F5F5F5F5F5F5F5F5F5F5F5F5F5F5F5F5F5F5F5F5F5F5F5F5F5F5F5F5F5F5F5F5F5F5F5F5F5F5F5F5F5F5F5F5F5F5F5F5F5F5F5F5F5F5F5F5F5F5F5F5F5F5F5F5F5F5F5F5F5F5F5F5F5F5F5F5F5F5F5F5F5F5F5F5E2
310
F5F5F5F5F5F5F5F5F5F5F5E2E2F5F5F5F5F5F5F5F5F5F5F5E2F5F5F5F5F5F5F5F5F5F5F5F5F5F5F5F5F5F5F5F5F5F5F5F5F5F5F5F5F5F5F5F5F5F5F5F5F5F5F5F5F5F5F5F5F5F5F5F5F5F5F5F5F5F5F5F5F5F5F5F5F5F5F5F5F5F5F5F5F5F5F5F5F5F5F5F5F5F5F5F5F5F5F5F5F5F5F5F5F5F5F5F5F5F5F5F5F5F5F5F5F5F5
310
F5F5F5F5F5F5F5F5F5F5F5F5F5F5F5F5F5F5F5F5F5F5F5F5F5F5F5F5F5F5F5F5F5F5F5F5F5F5F5F5F5F5F5F5F5F5F5F5F5F5F5F5E2F5F5F5F5F5F5F5F5F5F5F5E2E2F5F5F5F5F5F5F5F5F5F5F5E2F5F5F5F5F5F5F5F5F5F5F5F5F5F5F5F5F5F5F5F5F5F5F5F5F5F5F5F5F5F5F5F5F5F5F5F5F5F5F5F5F5F5F5F5F5F5F5F5F5
310
F5F5F5F5F5F5F5F5F5F5F5F5F5F5F5F5F5F5F5F5F5F5F5F5F5F5F5F5F5F5F5F5F5F5F5F5F5F5F5F5F5F5F5F5F5F5F5F5F5F5F5F5F5F5F5F5F5F5F5F5F5F5F5F5F5F5F5F5F5F5F5F5F5F5F5F5F5F5F5F5F5F5F5F5F5F5F5F5F5F5F5F5F5F5F5F5F5F5F5F5F5F5F5F5F5E2F5F5F5F5F5F5F5F5F5F5F5E2E2F5F5F5F5F5F5F5F5
310
F5F5F5E2F5F5F5F5F5F5F5F5F5F5F5F5F5F5F5F5F5F5F5F5F5F5F5F5F5F5F5F5F5F5F5F5F5F5F5F5F5F5F5F5F5F5F5F5F5F5F5F5F5F5F5F5F5F5F5F5F5F5F5F5F5F5F5F5F5F5F5F5F5F5F5F5F5F5F5F5F5F5F5F5F5F5F5F5F5F5F5F5F5F5F5F5F5F5F5F5F5F5F5F5F5F5F5F5F5F5F5F5F5F5F5F5F5F5F5F5F5F5F5F5F5F5F5
310
F5F5F5F5F5F5F5F5F5F5F5F5F5F5F5F5F5F5F5F5F5F5F5F5F5F5F5F5F5F5F5E2F5F5F5F5F5F5F5F5F5F5F5E2E2F5F5F5F5F5F5F5F5F5F5F5E2F5F5F5F5F5F5F5F5F5F5F5F5F5F5F5F5F5F5F5F5F5F5F5F5F5F5F5F5F5F5F5F5F5F5F5F5F5F5F5F5F5F5F5F5F5F5F5F5F5F5F5F5F5F5F5F5F5F5F5F5F5F5F5F5F5F5F5F5F5F5
310
F5F5F5F5F5F5F5F5F5F5F5F5F5F5F5F5F5F5F5F5F5F5F5F5F5F5F5F5F5F5F5F5F5F5F5F5F5F5F5F5F5F5F5F5F5F5F5F5F5F5F5F5F5F5F5F5F5F5F5F5F5F5F5F5F5F5F5F5F5F5F5F5F5F5F5F5F5F5F5F5F5F5F5F5E2F5F5F5F5F5F5F5F5F5F5F5E2E2F5F5F5F5F5F5F5F5F5F5F5E2F5F5F5F5F5F5F5F5F5F5F5F5F5F5F5F5F5
310
F5F5F5F5F5F5F5F5F5F5F5F5F5F5F5F5F5F5F5F5F5F5F5F5F5F5F5F5F5F5F5F5F5F5F5F5F5F5F5F5F5F5F5F5F5F5F5F5F5F5F5F5F5F5F5F5F5F5F5F5F5F5F5F5F5F5F5F5F5F5F5F5F5F5F5F5F5F5F5F5F5F5F5F5F5F5F5F5F5F5F5F5F5F5F5F5F5F5F5F5F5F5F5F5F5F5F5F5F5F5F5F5F5F5F5F5F5F5F5F5F5F5F5F5F5F5F5
310
F5F5F5F5F5F5F5F5F5F5E2F5F5F5F5F5F5F5F5F5F5F5E2E2F5F5F5F5F5F5F5F5F5F5F5E2F5F5F5F5F5F5F5F5F5F5F5F5F5F5F5F5F5F5F5F5F5F5F5F5F5F5F5F5F5F5F5F5F5F5F5F5F5F5F5F5F5F5F5F5F5F5F5F5F5F5F5F5F5F5F5F5F5F5F5F5F5F5F5F5F5F5F5F5F5F5F5F5F5F5F5F5F5F5F5F5F5F5F5F5F5F5F5F5F5F5F5
310
F5F5F5F5F5F5F5F5F5F5F5F5F5F5F5F5F5F5F5F5F5F5F5F5F5F5F5F5F5F5F5F5F5F5F5F5F5F5F5F5F5F5F5F5F5F5F5F5F5F5F5F5F5F5F5F5F5F5F5F5F5F5F5E2F5F5F5F5F5F5F5F5F5F5F5E2E2F5F5F5F5F5F5F5F5F5F5F5E2F5F5F5F5F5F5F5F5F5F5F5F5F5F5F5F5F5F5F5F5F5F5F5F5F5F5F5F5F5F5F5F5F5F5F5F5F5F5
310
F5F5F5F5F5F5F5F5F5F5F5F5F5F5F5F5F5F5F5F5F5F5F5F5F5F5F5F5F5F5F5F5F5F5F5F5F5F5F5F5F5F5F5F5F5F5F5F5F5F5F5F5F5F5F5F5F5F5F5F5F5F5F5F5F5F5F5F5F5F5F5F5F5F5F5F5F5F5F5F5F5F5F5F5F5F5F5F5F5F5F5F5F5F5F5F5F5F5F5F5F5F5F5F5F5F5F5F5F5F5F5F5F5F5F5F5E2F5F5F5F5F5F5F5F5F5F5
310
F5E2E2F5F5F5F5F5F5F5F5F5F5F5F5F5F5F5F5F5F5F5F5F5F5F5F5F5F5F5F5F5F5F5F5F5F5F5F5F5F5F5F5F5F5F5F5F5F5F5F5F5F5F5F5F5F5F5F5F5F5F5F5F5F5F5F5F5F5F5F5F5F5F5F5F5F5F5F5F5F5F5F5F5F5F5F5F5F5F5F5F5F5F5F5F5F5F5F5F5F5F5F5F5F5F5F5F5F5F5F5F5F5F5F5F5F5F5F5F5F5F5F5F5F5F5F5
310
F5F5F5F5F5F5F5F5F5F5F5F5F5F5F5F5F5F5F5F5F5F5F5F5F5F5F5F5F5F5F5F5F5F5F5F5F5F5F5F5F5F5F5F5F5F5F5F5F5F5F5F5F5F5E2E2F5F5F5F5F5F5F5F5F5F5F5F5F5F5F5F5F5F5F5F5F5F5F5F5F5F5F5F5F5F5F5F5F5F5F5F5F5F5F5F5F5F5F5F5F5F5F5F5F5F5F5F5F5F5F5F5F5F5F5F5F5F5F5F5F5F5F5F5F5F5F5
310
F5F5F5F5F5F5F5F5F5F5F5F5F5F5F5F5F5F5F5F5F5F5F5F5F5F5F5F5F5F5F5F5F5F5F5F5F5F5F5F5F5F5F5F5F5F5F5F5F5F5F5F5F5F5F5F5F5F5F5F5F5F5F5F5F5F5F5F5F5F5F5F5F5F5F5F5F5F5F5F5F5F5F5F5F5F5F5F5F5F5F5F5F5F5F5F5F5F5F5F5F5F5F5F5F5F5F5E2E2F5F5F5F5F5F5F5F5F5F5F5F5F5F5F5F5F5F5
310
F5F5F5F5F5F5F5F5F5F5F5F5F5F5F5F5F5F5F5F5F5F5F5F5F5F5F5F5F5F5F5F5F5F5F5F5F5F5F5F5F5F5F5F5F5F5F5F5F5F5F5F5F5F5F5F5F5F5F5F5F5F5F5F5F5F5F5F5F5F5F5F5F5F5F5F5F5F5F5F5F5F5F5F5F5F5F5F5F5F5F5F5F5F5F5F5F5F5F5F5F5F5F5F5F5F5F5F5F5F5F5F5F5F5F5F5F5F5F5F5F5F5F5F5F5F5F5
310
F5F5F5F5F5F5F5F5F5F5F5F5F5F5F5F5F5F5F5F5F5F5F5F5F5F5F5F5F5F5F5F5F5E2E2F5F5F5F5F5F5F5F5F5F5F5F5F5F5F5F5F5F5F5F5F5F5F5F5F5F5F5F5F5F5F5F5F5F5F5F5F5F5F5F5F5F5F5F5F5F5F5F5F5F5F5F5F5F5F5F5F5F5F5F5F5F5F5F5F5F5F5F5F5F5F5F5F5F5F5F5F5F5F5F5F5F5F5F5F5F5F5F5F5F5F5F5
310
F5F5F5F5F5F5F5F5F5F5F5F5F5F5F5F5F5F5F5F5F5F5F5F5F5F5F5F5F5F5F5F5F5F5F5F5F5F5F5F5F5F5F5F5F5F5F5F5F5F5F5F5F5F5F5F5F5F5F5F5F5F5F5F5F5F5F5F5F5F5F5F5F5F5F5F5F5F5F5F5F5F5F5F5F5F5E2E2F5F5F5F5F5F5F5F5F5F5F5F5F5F5F5F5F5F5F5F5F5F5F5F5F5F5F5F5F5F5F5F5F5F5F5F5F5F5F5
310
F5F5F5F5F5F5F5F5F5F5F5F5F5F5F5F5F5F5F5F5F5F5F5F5F5F5F5F5F5F5F5F5F5F5F5F5F5F5F5F5F5F5F5F5F5F5F5F5F5F5F5F5F5F5F5F5F5F5F5F5F5F5F5F5F5F5F5F5F5F5F5F5F5F5F5F5F5F5F5F5F5F5F5F5F5F5F5F5F5F5F5F5F5F5F5F5F5F5F5F5F5F5F5F5F5F5F5F5F5F5F5F5F5F5F5F5F5F5F5F5F5F5F5F5F5F5F5
310
F5F5F5F5F5F5F5F5F5F5F5F5E2E2F5F5F5F5F5F5F5F5F5F5F5F5F5F5F5F5F5F5F5F5F5F5F5F5F5F5F5F5F5F5F5F5F5F5F5F5F5F5F5F5F5F5F5F5F5F5F5F5F5F5F5F5F5F5F5F5F5F5F5F5F5F5F5F5F5F5F5F5F5F5F5F5F5F5F5F5F5F5F5F5F5F5F5F5F5F5F5F5F5F5F5F5F5F5F5F5F5F5F5F5F5F5F5F5F5F5F5F5F5F5F5F5F5
310
F5F5F5F5F5F5F5F5F5F5F5F5F5F5F5F5F5F5F5F5F5F5F5F5F5F5F5F5F5F5F5F5F5F5F5F5F5F5F5F5F5F5F5F5F5F5F5F5F5F5F5F5F5F5F5F5F5F5F5F5F5F5F5F5F5E2E2F5F5F5F5F5F5F5F5F5F5F5F5F5F5F5F5F5F5F5F5F5F5F5F5F5F5F5F5F5F5F5F5F5F5F5F5F5F5F5F5F5F5F5F5F5F5F5F5F5F5F5F5F5F5F5F5F5F5F5F5
310
F5F5F5F5F5F5F5F5F5F5F5F5F5F5F5F5F5F5F5F5F5F5F5F5F5F5F5F5F5F5F5F5F5F5F5F5F5F5F5F5F5F5F5F5F5F5F5F5F5F5F5F5F5F5F5F5F5F5F5F5F5F5F5F5F5F5F5F5F5F5F5F5F5F5F5F5F5F5F5F5F5F5F5F5F5F5F5F5F5F5F5F5F5F5F5F5F5F5F5F5F5F5F5F5F5F5F5F5F5F5F5F5F5F5F5F5F5F5E2E2F5F5F5F5F5F5F5
310
F5F5F5F5F5F5F5F5F5F5F5F5F5F5F5F5F5F5F5F5F5F5F5F5F5F5F5F5F5F5F5F5F5F5F5F5F5F5F5F5F5F5F5F5F5F5F5F5F5F5F5F5F5F5F5F5F5F5F5F5F5F5F5F5F5F5F5F5F5F5F5F5F5F5F5F5F5F5F5F5F5F5F5F5F5F5F5F5F5F5F5F5F5F5F5F5F5F5F5F5F5F5F5F5F5F5F5F5F5F5F5F5F5F5F5F5F5F5F5F5F5F5F5F5F5F5F5
310
F5F5F5F5F5F5F5F5F5F5F5F5F5F5F5F5F5F5F5F5F5F5F5F5F5F5F5F5F5F5F5F5F5F5F5F5F5F5F5F5F5F5F5F5E2E2F5F5F5F5F5F5F5F5F5F5F5E2F5F5F5F5F5F5F5F5F5F5F5F5F5F5F5F5F5F5F5F5F5F5F5F5F5F5F5F5F5F5F5F5F5F5F5F5F5F5F5F5F5F5F5F5F5F5F5F5F5F5F5F5F5F5F5F5F5F5F5F5F5F5F5F5F5F5F5F5F5
310
F5F5F5F5F5F5F5F5F5F5F5F5F5F5F5F5F5F5F5F5F5F5F5F5F5F5F5F5F5F5F5F5F5F5F5F5F5F5F5F5F5F5F5F5F5F5F5F5F5F5F5F5F5F5F5F5F5F5F5F5F5F5F5F5F5F5F5F5F5F5F5F5F5F5F5F5F5F5F5F5F5F5F5F5F5E2F5F5F5F5F5F5F5F5F5F5F5E2E2F5F5F5F5F5F5F5F5F5F5F5E2F5F5F5F5F5F5F5F5F5F5F5F5F5F5F5F5
310
F5F5F5F5F5F5F5F5F5F5F5F5F5F5F5F5F5F5F5F5F5F5F5F5F5F5F5F5F5F5F5F5F5F5F5F5F5F5F5F5F5F5F5F5F5F5F5F5F5F5F5F5F5F5F5F5F5F5F5F5F5F5F5F5F5F5F5F5F5F5F5F5F5F5F5F5F5F5F5F5F5F5F5F5F5F5F5F5F5F5F5F5F5F5F5F5F5F5F5F5F5F5F5F5F5F5F5F5F5F5F5F5F5F5F5F5F5F5F5F5F5F5F5F5F5F5F5
310
F5F5F5F5F5F5F5F5F5F5F5E2F5F5F5F5F5F5F5F5F5F5F5E2E2F5F5F5F5F5F5F5F5F5F5F5E2F5F5F5F5F5F5F5F5F5F5F5F5F5F5F5F5F5F5F5F5F5F5F5F5F5F5F5F5F5F5F5F5F5F5F5F5F5F5F5F5F5F5F5F5F5F5F5F5F5F5F5F5F5F5F5F5F5F5F5F5F5F5F5F5F5F5F5F5F5F5F5F5F5F5F5F5F5F5F5F5F5F5F5F5F5F5F5F5F5F5
310
F5F5F5F5F5F5F5F5F5F5F5F5F5F5F5F5F5F5F5F5F5F5F5F5F5F5F5F5F5F5F5F5F5F5F5F5F5F5F5F5F5F5F5F5F5F5F5F5F5F5F5F5F5F5F5F5F5F5F5F5F5F5F5F5E2F5F5F5F5F5F5F5F5F5F5F5E2E2F5F5F5F5F5F5F5F5F5F5F5E2F5F5F5F5F5F5F5F5F5F5F5F5F5F5F5F5F5F5F5F5F5F5F5F5F5F5F5F5F5F5F5F5F5F5F5F5F5
310
F5F5F5F5F5F5F5F5F5F5F5F5F5F5F5F5F5F5F5F5F5F5F5F5F5F5F5F5F5F5F5F5F5F5F5F5F5F5F5F5F5F5F5F5F5F5F5F5F5F5F5F5F5F5F5F5F5F5F5F5F5F5F5F5F5F5F5F5F5F5F5F5F5F5F5F5F5F5F5F5F5F5F5F5F5F5F5F5F5F5F5F5F5F5F5F5F5F5F5F5F5F5F5F5F5F5F5F5F5F5F5F5F5F5F5F5F5E2F5F5F5F5F5F5F5F5F5
310
F5F5E2E2F5F5F5F5F5F5F5F5F5F5F5E2F5F5F5F5F5F5F5F5F5F5F5F5F5F5F5F5F5F5F5F5F5F5F5F5F5F5F5F5F5F5F5F5F5F5F5F5F5F5F5F5F5F5F5F5F5F5F5F5F5F5F5F5F5F5F5F5F5F5F5F5F5F5F5F5F5F5F5F5F5F5F5F5F5F5F5F5F5F5F5F5F5F5F5F5F5F5F5F5F5F5F5F5F5F5F5F5F5F5F5F5F5F5F5F5F5F5F5F5F5F5F5
310
F5F5F5F5F5F5F5F5F5F5F5F5F5F5F5F5F5F5F5F5F5F5F5F5F5F5F5F5F5F5F5F5F5F5F5F5F5F5F5F5F5F5F5E2F5F5F5F5F5F5F5F5F5F5F5E2E2F5F5F5F5F5F5F5F5F5F5F5E2F5F5F5F5F5F5F5F5F5F5F5F5F5F5F5F5F5F5F5F5F5F5F5F5F5F5F5F5F5F5F5F5F5F5F5F5F5F5F5F5F5F5F5F5F5F5F5F5F5F5F5F5F5F5F5F5F5F5
310
F5F5F5F5F5F5F5F5F5F5F5F5F5F5F5F5F5F5F5F5F5F5F5F5F5F5F5F5F5F5F5F5F5F5F5F5F5F5F5F5F5F5F5F5F5F5F5F5F5F5F5F5F5F5F5F5F5F5F5F5F5F5F5F5F5F5F5F5F5F5F5F5F5F5F5F5F5F5F5F5F5F5F5F5F5F5F5F5F5F5F5F5F5F5F5F5E2F5F5F5F5F5F5F5F5F5F5F5E2E2F5F5F5F5F5F5F5F5F5F5F5E2F5F5F5F5F5
310
F5F5F5F5F5F5F5F5F5F5F5F5F5F5F5F5F5F5F5F5F5F5F5F5F5F5F5F5F5F5F5F5F5F5F5F5F5F5F5F5F5F5F5F5F5F5F5F5F5F5F5F5F5F5F5F5F5F5F5F5F5F5F5F5F5F5F5F5F5F5F5F5F5F5F5F5F5F5F5F5F5F5F5F5F5F5F5F5F5F5F5F5F5F5F5F5F5F5F5F5F5F5F5F5F5F5F5F5F5F5F5F5F5F5F5F5F5F5F5F5F5F5F5F5F5F5F5
310
F5F5F5F5F5F5F5F5F5F5F5F5F5F5F5F5F5F5F5F5F5F5E2F5F5F5F5F5F5F5F5F5F5F5E2E2F5F5F5F5F5F5F5F5F5F5F5E2F5F5F5F5F5F5F5F5F5F5F5F5F5F5F5F5F5F5F5F5F5F5F5F5F5F5F5F5F5F5F5F5F5F5F5F5F5F5F5F5F5F5F5F5F5F5F5F5F5F5F5F5F5F5F5F5F5F5F5F5F5F5F5F5F5F5F5F5F5F5F5F5F5F5F5F5F5F5F5
310
F5F5F5F5F5F5F5F5F5F5F5F5F5F5F5F5F5F5F5F5F5F5F5F5F5F5F5F5F5F5F5F5F5F5F5F5F5F5F5F5F5F5F5F5F5F5F5F5F5F5F5F5F5F5F5F5F5F5F5F5F5F5F5F5F5F5F5F5F5F5F5F5F5F5F5E2F5F5F5F5F5F5F5F5F5F5F5E2E2F5F5F5F5F5F5F5F5F5F5F5E2F5F5F5F5F5F5F5F5F5F5F5F5F5F5F5F5F5F5F5F5F5F5F5F5F5F5
310
F5F5F5F5F5F5F5F5F5F5F5F5F5F5F5F5F5F5F5F5F5F5F5F5F5F5F5F5F5F5F5F5F5F5F5F5F5F5F5F5F5F5F5F5F5F5F5F5F5F5F5F5F5F5F5F5F5F5F5F5F5F5F5F5F5F5F5F5F5F5F5F5F5F5F5F5F5F5F5F5F5F5F5F5F5F5F5F5F5F5F5F5F5F5F5F5F5F5F5F5F5F5F5F5F5F5F5F5F5F5F5F5F5F5F5F5F5F5F5F5F5F5F5F5F5F5F5
310
F5E2F5F5F5F5F5F5F5F5F5F5F5E2E2F5F5F5F5F5F5F5F5F5F5F5E2F5F5F5F5F5F5F5F5F5F5F5F5F5F5F5F5F5F5F5F5F5F5F5F5F5F5F5F5F5F5F5F5F5F5F5F5F5F5F5F5F5F5F5F5F5F5F5F5F5F5F5F5F5F5F5F5F5F5F5F5F5F5F5F5F5F5F5F5F5F5F5F5F5F5F5F5F5F5F5F5F5F5F5F5F5F5F5F5F5F5F5F5F5F5F5F5F5F5F5F5
310
F5F5F5F5F5F5F5F5F5F5F5F5F5F5F5F5F5F5F5F5F5F5F5F5F5F5F5F5F5F5F5F5F5F5F5F5F5F5F5F5F5F5F5F5F5F5F5F5F5F5F5F5F5F5E2F5F5F5F5F5F5F5F5F5F5F5E2E2F5F5F5F5F5F5F5F5F5F5F5E2F5F5F5F5F5F5F5F5F5F5F5F5F5F5F5F5F5F5F5F5F5F5F5F5F5F5F5F5F5F5F5F5F5F5F5F5F5F5F5F5F5F5F5F5F5F5F5
310
F5F5F5F5F5F5F5F5F5F5F5F5F5F5F5F5F5F5F5F5F5F5F5F5F5F5F5F5F5F5F5F5F5F5F5F5F5F5F5F5F5F5F5F5F5F5F5F5F5F5F5F5F5F5F5F5F5F5F5F5F5F5F5F5F5F5F5F5F5F5F5F5F5F5F5F5F5F5F5F5F5F5F5F5F5F5F5F5F5F5F5F5F5F5F5F5F5F5F5F5F5F5F5F5F5F5F5E2F5F5F5F5F5F5F5F5F5F5F5E2E2F5F5F5F5F5F5
310
F5F5F5F5F5E2F5F5F5F5F5F5F5F5F5F5F5F5F5F5F5F5F5F5F5F5F5F5F5F5F5F5F5F5F5F5F5F5F5F5F5F5F5F5F5F5F5F5F5F5F5F5F5F5F5F5F5F5F5F5F5F5F5F5F5F5F5F5F5F5F5F5F5F5F5F5F5F5F5F5F5F5F5F5F5F5F5F5F5F5F5F5F5F5F5F5F5F5F5F5F5F5F5F5F5F5F5F5F5F5F5F5F5F5F5F5F5F5F5F5F5F5F5F5F5F5F5
310
F5F5F5F5F5F5F5F5F5F5F5F5F5F5F5F5F5F5F5F5F5F5F5F5F5F5F5F5F5F5F5F5F5E2F5F5F5F5F5F5F5F5F5F5F5E2E2F5F5F5F5F5F5F5F5F5F5F5E2F5F5F5F5F5F5F5F5F5F5F5F5F5F5F5F5F5F5F5F5F5F5F5F5F5F5F5F5F5F5F5F5F5F5F5F5F5F5F5F5F5F5F5F5F5F5F5F5F5F5F5F5F5F5F5F5F5F5F5F5F5F5F5F5F5F5F5F5
310
F5F5F5F5F5F5F5F5F5F5F5F5F5F5F5F5F5F5F5F5F5F5F5F5F5F5F5F5F5F5F5F5F5F5F5F5F5F5F5F5F5F5F5F5F5F5F5F5F5F5F5F5F5F5F5F5F5F5F5F5F5F5F5F5F5F5F5F5F5F5F5F5F5F5F5F5F5F5F5F5F5F5F5F5F5F5E2F5F5F5F5F5F5F5F5F5F5F5E2E2F5F5F5F5F5F5F5F5F5F5F5E2F5F5F5F5F5F5F5F5F5F5F5F5F5F5F5
310
F5F5F5F5F5F5F5F5F5F5F5F5F5F5F5F5F5F5F5F5F5F5F5F5F5F5F5F5F5F5F5F5F5F5F5F5F5F5F5F5F5F5F5F5F5F5F5F5F5F5F5F5F5F5F5F5F5F5F5F5F5F5F5F5F5F5F5F5F5F5F5F5F5F5F5F5F5F5F5F5F5F5F5F5F5F5F5F5F5F5F5F5F5F5F5F5F5F5F5F5F5F5F5F5F5F5F5F5F5F5F5F5F5F5F5F5F5F5F5F5F5F5F5F5F5F5F5
310
F5F5F5F5F5F5F5F5F5F5F5F5E2F5F5F5F5F5F5F5F5F5F5F5E2E2F5F5F5F5F5F5F5F5F5F5F5E2F5F5F5F5F5F5F5F5F5F5F5F5F5F5F5F5F5F5F5F5F5F5F5F5F5F5F5F5F5F5F5F5F5F5F5F5F5F5F5F5F5F5F5F5F5F5F5F5F5F5F5F5F5F5F5F5F5F5F5F5F5F5F5F5F5F5F5F5F5F5F5F5F5F5F5F5F5F5F5F5F5F5F5F5F5F5F5F5F5
310
F5F5F5F5F5F5F5F5F5F5F5F5F5F5F5F5F5F5F5F5F5F5F5F5F5F5F5F5F5F5F5F5F5F5F5F5F5F5F5F5F5F5F5F5F5F5F5F5F5F5F5F5F5F5F5F5F5F5F5F5F5F5F5F5F5E2F5F5F5F5F5F5F5F5F5F5F5E2E2F5F5F5F5F5F5F5F5F5F5F5F5F5F5F5F5F5F5F5F5F5F5F5F5F5F5F5F5F5F5F5F5F5F5F5F5F5F5F5F5F5F5F5F5F5F5F5F5
310
F5F5F5F5F5F5F5F5F5F5F5F5F5F5F5F5F5F5F5F5F5F5F5F5F5F5F5F5F5F5F5F5F5F5F5F5F5F5F5F5F5F5F5F5F5F5F5F5F5F5F5F5F5F5F5F5F5F5F5F5F5F5F5F5F5F5F5F5F5F5F5F5F5F5F5F5F5F5F5F5F5F5F5F5F5F5F5F5F5F5F5F5F5F5F5F5F5F5F5F5F5F5F5F5F5F5F5F5F5F5F5F5F5F5F5F5F5F5F5F5F5F5F5F5F5F5F5
310
F5F5F5E2E2F5F5F5F5F5F5F5F5F5F5F5F5F5F5F5F5F5F5F5F5F5F5F5F5F5F5F5F5F5F5F5F5F5F5F5F5F5F5F5F5F5F5F5F5F5F5F5F5F5F5F5F5F5F5F5F5F5F5F5F5F5F5F5F5F5F5F5F5F5F5F5F5F5F5F5F5F5F5F5F5F5F5F5F5F5F5F5F5F5F5F5F5F5F5F5F5F5F5F5F5F5F5F5F5F5F5F5F5F5F5F5F5F5F5F5F5F5F5F5F5F5F5
310
F5F5F5F5F5F5F5F5F5F5F5F5F5F5F5F5F5F5F5F5F5F5F5F5F5F5F5F5F5F5F5F5F5F5F5F5F5F5F5F5F5F5F5F5F5F5F5F5F5F5F5F5F5F5F5F5E2E2F5F5F5F5F5F5F5F5F5F5F5F5F5F5F5F5F5F5F5F5F5F5F5F5F5F5F5F5F5F5F5F5F5F5F5F5F5F5F5F5F5F5F5F5F5F5F5F5F5F5F5F5F5F5F5F5F5F5F5F5F5F5F5F5F5F5F5F5F5
310
F5F5F5F5F5F5F5F5F5F5F5F5F5F5F5F5F5F5F5F5F5F5F5F5F5F5F5F5F5F5F5F5F5F5F5F5F5F5F5F5F5F5F5F5F5F5F5F5F5F5F5F5F5F5F5F5F5F5F5F5F5F5F5F5F5F5F5F5F5F5F5F5F5F5F5F5F5F5F5F5F5F5F5F5F5F5F5F5F5F5F5F5F5F5F5F5F5F5F5F5F5F5F5F5F5F5F5F5F5E2E2F5F5F5F5F5F5F5F5F5F5F5F5F5F5F5F5
310
F5F5F5F5F5F5F5F5F5F5F5F5F5F5F5F5F5F5F5F5F5F5F5F5F5F5F5F5F5F5F5F5F5F5F5F5F5F5F5F5F5F5F5F5F5F5F5F5F5F5F5F5F5F5F5F5F5F5F5F5F5F5F5F5F5F5F5F5F5F5F5F5F5F5F5F5F5F5F5F5F5F5F5F5F5F5F5F5F5F5F5F5F5F5F5F5F5F5F5F5F5F5F5F5F5F5F5F5F5F5F5F5F5F5F5F5F5F5F5F5F5F5F5F5F5F5F5
310
F5F5F5F5F5F5F5F5F5F5F5F5F5F5F5F5F5F5F5F5F5F5F5F5F5F5F5F5F5F5F5F5F5F5F5E2E2F5F5F5F5F5F5F5F5F5F5F5F5F5F5F5F5F5F5F5F5F5F5F5F5F5F5F5F5F5F5F5F5F5F5F5F5F5F5F5F5F5F5F5F5F5F5F5F5F5F5F5F5F5F5F5F5F5F5F5F5F5F5F5F5F5F5F5F5F5F5F5F5F5F5F5F5F5F5F5F5F5F5F5F5F5F5F5F5F5F5
310
F5F5F5F5F5F5F5F5F5F5F5F5F5F5F5F5F5F5F5F5F5F5F5F5F5F5F5F5F5F5F5F5F5F5F5F5F5F5F5F5F5F5F5F5F5F5F5F5F5F5F5F5F5F5F5F5F5F5F5F5F5F5F5F5F5F5F5F5F5F5F5F5F5F5F5F5F5F5F5F5F5F5F5F5F5F5F5F5E2E2F5F5F5F5F5F5F5F5F5F5F5F5F5F5F5F5F5F5F5F5F5F5F5F5F5F5F5F5F5F5F5F5F5F5F5F5F5
310
F5F5F5F5F5F5F5F5F5F5F5F5F5F5F5F5F5F5F5F5F5F5F5F5F5F5F5F5F5F5F5F5F5F5F5F5F5F5F5F5F5F5F5F5F5F5F5F5F5F5F5F5F5F5F5F5F5F5F5F5F5F5F5F5F5F5F5F5F5F5F5F5F5F5F5F5F5F5F5F5F5F5F5F5F5F5F5F5F5F5F5F5F5F5F5F5F5F5F5F5F5F5F5F5F5F5F5F5F5F5F5F5F5F5F5F5F5F5F5F5F5F5F5F5F5F5F5
310
F5F5F5F5F5F5F5F5F5F5F5F5F5F5E2E2F5F5F5F5F5F5F5F5F5F5F5F5F5F5F5F5F5F5F5F5F5F5F5F5F5F5F5F5F5F5F5F5F5F5F5F5F5F5F5F5F5F5F5F5F5F5F5F5F5F5F5F5F5F5F5F5F5F5F5F5F5F5F5F5F5F5F5F5F5F5F5F5F5F5F5F5F5F5F5F5F5F5F5F5F5F5F5F5F5F5F5F5F5F5F5F5F5F5F5F5F5F5F5F5F5F5F5F5F5F5F5
310
F5F5F5F5F5F5F5F5F5F5F5F5F5F5F5F5F5F5F5F5F5F5F5F5F5F5F5F5F5F5F5F5F5F5F5F5F5F5F5F5F5F5F5F5F5F5F5F5F5F5F5F5F5F5F5F5F5F5F5F5F5F5F5F5F5F5F5E2E2F5F5F5F5F5F5F5F5F5F5F5F5F5F5F5F5F5F5F5F5F5F5F5F5F5F5F5F5F5F5F5F5F5F5F5F5F5F5F5F5F5F5F5F5F5F5F5F5F5F5F5F5F5F5F5F5F5F5
310
F5F5F5F5F5F5F5F5F5F5F5F5F5F5F5F5F5F5F5F5F5F5F5F5F5F5F5F5F5F5F5F5F5F5F5F5F5F5F5F5F5F5F5F5F5F5F5F5F5F5F5F5F5F5F5F5F5F5F5F5F5F5F5F5F5F5F5F5F5F5F5F5F5F5F5F5F5F5F5F5F5F5F5F5F5F5F5F5F5F5F5F5F5F5F5F5F5F5F5F5F5F5F5F5F5F5F5F5F5F5F5F5F5F5F5F5F5F5F5F5E2E2F5F5F5F5F5
310
F5F5F5F5F5F5E2F5F5F5F5F5F5F5F5F5F5F5F5F5F5F5F5F5F5F5F5F5F5F5F5F5F5F5F5F5F5F5F5F5F5F5F5F5F5F5F5F5F5F5F5F5F5F5F5F5F5F5F5F5F5F5F5F5F5F5F5F5F5F5F5F5F5F5F5F5F5F5F5F5F5F5F5F5F5F5F5F5F5F5F5F5F5F5F5F5F5F5F5F5F5F5F5F5F5F5F5F5F5F5F5F5F5F5F5F5F5F5F5F5F5F5F5F5F5F5F5
310
F5F5F5F5F5F5F5F5F5F5F5F5F5F5F5F5F5F5F5F5F5F5F5F5F5F5F5F5F5F5F5F5F5F5E2F5F5F5F5F5F5F5F5F5F5F5E2E2F5F5F5F5F5F5F5F5F5F5F5E2F5F5F5F5F5F5F5F5F5F5F5F5F5F5F5F5F5F5F5F5F5F5F5F5F5F5F5F5F5F5F5F5F5F5F5F5F5F5F5F5F5F5F5F5F5F5F5F5F5F5F5F5F5F5F5F5F5F5F5F5F5F5F5F5F5F5F5
310
F5F5F5F5F5F5F5F5F5F5F5F5F5F5F5F5F5F5F5F5F5F5F5F5F5F5F5F5F5F5F5F5F5F5F5F5F5F5F5F5F5F5F5F5F5F5F5F5F5F5F5F5F5F5F5F5F5F5F5F5F5F5F5F5F5F5F5F5F5F5F5F5F5F5F5F5F5F5F5F5F5F5F5F5F5F5F5E2F5F5F5F5F5F5F5F5F5F5F5E2E2F5F5F5F5F5F5F5F5F5F5F5E2F5F5F5F5F5F5F5F5F5F5F5F5F5F5
310
F5F5F5F5F5F5F5F5F5F5F5F5F5F5F5F5F5F5F5F5F5F5F5F5F5F5F5F5F5F5F5F5F5F5F5F5F5F5F5F5F5F5F5F5F5F5F5F5F5F5F5F5F5F5F5F5F5F5F5F5F5F5F5F5F5F5F5F5F5F5F5F5F5F5F5F5F5F5F5F5F5F5F5F5F5F5F5F5F5F5F5F5F5F5F5F5F5F5F5F5F5F5F5F5F5F5F5F5F5F5F5F5F5F5F5F5F5F5F5F5F5F5F5F5F5F5F5
310
F5F5F5F5F5F5F5F5F5F5F5F5F5E2F5F5F5F5F5F5F5F5F5F5F5E2E2F5F5F5F5F5F5F5F5F5F5F5E2F5F5F5F5F5F5F5F5F5F5F5F5F5F5F5F5F5F5F5F5F5F5F5F5F5F5F5F5F5F5F5F5F5F5F5F5F5F5F5F5F5F5F5F5F5F5F5F5F5F5F5F5F5F5F5F5F5F5F5F5F5F5F5F5F5F5F5F5F5F5F5F5F5F5F5F5F5F5F5F5F5F5F5F5F5F5F5F5
310
F5F5F5F5F5F5F5F5F5F5F5F5F5F5F5F5F5F5F5F5F5F5F5F5F5F5F5F5F5F5F5F5F5F5F5F5F5F5F5F5F5F5F5F5F5F5F5F5F5F5F5F5F5F5F5F5F5F5F5F5F5F5F5F5F5F5E2F5F5F5F5F5F5F5F5F5F5F5E2E2F5F5F5F5F5F5F5F5F5F5F5E2F5F5F5F5F5F5F5F5F5F5F5F5F5F5F5F5F5F5F5F5F5F5F5F5F5F5F5F5F5F5F5F5F5F5F5
310
F5F5F5F5F5F5F5F5F5F5F5F5F5F5F5F5F5F5F5F5F5F5F5F5F5F5F5F5F5F5F5F5F5F5F5F5F5F5F5F5F5F5F5F5F5F5F5F5F5F5F5F5F5F5F5F5F5F5F5F5F5F5F5F5F5F5F5F5F5F5F5F5F5F5F5F5F5F5F5F5F5F5F5F5F5F5F5F5F5F5F5F5F5F5F5F5F5F5F5F5F5F5F5F5F5F5F5F5F5F5F5F5F5F5F5F5F5F5F5E2F5F5F5F5F5F5F5
310
F5F5F5F5E2E2F5F5F5F5F5F5F5F5F5F5F5E2F5F5F5F5F5F5F5F5F5F5F5F5F5F5F5F5F5F5F5F5F5F5F5F5F5F5F5F5F5F5F5F5F5F5F5F5F5F5F5F5F5F5F5F5F5F5F5F5F5F5F5F5F5F5F5F5F5F5F5F5F5F5F5F5F5F5F5F5F5F5F5F5F5F5F5F5F5F5F5F5F5F5F5F5F5F5F5F5F5F5F5F5F5F5F5F5F5F5F5F5F5F5F5F5F5F5F5F5F5
310
F5F5F5F5F5F5F5F5F5F5F5F5F5F5F5F5F5F5F5F5F5F5F5F5F5F5F5F5F5F5F5F5F5F5F5F5F5F5F5F5F5F5F5F5F5E2F5F5F5F5F5F5F5F5F5F5F5E2E2F5F5F5F5F5F5F5F5F5F5F5E2F5F5F5F5F5F5F5F5F5F5F5F5F5F5F5F5F5F5F5F5F5F5F5F5F5F5F5F5F5F5F5F5F5F5F5F5F5F5F5F5F5F5F5F5F5F5F5F5F5F5F5F5F5F5F5F5
310
F5F5F5F5F5F5F5F5F5F5F5F5F5F5F5F5F5F5F5F5F5F5F5F5F5F5F5F5F5F5F5F5F5F5F5F5F5F5F5F5F5F5F5F5F5F5F5F5F5F5F5F5F5F5F5F5F5F5F5F5F5F5F5F5F5F5F5F5F5F5F5F5F5F5F5F5F5F5F5F5F5F5F5F5F5F5F5F5F5F5F5F5F5F5F5F5F5F5E2F5F5F5F5F5F5F5F5F5F5F5E2E2F5F5F5F5F5F5F5F5F5F5F5E2E2E2E2
310
E2E2E2E2E2F5F5F5F5F5F5F5F5F5E2E2E2E2E2E2E2E2E2E2E2E2E2E2E2E2E2F5F5F5F5F5F5F5F5F5E2E2E2E2E2E2E2E2E2E2E2E2E2E2E2E2F5F5F5F5F5F5F5F5F5F5E2E2E2E2E2E2E2E2E2E2E2E2E2E2E2E2F5F5F5F5F5F5F5F5F5F5E2E2E2E2E2E2E2E2E2E2E2E2E2E2E2E2F5F5F5F5F5F5F5F5F5E2E2E2E2E2E2E2E2E2E2
310
E2E2E2E2E2E2E2F5F5F5F5F5F5F5F5F5E2E2E2E2E2E2E2E2E2F5F5F5F5F5F5F5F5F5F5F5E2E2F5F5F5F5F5F5F5F5F5F5F5F5F5F5F5F5F5F5F5F5F5F5F5F5F5F5F5F5F5F5F5F5F5F5F5F5F5F5F5F5F5F5F5F5F5F5F5F5F5F5F5F5F5F5F5F5F5F5F5F5F5F5F5F5F5F5F5F5F5F5F5F5F5F5F5F5F5F5F5F5F5F5F5F5F5F5F5F5F5
310
F5F5F5F5F5F5F5F5F5F5F5F5F5F5F5F5F5F5F5F5F5F5F5F5F5F5F5F5F5F5F5F5F5F5F5F5F5F5F5F5F5F5F5F5F5F5F5F5F5F5F5F5F5F5F5F5F5F5F5F5F5F5F5F5F5F5F5F5F5F5F5F5F5F5F5F5F5F5F5F5F5F5F5F5F5F5F5F5F5E2E2F5F5F5F5F5F5F5F5F5F5F5F5F5F5F5F5F5F5F5F5F5F5F5F5F5F5F5F5F5F5F5F5F5F5F5F5
310
F5F5F5F5F5F5F5F5F5F5F5F5F5F5F5F5F5F5F5F5F5F5F5F5F5F5F5F5F5F5F5F5F5F5F5F5F5F5F5F5F5F5F5F5F5F5F5F5F5F5F5F5F5F5F5F5F5F5F5F5F5F5F5F5F5F5F5F5F5F5F5F5F5F5F5F5F5F5F5F5F5F5F5F5F5F5F5F5F5F5F5F5F5F5F5F5F5F5F5F5F5F5F5F5F5F5F5F5F5F5F5F5F5F5F5F5F5F5F5F5F5F5F5F5F5F5F5
310
F5F5F5F5F5F5F5F5F5F5F5F5F5F5F5E2E2F5F5F5F5F5F5F5F5F5F5F5F5F5F5F5F5F5F5F5F5F5F5F5F5F5F5F5F5F5F5F5F5F5F5F5F5F5F5F5F5F5F5F5F5F5F5F5F5F5F5F5F5F5F5F5F5F5F5F5F5F5F5F5F5F5F5F5F5F5F5F5F5F5F5F5F5F5F5F5F5F5F5F5F5F5F5F5F5F5F5F5F5F5F5F5F5F5F5F5F5F5F5F5F5F5F5F5F5F5F5
310
F5F5F5F5F5F5F5F5F5F5F5F5F5F5F5F5F5F5F5F5F5F5F5F5F5F5F5F5F5F5F5F5F5F5F5F5F5F5F5F5F5F5F5F5F5F5F5F5F5F5F5F5F5F5F5F5F5F5F5F5F5F5F5F5F5F5F5F5E2E2F5F5F5F5F5F5F5F5F5F5F5F5F5F5F5F5F5F5F5F5F5F5F5F5F5F5F5F5F5F5F5F5F5F5F5F5F5F5F5F5F5F5F5F5F5F5F5F5F5F5F5F5F5F5F5F5F5
310
F5F5F5F5F5F5F5F5F5F5F5F5F5F5F5F5F5F5F5F5F5F5F5F5F5F5F5F5F5F5F5F5F5F5F5F5F5F5F5F5F5F5F5F5F5F5F5F5F5F5F5F5F5F5F5F5F5F5F5F5F5F5F5F5F5F5F5F5F5F5F5F5F5F5F5F5F5F5F5F5F5F5F5F5F5F5F5F5F5F5F5F5F5F5F5F5F5F5F5F5F5F5F5F5F5F5F5F5F5F5F5F5F5F5F5F5F5F5F5F5F5E2E2E2E2E2E2
310
E2E2E2E2E2E2E2E2E2E2E2E2E2E2E2E2E2E2E2E2E2E2E2E2E2E2E2E2E2E2E2E2E2E2E2E2E2E2E2E2E2E2E2E2E2E2E2E2E2E2E2E2E2E2E2E2E2E2E2E2E2E2E2E2E2E2E2E2E2E2E2E2E2E2E2E2E2E2E2E2E2E2E2E2E2E2E2E2E2E2E2E2E2E2E2E2E2E2E2E2E2E2E2E2E2E2E2E2E2E2E2E2E2E2E2E2E2E2E2E2E2E2E2E2E2E2E2
310
E2E2E2E2E2E2E2E2E2E2E2E2E2E2E2E2E2E2E2E2E2E2E2E2E2E2E2E2E2E2E2E2E2E2E2E2E2E2E2E2E2E2E2E2E2E2E2E2
  0
ENDSEC
  0
EOF
