  0
SECTION
  2
HEADER
  9
$ACADVER
  1
AC1021
  9
$ACADMAINTVER
 70
     1
  9
$DWGCODEPAGE
  3
ANSI_932
  9
$LASTSAVEDBY
  1
damet
  9
$INSBASE
 10
0.0
 20
0.0
 30
0.0
  9
$EXTMIN
 10
1269.900766940292
 20
-188.9841785452498
 30
0.0
  9
$EXTMAX
 10
5108.214017302098
 20
2200.365694030613
 30
0.0
  9
$LIMMIN
 10
0.0
 20
0.0
  9
$LIMMAX
 10
0.0
 20
0.0
  9
$ORTHOMODE
 70
     1
  9
$REGENMODE
 70
     1
  9
$FILLMODE
 70
     1
  9
$QTEXTMODE
 70
     0
  9
$MIRRTEXT
 70
     1
  9
$LTSCALE
 40
5.08
  9
$ATTMODE
 70
     1
  9
$TEXTSIZE
 40
0.2
  9
$TRACEWID
 40
1.0
  9
$TEXTSTYLE
  7
Standard
  9
$CLAYER
  8
レイヤー 1
  9
$CELTYPE
  6
ByLayer
  9
$CECOLOR
 62
     5
  9
$CELTSCALE
 40
1.0
  9
$DISPSILH
 70
     0
  9
$DIMSCALE
 40
1.0
  9
$DIMASZ
 40
1.0
  9
$DIMEXO
 40
3.0
  9
$DIMDLI
 40
10.16
  9
$DIMRND
 40
0.0
  9
$DIMDLE
 40
1.59
  9
$DIMEXE
 40
3.18
  9
$DIMTP
 40
0.0
  9
$DIMTM
 40
0.0
  9
$DIMTXT
 40
3.0
  9
$DIMCEN
 40
0.0
  9
$DIMTSZ
 40
0.0
  9
$DIMTOL
 70
     0
  9
$DIMLIM
 70
     0
  9
$DIMTIH
 70
     0
  9
$DIMTOH
 70
     0
  9
$DIMSE1
 70
     0
  9
$DIMSE2
 70
     0
  9
$DIMTAD
 70
     1
  9
$DIMZIN
 70
    11
  9
$DIMBLK
  1
DOT
  9
$DIMASO
 70
     1
  9
$DIMSHO
 70
     1
  9
$DIMPOST
  1
<>
  9
$DIMAPOST
  1
[]
  9
$DIMALT
 70
     0
  9
$DIMALTD
 70
     3
  9
$DIMALTF
 40
0.0393700787401575
  9
$DIMLFAC
 40
1.0
  9
$DIMTOFL
 70
     1
  9
$DIMTVP
 40
0.0
  9
$DIMTIX
 70
     1
  9
$DIMSOXD
 70
     0
  9
$DIMSAH
 70
     0
  9
$DIMBLK1
  1

  9
$DIMBLK2
  1

  9
$DIMSTYLE
  2
Yamatoya Detail
  9
$DIMCLRD
 70
     0
  9
$DIMCLRE
 70
     0
  9
$DIMCLRT
 70
     0
  9
$DIMTFAC
 40
1.0
  9
$DIMGAP
 40
1.0
  9
$DIMJUST
 70
     0
  9
$DIMSD1
 70
     0
  9
$DIMSD2
 70
     0
  9
$DIMTOLJ
 70
     1
  9
$DIMTZIN
 70
    11
  9
$DIMALTZ
 70
    15
  9
$DIMALTTZ
 70
    15
  9
$DIMUPT
 70
     0
  9
$DIMDEC
 70
     0
  9
$DIMTDEC
 70
     0
  9
$DIMALTU
 70
     4
  9
$DIMALTTD
 70
     3
  9
$DIMTXSTY
  7
ヒラギノ角ゴ Pro W3
  9
$DIMAUNIT
 70
     0
  9
$DIMADEC
 70
     2
  9
$DIMALTRND
 40
0.0
  9
$DIMAZIN
 70
     0
  9
$DIMDSEP
 70
    46
  9
$DIMATFIT
 70
     0
  9
$DIMFRAC
 70
     2
  9
$DIMLDRBLK
  1
DOT
  9
$DIMLUNIT
 70
     2
  9
$DIMLWD
 70
    -2
  9
$DIMLWE
 70
    -2
  9
$DIMTMOVE
 70
     2
  9
$DIMFXL
 40
1.0
  9
$DIMFXLON
 70
     0
  9
$DIMJOGANG
 40
0.7853981633974483
  9
$DIMTFILL
 70
     0
  9
$DIMTFILLCLR
 70
     0
  9
$DIMARCSYM
 70
     0
  9
$DIMLTYPE
  6

  9
$DIMLTEX1
  6

  9
$DIMLTEX2
  6

  9
$LUNITS
 70
     2
  9
$LUPREC
 70
     4
  9
$SKETCHINC
 40
0.1
  9
$FILLETRAD
 40
2.0
  9
$AUNITS
 70
     0
  9
$AUPREC
 70
     0
  9
$MENU
  1
acad
  9
$ELEVATION
 40
0.0
  9
$PELEVATION
 40
0.0
  9
$THICKNESS
 40
0.0
  9
$LIMCHECK
 70
     0
  9
$CHAMFERA
 40
1.0
  9
$CHAMFERB
 40
1.0
  9
$CHAMFERC
 40
0.0
  9
$CHAMFERD
 40
0.0
  9
$SKPOLY
 70
     0
  9
$TDCREATE
 40
2455276.758078704
  9
$TDUCREATE
 40
2455276.383078704
  9
$TDUPDATE
 40
2458284.725115555
  9
$TDUUPDATE
 40
2458284.350115556
  9
$TDINDWG
 40
20.0914460301
  9
$TDUSRTIMER
 40
20.0914456713
  9
$USRTIMER
 70
     1
  9
$ANGBASE
 50
0.0
  9
$ANGDIR
 70
     0
  9
$PDMODE
 70
     1
  9
$PDSIZE
 40
-2.0
  9
$PLINEWID
 40
0.0
  9
$SPLFRAME
 70
     0
  9
$SPLINETYPE
 70
     6
  9
$SPLINESEGS
 70
     8
  9
$HANDSEED
  5
94219
  9
$SURFTAB1
 70
     6
  9
$SURFTAB2
 70
     6
  9
$SURFTYPE
 70
     6
  9
$SURFU
 70
     6
  9
$SURFV
 70
     6
  9
$UCSBASE
  2

  9
$UCSNAME
  2

  9
$UCSORG
 10
0.0
 20
0.0
 30
0.0
  9
$UCSXDIR
 10
1.0
 20
0.0
 30
0.0
  9
$UCSYDIR
 10
0.0
 20
1.0
 30
0.0
  9
$UCSORTHOREF
  2

  9
$UCSORTHOVIEW
 70
     0
  9
$UCSORGTOP
 10
0.0
 20
0.0
 30
0.0
  9
$UCSORGBOTTOM
 10
0.0
 20
0.0
 30
0.0
  9
$UCSORGLEFT
 10
0.0
 20
0.0
 30
0.0
  9
$UCSORGRIGHT
 10
0.0
 20
0.0
 30
0.0
  9
$UCSORGFRONT
 10
0.0
 20
0.0
 30
0.0
  9
$UCSORGBACK
 10
0.0
 20
0.0
 30
0.0
  9
$PUCSBASE
  2

  9
$PUCSNAME
  2

  9
$PUCSORG
 10
0.0
 20
0.0
 30
0.0
  9
$PUCSXDIR
 10
1.0
 20
0.0
 30
0.0
  9
$PUCSYDIR
 10
0.0
 20
1.0
 30
0.0
  9
$PUCSORTHOREF
  2

  9
$PUCSORTHOVIEW
 70
     0
  9
$PUCSORGTOP
 10
0.0
 20
0.0
 30
0.0
  9
$PUCSORGBOTTOM
 10
0.0
 20
0.0
 30
0.0
  9
$PUCSORGLEFT
 10
0.0
 20
0.0
 30
0.0
  9
$PUCSORGRIGHT
 10
0.0
 20
0.0
 30
0.0
  9
$PUCSORGFRONT
 10
0.0
 20
0.0
 30
0.0
  9
$PUCSORGBACK
 10
0.0
 20
0.0
 30
0.0
  9
$USERI1
 70
     0
  9
$USERI2
 70
     0
  9
$USERI3
 70
     0
  9
$USERI4
 70
     0
  9
$USERI5
 70
     0
  9
$USERR1
 40
0.0
  9
$USERR2
 40
0.0
  9
$USERR3
 40
0.0
  9
$USERR4
 40
0.0
  9
$USERR5
 40
0.0
  9
$WORLDVIEW
 70
     1
  9
$SHADEDGE
 70
     3
  9
$SHADEDIF
 70
    70
  9
$TILEMODE
 70
     1
  9
$MAXACTVP
 70
    64
  9
$PINSBASE
 10
0.0
 20
0.0
 30
0.0
  9
$PLIMCHECK
 70
     0
  9
$PEXTMIN
 10
1.000000000000000E+20
 20
1.000000000000000E+20
 30
1.000000000000000E+20
  9
$PEXTMAX
 10
-1.000000000000000E+20
 20
-1.000000000000000E+20
 30
-1.000000000000000E+20
  9
$PLIMMIN
 10
-20.0
 20
-7.5
  9
$PLIMMAX
 10
277.0
 20
202.5
  9
$UNITMODE
 70
     0
  9
$VISRETAIN
 70
     0
  9
$PLINEGEN
 70
     1
  9
$PSLTSCALE
 70
     1
  9
$TREEDEPTH
 70
  3020
  9
$CMLSTYLE
  2
Standard
  9
$CMLJUST
 70
     0
  9
$CMLSCALE
 40
1.0
  9
$PROXYGRAPHICS
 70
     0
  9
$MEASUREMENT
 70
     1
  9
$CELWEIGHT
370
    -1
  9
$ENDCAPS
280
     0
  9
$JOINSTYLE
280
     0
  9
$LWDISPLAY
290
     1
  9
$INSUNITS
 70
     4
  9
$HYPERLINKBASE
  1

  9
$STYLESHEET
  1

  9
$XEDIT
290
     1
  9
$CEPSNTYPE
380
     0
  9
$PSTYLEMODE
290
     1
  9
$FINGERPRINTGUID
  2

  9
$VERSIONGUID
  2
{0C0910CB-0E91-4A66-BF7D-9E9713B4559D}
  9
$EXTNAMES
290
     1
  9
$PSVPSCALE
 40
0.0
  9
$OLESTARTUP
290
     0
  9
$SORTENTS
280
   127
  9
$INDEXCTL
280
     0
  9
$HIDETEXT
280
     0
  9
$XCLIPFRAME
290
     0
  9
$HALOGAP
280
     0
  9
$OBSCOLOR
 70
   257
  9
$OBSLTYPE
280
     0
  9
$INTERSECTIONDISPLAY
280
     0
  9
$INTERSECTIONCOLOR
 70
   257
  9
$DIMASSOC
280
     1
  9
$PROJECTNAME
  1

  9
$CAMERADISPLAY
290
     0
  9
$LENSLENGTH
 40
50.0
  9
$CAMERAHEIGHT
 40
0.0
  9
$STEPSPERSEC
 40
2.0
  9
$STEPSIZE
 40
6.0
  9
$3DDWFPREC
 40
2.0
  9
$PSOLWIDTH
 40
0.25
  9
$PSOLHEIGHT
 40
4.0
  9
$LOFTANG1
 40
1.570796326794896
  9
$LOFTANG2
 40
1.570796326794896
  9
$LOFTMAG1
 40
0.0
  9
$LOFTMAG2
 40
0.0
  9
$LOFTPARAM
 70
     7
  9
$LOFTNORMALS
280
     1
  9
$LATITUDE
 40
37.795
  9
$LONGITUDE
 40
-122.394
  9
$NORTHDIRECTION
 40
0.0
  9
$TIMEZONE
 70
 -8000
  9
$LIGHTGLYPHDISPLAY
280
     1
  9
$TILEMODELIGHTSYNCH
280
     1
  9
$CMATERIAL
347
96E
  9
$SOLIDHIST
280
     1
  9
$SHOWHIST
280
     1
  9
$DWFFRAME
280
     2
  9
$DGNFRAME
280
     0
  9
$REALWORLDSCALE
290
     1
  9
$INTERFERECOLOR
 62
     1
  9
$INTERFEREOBJVS
345
97B
  9
$INTERFEREVPVS
346
978
  9
$CSHADOW
280
     0
  9
$SHADOWPLANELOCATION
 40
0.0
  0
ENDSEC
  0
SECTION
  2
CLASSES
  0
CLASS
  1
IMAGE
  2
AcDbRasterImage
  3
ISM
 90
     2175
 91
        0
280
     0
281
     1
  0
CLASS
  1
DICTIONARYVAR
  2
AcDbDictionaryVar
  3
ObjectDBX Classes
 90
        0
 91
        2
280
     0
281
     0
  0
CLASS
  1
RASTERVARIABLES
  2
AcDbRasterVariables
  3
ISM
 90
        0
 91
        0
280
     0
281
     0
  0
CLASS
  1
IMAGEDEF
  2
AcDbRasterImageDef
  3
ISM
 90
        0
 91
        0
280
     0
281
     0
  0
CLASS
  1
IMAGEDEF_REACTOR
  2
AcDbRasterImageDefReactor
  3
ISM
 90
        1
 91
        0
280
     0
281
     0
  0
CLASS
  1
IDBUFFER
  2
AcDbIdBuffer
  3
ObjectDBX Classes
 90
        0
 91
        0
280
     0
281
     0
  0
CLASS
  1
SPATIAL_FILTER
  2
AcDbSpatialFilter
  3
ObjectDBX Classes
 90
        0
 91
        0
280
     0
281
     0
  0
CLASS
  1
SORTENTSTABLE
  2
AcDbSortentsTable
  3
ObjectDBX Classes
 90
        0
 91
        5
280
     0
281
     0
  0
CLASS
  1
LAYER_INDEX
  2
AcDbLayerIndex
  3
ObjectDBX Classes
 90
        0
 91
        0
280
     0
281
     0
  0
CLASS
  1
SPATIAL_INDEX
  2
AcDbSpatialIndex
  3
ObjectDBX Classes
 90
        0
 91
        0
280
     0
281
     0
  0
CLASS
  1
OBJECT_PTR
  2
CAseDLPNTableRecord
  3
ASE-LPNTableRecord
 90
        1
 91
        0
280
     0
281
     0
  0
CLASS
  1
PLOTSETTINGS
  2
AcDbPlotSettings
  3
ObjectDBX Classes
 90
        0
 91
        0
280
     0
281
     0
  0
CLASS
  1
ACDBDICTIONARYWDFLT
  2
AcDbDictionaryWithDefault
  3
ObjectDBX Classes
 90
        0
 91
        1
280
     0
281
     0
  0
CLASS
  1
WIPEOUT
  2
AcDbWipeout
  3
"WipeOut|Product Desc: Object Enabler for WipeOut entity                        |Company: Autodesk, Inc.                        |WEB Address: www.autodesk.com"
 90
     2175
 91
        0
280
     0
281
     1
  0
CLASS
  1
WIPEOUTVARIABLES
  2
AcDbWipeoutVariables
  3
"WipeOut|Product Desc:     WipeOut Dbx Application|Company:          Autodesk, Inc.|WEB Address:      www.autodesk.com"
 90
        0
 91
        1
280
     0
281
     0
  0
CLASS
  1
RTEXT
  2
RText
  3
RText|AutoCAD Express Tool|expresstools@autodesk.com
 90
        0
 91
        0
280
     0
281
     1
  0
CLASS
  1
ARCALIGNEDTEXT
  2
AcDbArcAlignedText
  3
ATEXT|AutoCAD Express Tool|expresstools@autodesk.com
 90
        0
 91
        0
280
     0
281
     1
  0
CLASS
  1
MATERIAL
  2
AcDbMaterial
  3
ObjectDBX Classes
 90
     1024
 91
        3
280
     0
281
     0
  0
CLASS
  1
VISUALSTYLE
  2
AcDbVisualStyle
  3
ObjectDBX Classes
 90
     4095
 91
       16
280
     0
281
     0
  0
CLASS
  1
TABLESTYLE
  2
AcDbTableStyle
  3
ObjectDBX Classes
 90
     4095
 91
        1
280
     0
281
     0
  0
CLASS
  1
LARGE_RADIAL_DIMENSION
  2
AcDbRadialDimensionLarge
  3
ObjectDBX Classes
 90
     1025
 91
        0
280
     0
281
     1
  0
ENDSEC
  0
SECTION
  2
TABLES
  0
TABLE
  2
VPORT
  5
7
102
{ACAD_XDICTIONARY
360
3A0F
102
}
330
0
100
AcDbSymbolTable
 70
     1
  0
VPORT
  5
15
330
7
100
AcDbSymbolTableRecord
100
AcDbViewportTableRecord
  2
*ACTIVE
 70
     0
 10
0.0
 20
0.0
 11
1.0
 21
1.0
 12
3555.166811790823
 22
456.1779260742787
 13
0.0
 23
0.0
 14
1.0
 24
1.0
 15
0.0
 25
0.0
 16
0.0
 26
0.0
 36
1.0
 17
0.0
 27
0.0
 37
0.0
 40
1700.039722726342
 41
1.927536231884057
 42
50.0
 43
0.0
 44
0.0
 50
0.0
 51
0.0
 71
     0
 72
  2000
 73
     1
 74
     1
 75
     0
 76
     0
 77
     0
 78
     0
281
     0
 65
     0
110
0.0
120
0.0
130
0.0
111
1.0
121
0.0
131
0.0
112
0.0
122
1.0
132
0.0
 79
     0
146
0.0
348
977
 60
     3
 61
     5
292
     1
282
     1
141
0.0
142
0.0
 63
   250
421
  3355443
  0
ENDTAB
  0
TABLE
  2
LTYPE
  5
4
330
0
100
AcDbSymbolTable
 70
     7
  0
LTYPE
  5
11
330
4
100
AcDbSymbolTableRecord
100
AcDbLinetypeTableRecord
  2
ByBlock
 70
     0
  3

 72
    65
 73
     0
 40
0.0
  0
LTYPE
  5
12
330
4
100
AcDbSymbolTableRecord
100
AcDbLinetypeTableRecord
  2
ByLayer
 70
     0
  3

 72
    65
 73
     0
 40
0.0
  0
LTYPE
  5
13
330
4
100
AcDbSymbolTableRecord
100
AcDbLinetypeTableRecord
  2
Continuous
 70
     0
  3
Solid line
 72
    65
 73
     0
 40
0.0
  0
LTYPE
  5
82
330
4
100
AcDbSymbolTableRecord
100
AcDbLinetypeTableRecord
  2
Hidden
 70
     0
  3

 72
    65
 73
     2
 40
0.4166400000000002
 49
0.20828
 74
     0
 49
-0.20836
 74
     0
  0
ENDTAB
  0
TABLE
  2
LAYER
  5
2
102
{ACAD_XDICTIONARY
360
C1E
102
}
330
0
100
AcDbSymbolTable
 70
    14
  0
LAYER
  5
14
330
2
100
AcDbSymbolTableRecord
100
AcDbLayerTableRecord
  2
0
 70
     0
 62
     7
  6
Continuous
370
    -3
390
1D
347
970
  0
LAYER
  5
1102B
330
2
100
AcDbSymbolTableRecord
100
AcDbLayerTableRecord
  2
レイヤー 1
 70
     0
 62
     7
  6
Continuous
370
    -3
390
1D
347
970
  0
ENDTAB
  0
TABLE
  2
STYLE
  5
3
330
0
100
AcDbSymbolTable
 70
     2
  0
STYLE
  5
17
330
3
100
AcDbSymbolTableRecord
100
AcDbTextStyleTableRecord
  2
Standard
 70
     0
 40
0.0
 41
1.0
 50
0.0
 71
     0
 42
0.2
  3

  4

1001
ACAD
1000
MS Gothic
1071
    32817
  0
STYLE
  5
81
330
3
100
AcDbSymbolTableRecord
100
AcDbTextStyleTableRecord
  2
ヒラギノ角ゴ Pro W3
 70
     0
 40
0.0
 41
1.0
 50
0.0
 71
     0
 42
0.0
  3

  4

1001
ACAD
1000
MS Gothic
1071
    32817
  0
ENDTAB
  0
TABLE
  2
VIEW
  5
5
330
0
100
AcDbSymbolTable
 70
     0
  0
ENDTAB
  0
TABLE
  2
UCS
  5
6
330
0
100
AcDbSymbolTable
 70
     0
  0
ENDTAB
  0
TABLE
  2
APPID
  5
8
330
0
100
AcDbSymbolTable
 70
    10
  0
APPID
  5
16
330
8
100
AcDbSymbolTableRecord
100
AcDbRegAppTableRecord
  2
ACAD
 70
     0
  0
APPID
  5
98C
330
8
100
AcDbSymbolTableRecord
100
AcDbRegAppTableRecord
  2
DCO15
 70
     0
  0
APPID
  5
991
330
8
100
AcDbSymbolTableRecord
100
AcDbRegAppTableRecord
  2
ACAD_EXEMPT_FROM_CAD_STANDARDS
 70
     0
  0
APPID
  5
C1D
330
8
100
AcDbSymbolTableRecord
100
AcDbRegAppTableRecord
  2
ACAD_PSEXT
 70
     0
  0
APPID
  5
93A3
330
8
100
AcDbSymbolTableRecord
100
AcDbRegAppTableRecord
  2
ACAD_DSTYLE_DIMJOGGED_JOGANGLE_SYMBOL
 70
     0
  0
APPID
  5
93A4
330
8
100
AcDbSymbolTableRecord
100
AcDbRegAppTableRecord
  2
AcAecLayerStandard
 70
     0
  0
APPID
  5
D99E
330
8
100
AcDbSymbolTableRecord
100
AcDbRegAppTableRecord
  2
ACAD_DSTYLE_DIMEXT_ENABLED
 70
     0
  0
APPID
  5
D99F
330
8
100
AcDbSymbolTableRecord
100
AcDbRegAppTableRecord
  2
ACAD_DSTYLE_DIMEXT_LENGTH
 70
     0
  0
APPID
  5
1102C
330
8
100
AcDbSymbolTableRecord
100
AcDbRegAppTableRecord
  2
AcDbDynamicBlockGUID
 70
     0
  0
APPID
  5
1102D
330
8
100
AcDbSymbolTableRecord
100
AcDbRegAppTableRecord
  2
AcDbBlockRepETag
 70
     0
  0
ENDTAB
  0
TABLE
  2
DIMSTYLE
  5
9
330
0
100
AcDbSymbolTable
 70
     2
100
AcDbDimStyleTable
 71
     1
340
97
  0
DIMSTYLE
105
97
330
9
100
AcDbSymbolTableRecord
100
AcDbDimStyleTableRecord
  2
Yamatoya Detail
 70
     0
  3
<>
  4
[]
 41
1.0
 42
3.0
 43
10.16
 44
3.18
 46
1.59
 73
     0
 74
     0
 77
     1
 78
    11
140
3.0
141
0.0
143
0.0393700787401575
147
1.0
171
     3
172
     1
174
     1
179
     2
271
     0
272
     0
273
     4
274
     3
276
     2
279
     2
284
    11
285
    15
286
    15
289
     0
340
81
341
8F
342
8F
  0
ENDTAB
  0
TABLE
  2
BLOCK_RECORD
  5
1
330
0
100
AcDbSymbolTable
 70
   532
  0
BLOCK_RECORD
  5
A
102
{ACAD_XDICTIONARY
360
9CE
102
}
330
1
100
AcDbSymbolTableRecord
100
AcDbBlockTableRecord
  2
*MODEL_SPACE
340
20
 70
     0
280
     1
281
     0
  0
BLOCK_RECORD
  5
941E4
330
1
100
AcDbSymbolTableRecord
100
AcDbBlockTableRecord
  2
*Paper_Space
340
941E5
 70
     0
280
     1
281
     0
  0
BLOCK_RECORD
  5
8F
330
1
100
AcDbSymbolTableRecord
100
AcDbBlockTableRecord
  2
_DOT
340
0
102
{BLKREFS
331
89959
331
8995A
331
89965
331
89966
331
89971
331
89972
331
8997D
331
8997E
331
8998B
331
8998C
331
8999C
331
8999D
331
899A7
331
899A8
331
899B6
331
899B7
331
899C1
331
899C2
331
899CD
331
899CE
331
899D9
331
899DA
331
899E5
331
899E6
331
899FD
331
899FE
331
89A0B
331
89A0C
331
89A19
331
89A1A
331
89A25
331
89A26
331
89A31
331
89A32
331
89A3D
331
89A3E
331
89A49
331
89A4A
331
89A55
331
89A56
331
89A61
331
89A62
331
89A6D
331
89A6E
331
89A7B
331
89A7C
331
89A87
331
89A88
331
89A95
331
89A96
331
89AA1
331
89AA2
331
89ACA
331
89ACB
331
89AD5
331
89AD6
331
89AE1
331
89AE2
331
89AED
331
89AEE
331
89AF9
331
89AFA
331
89B05
331
89B06
331
89B11
331
89B12
331
89B1D
331
89B1E
331
89B65
331
89B66
331
89C1B
331
89C1C
331
89C27
331
89C28
331
89C35
331
89C36
331
89C41
331
89C42
331
89C4D
331
89C4E
331
89C59
331
89C5A
331
89C67
331
89C68
331
89C75
331
89C76
331
89C83
331
89C84
331
89C8F
331
89C90
331
89C9B
331
89C9C
331
89CA7
331
89CA8
331
89CB3
331
89CB4
331
89CBF
331
89CC0
331
89CCB
331
89CCC
331
89CD7
331
89CD8
331
89CE3
331
89CE4
331
89CFD
331
89CFE
331
89D61
331
89D62
331
89D6D
331
89D6E
331
89E5D
331
89E5E
331
8A1E1
331
8A1E2
331
8A1EE
331
8A1EF
331
8A1F9
331
8A1FA
331
8A206
331
8A207
331
8A211
331
8A212
331
8A21E
331
8A21F
331
8A229
331
8A22A
331
8A236
331
8A237
331
8A241
331
8A242
331
8A27D
331
8A27E
331
8A289
331
8A28A
331
8A296
331
8A297
331
8A2A1
331
8A2A2
331
8A2AE
331
8A2AF
331
8A2B9
331
8A2BA
331
8A2C6
331
8A2C7
331
8A2D1
331
8A2D2
331
8A2DE
331
8A2DF
331
8A2E9
331
8A2EA
331
8A2F5
331
8A2F6
331
8A301
331
8A302
331
8A30D
331
8A30E
331
8A319
331
8A31A
331
8A47D
331
8A47E
331
8A4ED
331
8A4EE
331
8A4F9
331
8A4FA
331
8A625
331
8A626
331
8A633
331
8A634
331
8A641
331
8A642
331
8A7A5
331
8A7A6
331
8A03F
331
8A040
331
8A7B2
331
8A7B3
331
8A7C0
331
8A7C1
331
8A7CE
331
8A7CF
331
8A80E
331
8A80F
331
8A81C
331
8A81D
331
89F8B
331
89F8C
331
89F97
331
89F98
331
89FA3
331
89FA4
331
89FC7
331
89FC8
331
89FD3
331
89FD4
331
89FDF
331
89FE0
331
89FF7
331
89FF8
331
8A003
331
8A004
331
8A033
331
8A034
331
8A04B
331
8A04C
331
8A057
331
8A058
331
8A07B
331
8A07C
331
8A089
331
8A08A
331
8A095
331
8A096
331
8A0A1
331
8A0A2
331
8A0AD
331
8A0AE
331
8A0BC
331
8A0BD
331
8A0C7
331
8A0C8
331
8A0D3
331
8A0D4
331
8A0DF
331
8A0E0
331
8A0EB
331
8A0EC
331
8A0FA
331
8A0FB
331
8A108
331
8A109
331
8A113
331
8A114
331
8A11F
331
8A120
331
8A12B
331
8A12C
331
8A143
331
8A144
331
8A14F
331
8A150
331
8A15B
331
8A15C
331
8A167
331
8A168
331
8A173
331
8A174
331
8A181
331
8A182
331
8A18D
331
8A18E
331
8A199
331
8A19A
331
8A1A5
331
8A1A6
331
8A355
331
8A356
331
8A36D
331
8A36E
331
8A385
331
8A386
331
8A393
331
8969A
331
896A6
331
896A7
331
896B1
331
896B2
331
896BE
331
896BF
331
896CB
331
896CC
331
896DA
331
896DB
331
896E6
331
896E7
331
896F2
331
896F3
331
896FF
331
89700
331
8970C
331
8970D
331
89719
331
8971A
331
89726
331
89727
331
89733
331
89734
331
89740
331
89741
331
8974D
331
8974E
331
8975A
331
8975B
331
89767
331
89768
331
89774
331
89775
331
89781
331
89782
331
8978E
331
8978F
331
8979B
331
8979C
331
897A8
331
897A9
331
897B5
331
897B6
331
897C2
331
897C3
331
897CE
331
897CF
331
897DC
331
897DD
331
897E7
331
897E8
331
897F6
331
897F7
331
89801
331
89802
331
89810
331
89811
331
8981B
331
8981C
331
8982A
331
8982B
331
8987E
331
8987F
331
8988A
331
8988B
331
898A1
331
898A2
331
898AD
331
898AE
331
898BB
331
898BC
331
898C9
331
898CA
331
898DB
331
898DC
331
898E9
331
898EA
331
898F5
331
898F6
331
89900
331
89901
331
8990D
331
8990E
331
89918
331
89919
331
89925
331
89926
331
89933
331
89934
331
89941
331
89942
331
8994D
331
8994E
331
89412
331
8941D
331
8941E
331
89429
331
8942A
331
89435
331
89436
331
89444
331
89445
331
89450
331
89451
331
8945C
331
8945D
331
89469
331
8946A
331
89476
331
89477
331
89483
331
89484
331
89490
331
89491
331
8949E
331
8949F
331
894AC
331
894AD
331
894B8
331
894B9
331
894C5
331
894C6
331
894D2
331
894D3
331
894DF
331
894E0
331
894EC
331
894ED
331
894F8
331
894F9
331
89506
331
89507
331
89511
331
89512
331
89520
331
89521
331
8952B
331
8952C
331
895A6
331
895A7
331
895B1
331
895B2
331
895BE
331
895BF
331
895C9
331
895CA
331
895D6
331
895D7
331
895E1
331
895E2
331
895EE
331
895EF
331
89546
331
89547
331
89551
331
89552
331
8955E
331
8955F
331
89569
331
8956A
331
89576
331
89577
331
89581
331
89582
331
8958E
331
8958F
331
89599
331
8959A
331
89609
331
8960A
331
89616
331
89617
331
89621
331
89622
331
8962E
331
8962F
331
89639
331
8963A
331
89646
331
89647
331
89651
331
89652
331
8965E
331
8965F
331
89669
331
8966A
331
89676
331
89677
331
89681
331
89682
331
8968E
331
8968F
331
89699
331
8A394
331
8A39F
331
8A3A0
331
8A3AB
331
8A3AC
331
8A3C3
331
8A3C4
331
8A3CF
331
8A3D0
331
8A3F5
331
8A3F6
331
8A401
331
8A402
331
8A40D
331
8A40E
331
8A419
331
8A41A
331
8A425
331
8A426
331
8A433
331
8A434
331
8A45A
331
8A45B
331
8A489
331
8A48A
331
8A495
331
8A496
331
8A535
331
8A536
331
8A541
331
8A542
331
8A54D
331
8A54E
331
8A5C5
331
8A5C6
331
8A5F5
331
8A5F6
331
8A683
331
8A684
331
8A6B3
331
8A6B4
331
8A6BF
331
8A6C0
331
8A707
331
8A708
331
8A713
331
8A714
331
8A71F
331
8A720
331
8A72D
331
8A72E
331
8A739
331
8A73A
331
8A745
331
8A746
331
8A751
331
8A752
331
89278
331
89279
331
89283
331
89284
331
89292
331
89293
331
8929E
331
8929F
331
892F1
331
892F2
331
892FD
331
892FE
331
89325
331
89326
331
89331
331
89332
331
8933D
331
8933E
331
89349
331
8934A
331
89386
331
89387
331
89404
331
89405
331
89411
331
8A827
331
8A828
331
8A833
331
8A834
331
8A84B
331
8A84C
331
8A83F
331
8A840
331
89FAF
331
89FB0
331
89FBB
331
89FBC
331
89FEB
331
89FEC
331
8A7DA
331
8A7DB
331
8A57D
331
8A57E
331
8A863
331
8A864
331
8A857
331
8A858
331
8A880
331
8A881
331
8A872
331
8A873
331
8A89A
331
8A89B
331
8A8A8
331
8A8A9
331
8A8B6
331
8A8B7
331
8A8C4
331
8A8C5
331
8A8EA
331
8A8EB
331
8A06F
331
8A070
331
8A8F5
331
8A8F6
331
8AA4F
331
8AA50
331
8AA43
331
8AA44
331
8AA37
331
8AA38
331
8AA2B
331
8AA2C
331
8AA1F
331
8AA20
331
8A9B1
331
8A9B2
331
8A9BD
331
8A9BE
331
8A9A3
331
8A9A4
331
8A997
331
8A998
331
8A989
331
8A98A
331
8A97D
331
8A97E
331
8A96F
331
8A970
331
8A963
331
8A964
331
8A955
331
8A956
331
8A9CC
331
8A9CD
331
8A9D8
331
8A9D9
331
8A9FB
331
8A9FC
331
8AA13
331
8AA14
331
8AA5B
331
8AA5C
331
8AA76
331
8AA77
331
8A9F0
331
8A9F1
331
8AA08
331
8AA09
331
8AA81
331
8AA82
331
8AA90
331
8AA91
331
8AA9B
331
8AA9C
331
8A901
331
8A902
331
8A90D
331
8A90E
331
8A919
331
8A91A
331
8A925
331
8A926
331
8A931
331
8A932
331
8A93D
331
8A93E
331
8AA68
331
8AA69
331
8A949
331
8A94A
331
8A9E3
331
8A9E4
331
89CF2
331
89CF3
331
8A7F1
331
8A7F2
331
895FB
331
895FC
331
89539
331
8953A
331
892CE
331
892CF
331
89379
331
8937A
331
89836
331
89837
331
89391
331
89392
331
893A9
331
893AA
331
8939E
331
8939F
331
8A782
331
8A783
331
8A78E
331
8A78F
331
89B29
331
89B2A
331
89BA3
331
89BA4
331
89B71
331
89B72
331
89B41
331
89B42
331
89C0F
331
89C10
331
899F1
331
899F2
331
8A4C9
331
8A4CA
331
89B97
331
89B98
331
89BAF
331
89BB0
331
8AAB3
331
8AAB4
331
8AABF
331
8AAC0
331
8A65B
331
8A65C
331
8A677
331
8A678
331
8A529
331
8A52A
331
8A137
331
8A138
331
8A1CA
331
8A1CB
331
8A64D
331
8A64E
331
8A6EF
331
8A6F0
331
8A6E3
331
8A6E4
331
8A3E7
331
8A3E8
331
8A3B7
331
8A3B8
331
8A69B
331
8A69C
331
8A690
331
8A691
331
892E5
331
892E6
331
892C1
331
892C2
331
8AACC
331
8AACD
331
893F5
331
893F6
331
893E9
331
893EA
331
893DE
331
893DF
331
893D0
331
893D1
331
893C1
331
893C2
331
893B5
331
893B6
331
892A9
331
892AA
331
892B6
331
892B7
331
892D9
331
892DA
331
89B35
331
89B36
331
89B7D
331
89B7E
331
89B8B
331
89B8C
331
89BBB
331
89BBC
331
89BC7
331
89BC8
331
89BD3
331
89BD4
331
89B4D
331
89B4E
331
89B59
331
89B5A
331
8A8DB
331
8A8DC
331
89F80
331
89F81
331
8A88B
331
8A88C
331
8A4D5
331
8A4D6
331
8A4E1
331
8A4E2
331
8AAD7
331
8AAD8
331
8A063
331
8A064
331
8A8CF
331
8A8D0
331
89E81
331
89E82
331
89F65
331
89F66
331
89F4D
331
89F4E
331
89F35
331
89F36
331
89F1D
331
89F1E
331
89F05
331
89F06
331
89EED
331
89EEE
331
89ED5
331
89ED6
331
89EBD
331
89EBE
331
89EA5
331
89EA6
331
89E9A
331
89E9B
331
89EB2
331
89EB3
331
89ECA
331
89ECB
331
89EE2
331
89EE3
331
89EFA
331
89EFB
331
89F12
331
89F13
331
89F2A
331
89F2B
331
89F42
331
89F43
331
89F5A
331
89F5B
331
89F72
331
89F73
331
89E8D
331
89E8E
331
8A506
331
8A507
331
8A272
331
8A273
331
8A266
331
8A267
331
8A24D
331
8A24E
331
8A259
331
8A25A
331
8A1BD
331
8A1BE
331
8A565
331
8A566
331
8A1D5
331
8A1D6
331
8A1B1
331
8A1B2
331
8A6CB
331
8A6CC
331
8A6D7
331
8A6D8
331
8A6A7
331
8A6A8
331
8A43F
331
8A440
331
8A669
331
8A66A
331
8A3DB
331
8A3DC
331
8A559
331
8A55A
331
8A6FB
331
8A6FC
331
8A511
331
8A512
331
8A51D
331
8A51E
331
8A466
331
8A467
331
8A471
331
8A472
331
8A361
331
8A362
331
8A379
331
8A37A
331
8AAE3
331
8AAE4
331
8A33D
331
8A33E
331
8A349
331
8A34A
331
8A331
331
8A332
331
8AAEF
331
8AAF0
331
8AAFB
331
8AAFC
331
89D91
331
89D92
331
89D9E
331
89D9F
331
89DA9
331
89DAA
331
89DB6
331
89DB7
331
89DC1
331
89DC2
331
89DCE
331
89DCF
331
89DD9
331
89DDA
331
89DE6
331
89DE7
331
89DF1
331
89DF2
331
89DFE
331
89DFF
331
89E09
331
89E0A
331
89E16
331
89E17
331
89E21
331
89E22
331
89E2E
331
89E2F
331
89E39
331
89E3A
331
89E46
331
89E47
331
89E69
331
89E6A
331
8A595
331
8A596
331
8A5A1
331
8A5A2
331
8A5AD
331
8A5AE
331
8A5BA
331
8A5BB
331
8A7E6
331
8A7E7
331
8A589
331
8A58A
331
89E51
331
89E52
331
8A5DD
331
8A5DE
331
8AAA7
331
8AAA8
331
8A7FF
331
8A800
331
8A44B
331
8A44C
331
8AB09
331
8AB0A
331
8A00F
331
8A010
331
8A01B
331
8A01C
331
8AB15
331
8AB16
331
8AB21
331
8AB22
331
8936D
331
8936E
331
89361
331
89362
331
8A799
331
8A79A
331
8A769
331
8A76A
331
8A775
331
8A776
331
8AB2D
331
8AB2E
331
8AB45
331
8AB46
331
8AB39
331
8AB3A
331
89D0C
331
89D0D
331
89D1A
331
89D1B
331
89D26
331
89D27
331
89D31
331
89D32
331
89D3E
331
89D3F
331
89D49
331
89D4A
331
89D56
331
89D57
331
8AB52
331
8AB53
331
8AB5E
331
8AB5F
331
89AAD
331
89AAE
331
89AB9
331
89ABA
331
8AB81
331
8AB82
331
8AB75
331
8AB76
331
8AB69
331
8AB6A
331
8A571
331
8A572
331
89C03
331
89C04
331
8A325
331
8A326
331
8A027
331
8A028
331
8A5D1
331
8A5D2
331
8ABA9
331
8ABAA
331
8ABB6
331
8ABB7
331
8ABD9
331
8ABDA
331
8ABE8
331
8ABE9
331
89355
331
89356
331
89842
331
89843
331
8A4A1
331
8A4A2
331
8A4B0
331
8A4B1
331
8A4BD
331
8A4BE
331
8AB9E
331
8AB9F
331
89BEB
331
89BEC
331
8AB90
331
8AB91
331
89BF7
331
89BF8
331
8A75E
331
8A75F
331
89BDF
331
89BE0
331
8ABCD
331
8ABCE
331
8ABC1
331
8ABC2
331
89309
331
8930A
331
89317
331
89318
331
8984D
331
8984E
331
89859
331
8985A
331
89865
331
89866
331
89871
331
89872
331
89895
331
89896
331
89D79
331
89D7A
331
89D85
331
89D86
331
89E75
331
89E76
331
8A5E9
331
8A5EA
331
8A619
331
8A61A
331
8A60D
331
8A60E
331
8A601
331
8A602
102
}
 70
     0
280
     1
281
     0
  0
ENDTAB
  0
ENDSEC
  0
SECTION
  2
BLOCKS
  0
BLOCK
  5
D
330
A
100
AcDbEntity
  8
0
100
AcDbBlockBegin
  2
*MODEL_SPACE
 70
     0
 10
0.0
 20
0.0
 30
0.0
  3
*MODEL_SPACE
  1

  0
ENDBLK
  5
E
330
A
100
AcDbEntity
  8
0
100
AcDbBlockEnd
  0
BLOCK
  5
941E6
330
941E4
100
AcDbEntity
 67
     1
  8
0
 62
     5
100
AcDbBlockBegin
  2
*Paper_Space
 70
     0
 10
0.0
 20
0.0
 30
0.0
  3
*Paper_Space
  1

  0
ENDBLK
  5
941E7
330
941E4
100
AcDbEntity
 67
     1
  8
0
 62
     5
100
AcDbBlockEnd
  0
BLOCK
  5
90
330
8F
100
AcDbEntity
  8
0
 62
     5
100
AcDbBlockBegin
  2
_DOT
 70
     0
 10
0.0
 20
0.0
 30
0.0
  3
_DOT
  1

  0
POLYLINE
  5
91
330
8F
100
AcDbEntity
  8
0
  6
ByBlock
 62
     0
370
    -2
100
AcDb2dPolyline
 66
     1
 10
0.0
 20
0.0
 30
0.0
 70
     1
 40
0.5
 41
0.5
  0
VERTEX
  5
92
330
91
100
AcDbEntity
  8
0
  6
ByBlock
 62
     0
370
    -2
100
AcDbVertex
100
AcDb2dVertex
 10
-0.25
 20
0.0
 30
0.0
 42
1.0
  0
VERTEX
  5
93
330
91
100
AcDbEntity
  8
0
  6
ByBlock
 62
     0
370
    -2
100
AcDbVertex
100
AcDb2dVertex
 10
0.25
 20
0.0
 30
0.0
 42
1.0
  0
SEQEND
  5
94
330
91
100
AcDbEntity
  8
0
  0
LINE
  5
95
330
8F
100
AcDbEntity
  8
0
  6
ByBlock
 62
     0
370
    -2
100
AcDbLine
 10
-0.5
 20
0.0
 30
0.0
 11
-1.0
 21
0.0
 31
0.0
  0
ENDBLK
  5
96
330
8F
100
AcDbEntity
  8
0
100
AcDbBlockEnd
  0
ENDSEC
  0
SECTION
  2
ENTITIES
  0
LINE
  5
2056D
330
A
100
AcDbEntity
  8
レイヤー 1
  6
Continuous
 62
     7
 48
5.0
370
    25
100
AcDbLine
 10
4493.073197318944
 20
342.9043798299523
 30
0.0
 11
4493.524397318947
 21
356.6270998299539
 31
0.0
  0
LINE
  5
2056E
330
A
100
AcDbEntity
  8
レイヤー 1
  6
Continuous
 62
     7
 48
5.0
370
    25
100
AcDbLine
 10
4502.524397318947
 20
356.6272198299509
 30
0.0
 11
4502.974397318944
 21
342.9043798299523
 31
0.0
  0
LINE
  5
205BC
330
A
100
AcDbEntity
  8
レイヤー 1
  6
Continuous
 62
     7
 48
5.0
370
    25
100
AcDbLine
 10
4502.423597318951
 20
388.6274327518439
 30
0.0
 11
4502.423597318951
 21
383.6283072835755
 31
0.0
  0
LINE
  5
205BD
330
A
100
AcDbEntity
  8
レイヤー 1
  6
Continuous
 62
     7
 48
5.0
370
    25
100
AcDbLine
 10
4493.623997318946
 20
388.6274327518439
 30
0.0
 11
4493.623997318946
 21
383.6282771855006
 31
0.0
  0
ARC
  5
205D7
330
A
100
AcDbEntity
  8
レイヤー 1
  6
Continuous
 62
     7
 48
5.0
370
    25
100
AcDbCircle
 10
4498.024397318947
 20
354.6270598299514
 30
0.0
 40
20.000004
100
AcDbArc
 50
245.0989999999897
 51
294.9010999999984
  0
ARC
  5
205D8
330
A
100
AcDbEntity
  8
レイヤー 1
  6
Continuous
 62
     7
 48
5.0
370
    25
100
AcDbCircle
 10
4506.023597318946
 20
337.3933798299538
 30
0.0
 40
0.99999996
100
AcDbArc
 50
294.9010999999984
 51
71.05578999999647
  0
ARC
  5
205D9
330
A
100
AcDbEntity
  8
レイヤー 1
  6
Continuous
 62
     7
 48
5.0
370
    25
100
AcDbCircle
 10
4507.97239731895
 20
343.0685398299526
 30
0.0
 40
5.000000400000001
100
AcDbArc
 50
181.8807000000082
 51
251.0557999999944
  0
ARC
  5
205DA
330
A
100
AcDbEntity
  8
レイヤー 1
  6
Continuous
 62
     7
 48
5.0
370
    25
100
AcDbCircle
 10
4490.023997318949
 20
337.3933798299538
 30
0.0
 40
0.99999996
100
AcDbArc
 50
108.9442999999986
 51
245.0989999999897
  0
ARC
  5
205DB
330
A
100
AcDbEntity
  8
レイヤー 1
  6
Continuous
 62
     7
 48
5.0
370
    25
100
AcDbCircle
 10
4488.076397318951
 20
343.0685398299526
 30
0.0
 40
5.000000400000001
100
AcDbArc
 50
288.9442999999986
 51
358.1194000000014
  0
LINE
  5
20BE5
330
A
100
AcDbEntity
  8
レイヤー 1
  6
Continuous
 62
     7
 48
5.0
370
    50
100
AcDbLine
 10
1294.901226741225
 20
-135.4094219127944
 30
0.0
 11
1294.900758336127
 21
5.62721256682007
 31
0.0
  0
LINE
  5
20BF8
330
A
100
AcDbEntity
  8
レイヤー 1
  6
Continuous
 62
     7
 48
5.0
370
    50
100
AcDbLine
 10
1294.900366940295
 20
780.8496825594708
 30
0.0
 11
1294.900758336126
 21
2.627012566821485
 31
0.0
  0
LINE
  5
20C21
330
A
100
AcDbEntity
  8
レイヤー 1
  6
Continuous
 62
     7
 48
5.0
370
    50
100
AcDbLine
 10
1271.901158236526
 20
-137.3730274331775
 30
0.0
 11
1292.901558236524
 21
-137.3730274331775
 31
0.0
  0
LINE
  5
20C30
330
A
100
AcDbEntity
  8
レイヤー 1
  6
Continuous
 62
     7
 48
5.0
370
    50
100
AcDbLine
 10
2194.900657516161
 20
2.628092887835029
 30
0.0
 11
2194.900193295344
 21
-135.4085813857573
 31
0.0
  0
LINE
  5
2138B
330
A
100
AcDbEntity
  8
レイヤー 1
  6
Continuous
 62
     7
 48
5.0
370
    50
100
AcDbLine
 10
5049.52570056654
 20
415.627432751844
 30
0.0
 11
5049.52570056654
 21
772.6277527518432
 31
0.0
  0
LINE
  5
2138D
330
A
100
AcDbEntity
  8
レイヤー 1
  6
Continuous
 62
     7
 48
5.0
370
    50
100
AcDbLine
 10
4152.525700566541
 20
772.6277527518432
 30
0.0
 11
4152.525700566541
 21
415.6274327518437
 31
0.0
  0
LINE
  5
2139E
330
A
100
AcDbEntity
  8
レイヤー 1
  6
Continuous
 62
     7
 48
5.0
370
    50
100
AcDbLine
 10
5022.525700566541
 20
738.6277527518432
 30
0.0
 11
5022.525700566539
 21
415.6274327518438
 31
0.0
  0
LINE
  5
2139F
330
A
100
AcDbEntity
  8
レイヤー 1
  6
Continuous
 62
     7
 48
5.0
370
    50
100
AcDbLine
 10
4179.525700566538
 20
415.6274327518437
 30
0.0
 11
4179.525700566539
 21
738.6277527518432
 31
0.0
  0
LINE
  5
2148A
330
A
100
AcDbEntity
  8
レイヤー 1
  6
Continuous
 62
     7
 48
5.0
370
    50
100
AcDbLine
 10
2196.899857416555
 20
-137.3719471121639
 30
0.0
 11
2217.900257016559
 21
-137.3719471121639
 31
0.0
  0
ARC
  5
22955
330
A
100
AcDbEntity
  8
レイヤー 1
  6
Continuous
 62
     7
 48
5.0
370
    50
100
AcDbCircle
 10
1292.901558236524
 20
-135.3729874331785
 30
0.0
 40
2.0000004
100
AcDbArc
 50
270.0
 51
0.0
  0
ARC
  5
22956
330
A
100
AcDbEntity
  8
レイヤー 1
  6
Continuous
 62
     7
 48
5.0
370
    50
100
AcDbCircle
 10
2217.900257016559
 20
-135.3719071121649
 30
0.0
 40
2.0000004
100
AcDbArc
 50
270.0
 51
0.0
  0
ARC
  5
22957
330
A
100
AcDbEntity
  8
レイヤー 1
  6
Continuous
 62
     7
 48
5.0
370
    50
100
AcDbCircle
 10
2196.899857416555
 20
-135.3719071121649
 30
0.0
 40
2.0000004
100
AcDbArc
 50
180.0
 51
270.0
  0
ARC
  5
23047
330
A
100
AcDbEntity
  8
レイヤー 1
  6
Continuous
 62
     7
370
    50
100
AcDbCircle
 10
4361.521019220208
 20
8.627455969498083
 30
0.0
 40
2.0
100
AcDbArc
 50
180.0
 51
270.0
  0
LINE
  5
23A10
330
A
100
AcDbEntity
  8
レイヤー 1
  6
Continuous
 62
     7
 48
5.0
370
    30
100
AcDbLine
 10
1274.399812352607
 20
-138.9293120357786
 30
0.0
 11
1278.399812352256
 21
-138.9293655092529
 31
0.0
  0
LINE
  5
23A11
330
A
100
AcDbEntity
  8
レイヤー 1
  6
Continuous
 62
     7
 48
5.0
370
    30
100
AcDbLine
 10
1274.399833741996
 20
-137.3293120359231
 30
0.0
 11
1274.399812352607
 21
-138.9293120357786
 31
0.0
  0
LINE
  5
23A12
330
A
100
AcDbEntity
  8
レイヤー 1
  6
Continuous
 62
     7
100
AcDbLine
 10
1272.89983374213
 20
-137.3292919833702
 30
0.0
 11
1276.89983374178
 21
-137.3293454568445
 31
0.0
  0
LINE
  5
23A14
330
A
100
AcDbEntity
  8
レイヤー 1
  6
Continuous
 62
     7
 48
5.0
370
    30
100
AcDbLine
 10
1286.399812351541
 20
-138.9294724562015
 30
0.0
 11
1290.39881235118
 21
-138.9295259163076
 31
0.0
  0
LINE
  5
23A15
330
A
100
AcDbEntity
  8
レイヤー 1
  6
Continuous
 62
     7
 48
5.0
370
    30
100
AcDbLine
 10
1290.39883374057
 20
-137.329525916452
 30
0.0
 11
1290.39881235118
 21
-138.9295259163076
 31
0.0
  0
LINE
  5
23A16
330
A
100
AcDbEntity
  8
レイヤー 1
  6
Continuous
 62
     7
100
AcDbLine
 10
1284.899833741065
 20
-137.3294524037931
 30
0.0
 11
1288.898833740704
 21
-137.3295058638991
 31
0.0
  0
LINE
  5
23A18
330
A
100
AcDbEntity
  8
レイヤー 1
  6
Continuous
 62
     7
100
AcDbLine
 10
1276.89983374178
 20
-137.3293454568445
 30
0.0
 11
1284.899833741065
 21
-137.3294524037931
 31
0.0
  0
LINE
  5
23A19
330
A
100
AcDbEntity
  8
レイヤー 1
  6
Continuous
 62
     7
 48
5.0
370
    30
100
AcDbLine
 10
1278.399812352256
 20
-138.9293655092529
 30
0.0
 11
1286.399812351541
 21
-138.9294724562015
 31
0.0
  0
LINE
  5
23AE2
330
A
100
AcDbEntity
  8
レイヤー 1
  6
Continuous
 62
     7
 48
5.0
370
    30
100
AcDbLine
 10
1275.971772247368
 20
-141.9293330505896
 30
0.0
 11
1275.971812352473
 21
-138.9293330508539
 31
0.0
  0
LINE
  5
23AE3
330
A
100
AcDbEntity
  8
レイヤー 1
  6
Continuous
 62
     7
 48
5.0
370
    30
100
AcDbLine
 10
1282.399772246793
 20
-141.9294189824629
 30
0.0
 11
1282.399833741288
 21
-137.3294189828717
 31
0.0
  0
LINE
  5
23AE4
330
A
100
AcDbEntity
  8
レイヤー 1
  6
Continuous
 62
     7
 48
5.0
370
    30
100
AcDbLine
 10
1288.826772246215
 20
-141.9295049009678
 30
0.0
 11
1288.826812351321
 21
-138.9295049012322
 31
0.0
  0
CIRCLE
  5
23AE5
330
A
100
AcDbEntity
  8
レイヤー 1
  6
Continuous
 62
     7
 48
5.0
370
    30
100
AcDbCircle
 10
1297.783416446287
 20
-168.5446246390685
 30
0.0
 40
20.38460999999999
  0
ARC
  5
23AE6
330
A
100
AcDbEntity
  8
レイヤー 1
  6
Continuous
 62
     7
 48
5.0
370
    30
100
AcDbCircle
 10
1276.303318752165
 20
-175.8523374858556
 30
0.0
 40
1.153845999999999
100
AcDbArc
 50
199.9972340489049
 51
29.39672404891233
  0
LINE
  5
23AE7
330
A
100
AcDbEntity
  8
レイヤー 1
  6
Continuous
 62
     7
 48
5.0
370
    30
100
AcDbLine
 10
1277.30832631857
 20
-175.2863509211177
 30
0.0
 11
1278.644326318453
 21
-175.2863687812581
 31
0.0
  0
LINE
  5
23AE8
330
A
100
AcDbEntity
  8
レイヤー 1
  6
Continuous
 62
     7
 48
5.0
370
    30
100
AcDbLine
 10
1287.898706540766
 20
-146.8444924946834
 30
0.0
 11
1287.898745509561
 21
-143.9294924949393
 31
0.0
  0
LINE
  5
23AE9
330
A
100
AcDbEntity
  8
レイヤー 1
  6
Continuous
 62
     7
 48
5.0
370
    30
100
AcDbLine
 10
1276.89957031807
 20
-157.0343454550819
 30
0.0
 11
1276.89974551054
 21
-143.9293454562533
 31
0.0
  0
ARC
  5
23AEA
330
A
100
AcDbEntity
  8
レイヤー 1
  6
Continuous
 62
     7
 48
5.0
370
    30
100
AcDbCircle
 10
1297.783416446287
 20
-168.5446246390685
 30
0.0
 40
23.84615
100
AcDbArc
 50
341.1518340489083
 51
198.8466340488941
  0
ARC
  5
23AEB
330
A
100
AcDbEntity
  8
レイヤー 1
  6
Continuous
 62
     7
 48
5.0
370
    30
100
AcDbCircle
 10
1297.783416446287
 20
-168.5446246390685
 30
0.0
 40
21.53845999999999
100
AcDbArc
 50
341.7750340488924
 51
198.7880340489078
  0
LINE
  5
23AEC
330
A
100
AcDbEntity
  8
レイヤー 1
  6
Continuous
 62
     7
 48
5.0
370
    30
100
AcDbLine
 10
1276.753357172821
 20
-172.9783435018785
 30
0.0
 11
1277.887357172718
 21
-172.9783586616084
 31
0.0
  0
ARC
  5
23AED
330
A
100
AcDbEntity
  8
レイヤー 1
  6
Continuous
 62
     7
 48
5.0
370
    30
100
AcDbCircle
 10
1319.263318748333
 20
-175.8529117909699
 30
0.0
 40
1.153845999999999
100
AcDbArc
 50
150.6017340488931
 51
340.0012340488974
  0
LINE
  5
23AEE
330
A
100
AcDbEntity
  8
レイヤー 1
  6
Continuous
 62
     7
 48
5.0
370
    30
100
AcDbLine
 10
1316.922326315031
 20
-175.2868804956707
 30
0.0
 11
1318.259326314918
 21
-175.2868983691795
 31
0.0
  0
LINE
  5
23AEF
330
A
100
AcDbEntity
  8
レイヤー 1
  6
Continuous
 62
     7
 48
5.0
370
    30
100
AcDbLine
 10
1317.680357169167
 20
-172.9788906290994
 30
0.0
 11
1318.814357169056
 21
-172.9789057888294
 31
0.0
  0
LINE
  5
23AF0
330
A
100
AcDbEntity
  8
レイヤー 1
  6
Continuous
 62
     7
 48
5.0
370
    30
100
AcDbLine
 10
1275.971772247368
 20
-141.9293330505896
 30
0.0
 11
1288.826772246215
 21
-141.9295049009678
 31
0.0
  0
LINE
  5
23AF1
330
A
100
AcDbEntity
  8
レイヤー 1
  6
Continuous
 62
     7
 48
5.0
370
    30
100
AcDbLine
 10
1286.399772246435
 20
-141.9294724559372
 30
0.0
 11
1286.399745509698
 21
-143.9294724557548
 31
0.0
  0
LINE
  5
23AF2
330
A
100
AcDbEntity
  8
レイヤー 1
  6
Continuous
 62
     7
 48
5.0
370
    30
100
AcDbLine
 10
1278.39977224715
 20
-141.9293655089886
 30
0.0
 11
1278.399745510413
 21
-143.9293655088062
 31
0.0
  0
LINE
  5
23AF3
330
A
100
AcDbEntity
  8
レイヤー 1
  6
Continuous
 62
     7
 48
5.0
370
    30
100
AcDbLine
 10
1276.89974551054
 20
-143.9293454562533
 30
0.0
 11
1287.898745509561
 21
-143.9294924949393
 31
0.0
  0
ARC
  5
23AF4
330
A
100
AcDbEntity
  8
レイヤー 1
  6
Continuous
 62
     7
 48
5.0
370
    30
100
AcDbCircle
 10
1325.098558897184
 20
-157.8889897970022
 30
0.0
 40
9.999999999999996
100
AcDbArc
 50
85.13671404887844
 51
153.1325340489175
  0
ARC
  5
23AF5
330
A
100
AcDbEntity
  8
レイヤー 1
  6
Continuous
 62
     7
 48
5.0
370
    30
100
AcDbCircle
 10
1325.098558897184
 20
-157.8889897970022
 30
0.0
 40
7.499999999999997
100
AcDbArc
 50
85.13671404887844
 51
163.4596340489065
  0
ARC
  5
23AF6
330
A
100
AcDbEntity
  8
レイヤー 1
  6
Continuous
 62
     7
 48
5.0
370
    30
100
AcDbCircle
 10
1325.840675442553
 20
-149.1709997171136
 30
0.0
 40
1.249999999999998
100
AcDbArc
 50
265.1367340488837
 51
85.13673404888363
  0
ARC
  5
241B9
330
A
100
AcDbEntity
  8
レイヤー 1
  6
Continuous
 62
     7
 48
5.0
370
    50
100
AcDbCircle
 10
4362.521019220206
 20
381.6274559694982
 30
0.0
 40
2.0
100
AcDbArc
 50
90.0
 51
180.0
  0
LINE
  5
241C2
330
A
100
AcDbEntity
  8
レイヤー 1
  6
Continuous
 62
     7
370
    30
100
AcDbLine
 10
2199.398111423175
 20
-138.9446079555838
 30
0.0
 11
2203.398111422826
 21
-138.9446614290581
 31
0.0
  0
LINE
  5
241C3
330
A
100
AcDbEntity
  8
レイヤー 1
  6
Continuous
 62
     7
370
    30
100
AcDbLine
 10
2199.398132812566
 20
-137.3446079557282
 30
0.0
 11
2199.398111423175
 21
-138.9446079555838
 31
0.0
  0
LINE
  5
241C4
330
A
100
AcDbEntity
  8
レイヤー 1
  6
Continuous
 62
     7
370
    30
100
AcDbLine
 10
2211.398111422111
 20
-138.9447683760068
 30
0.0
 11
2215.39711142175
 21
-138.9448218361127
 31
0.0
  0
LINE
  5
241C5
330
A
100
AcDbEntity
  8
レイヤー 1
  6
Continuous
 62
     7
370
    30
100
AcDbLine
 10
2215.397132811139
 20
-137.3448218362572
 30
0.0
 11
2215.39711142175
 21
-138.9448218361127
 31
0.0
  0
LINE
  5
241C6
330
A
100
AcDbEntity
  8
レイヤー 1
  6
Continuous
 62
     7
370
    30
100
AcDbLine
 10
2203.398111422826
 20
-138.9446614290581
 30
0.0
 11
2211.398111422111
 21
-138.9447683760068
 31
0.0
  0
LINE
  5
241C7
330
A
100
AcDbEntity
  8
レイヤー 1
  6
Continuous
 62
     7
370
    30
100
AcDbLine
 10
2200.970071317937
 20
-141.9446289703948
 30
0.0
 11
2200.970111423043
 21
-138.9446289706592
 31
0.0
  0
LINE
  5
241C8
330
A
100
AcDbEntity
  8
レイヤー 1
  6
Continuous
 62
     7
370
    30
100
AcDbLine
 10
2207.398071317363
 20
-141.944714902268
 30
0.0
 11
2207.398132811858
 21
-137.3447149026769
 31
0.0
  0
LINE
  5
241C9
330
A
100
AcDbEntity
  8
レイヤー 1
  6
Continuous
 62
     7
370
    30
100
AcDbLine
 10
2213.825071316784
 20
-141.9448008207729
 30
0.0
 11
2213.82511142189
 21
-138.9448008210373
 31
0.0
  0
CIRCLE
  5
241CA
330
A
100
AcDbEntity
  8
レイヤー 1
  6
Continuous
 62
     7
370
    30
100
AcDbCircle
 10
2222.781715516855
 20
-168.5599205588736
 30
0.0
 40
20.38460999999999
  0
ARC
  5
241CB
330
A
100
AcDbEntity
  8
レイヤー 1
  6
Continuous
 62
     7
370
    30
100
AcDbCircle
 10
2201.301617822735
 20
-175.8676334056608
 30
0.0
 40
1.153845999999999
100
AcDbArc
 50
199.9972340489049
 51
29.39672404891302
  0
LINE
  5
241CC
330
A
100
AcDbEntity
  8
レイヤー 1
  6
Continuous
 62
     7
370
    30
100
AcDbLine
 10
2202.306625389138
 20
-175.3016468409228
 30
0.0
 11
2203.642625389022
 21
-175.3016647010633
 31
0.0
  0
LINE
  5
241CD
330
A
100
AcDbEntity
  8
レイヤー 1
  6
Continuous
 62
     7
370
    30
100
AcDbLine
 10
2212.897005611335
 20
-146.8597884144885
 30
0.0
 11
2212.89704458013
 21
-143.9447884147445
 31
0.0
  0
LINE
  5
241CE
330
A
100
AcDbEntity
  8
レイヤー 1
  6
Continuous
 62
     7
370
    30
100
AcDbLine
 10
2201.897869388639
 20
-157.049641374887
 30
0.0
 11
2201.898044581109
 21
-143.9446413760585
 31
0.0
  0
ARC
  5
241CF
330
A
100
AcDbEntity
  8
レイヤー 1
  6
Continuous
 62
     7
370
    30
100
AcDbCircle
 10
2222.781715516855
 20
-168.5599205588736
 30
0.0
 40
23.84615
100
AcDbArc
 50
341.1518340489083
 51
198.8466340488926
  0
ARC
  5
241D0
330
A
100
AcDbEntity
  8
レイヤー 1
  6
Continuous
 62
     7
370
    30
100
AcDbCircle
 10
2222.781715516855
 20
-168.5599205588736
 30
0.0
 40
21.53845999999999
100
AcDbArc
 50
341.7750340488938
 51
198.7880340489078
  0
LINE
  5
241D1
330
A
100
AcDbEntity
  8
レイヤー 1
  6
Continuous
 62
     7
370
    30
100
AcDbLine
 10
2201.75165624339
 20
-172.9936394216837
 30
0.0
 11
2202.885656243287
 21
-172.9936545814136
 31
0.0
  0
ARC
  5
241D2
330
A
100
AcDbEntity
  8
レイヤー 1
  6
Continuous
 62
     7
370
    30
100
AcDbCircle
 10
2244.261617818902
 20
-175.8682077107751
 30
0.0
 40
1.153845999999999
100
AcDbArc
 50
150.6017340488922
 51
340.0012340488974
  0
LINE
  5
241D3
330
A
100
AcDbEntity
  8
レイヤー 1
  6
Continuous
 62
     7
370
    30
100
AcDbLine
 10
2241.9206253856
 20
-175.3021764154759
 30
0.0
 11
2243.257625385487
 21
-175.3021942889847
 31
0.0
  0
LINE
  5
241D4
330
A
100
AcDbEntity
  8
レイヤー 1
  6
Continuous
 62
     7
370
    30
100
AcDbLine
 10
2242.678656239736
 20
-172.9941865489046
 30
0.0
 11
2243.812656239626
 21
-172.9942017086346
 31
0.0
  0
LINE
  5
241D5
330
A
100
AcDbEntity
  8
レイヤー 1
  6
Continuous
 62
     7
370
    30
100
AcDbLine
 10
2200.970071317937
 20
-141.9446289703948
 30
0.0
 11
2213.825071316784
 21
-141.9448008207729
 31
0.0
  0
LINE
  5
241D6
330
A
100
AcDbEntity
  8
レイヤー 1
  6
Continuous
 62
     7
370
    30
100
AcDbLine
 10
2211.398071317006
 20
-141.9447683757423
 30
0.0
 11
2211.398044580268
 21
-143.94476837556
 31
0.0
  0
LINE
  5
241D7
330
A
100
AcDbEntity
  8
レイヤー 1
  6
Continuous
 62
     7
370
    30
100
AcDbLine
 10
2203.398071317721
 20
-141.9446614287936
 30
0.0
 11
2203.398044580982
 21
-143.9446614286114
 31
0.0
  0
LINE
  5
241D8
330
A
100
AcDbEntity
  8
レイヤー 1
  6
Continuous
 62
     7
370
    30
100
AcDbLine
 10
2201.898044581109
 20
-143.9446413760585
 30
0.0
 11
2212.89704458013
 21
-143.9447884147445
 31
0.0
  0
ARC
  5
241D9
330
A
100
AcDbEntity
  8
レイヤー 1
  6
Continuous
 62
     7
370
    30
100
AcDbCircle
 10
2250.096857967753
 20
-157.9042857168073
 30
0.0
 40
9.999999999999996
100
AcDbArc
 50
85.13671404887844
 51
153.1325340489175
  0
ARC
  5
241DA
330
A
100
AcDbEntity
  8
レイヤー 1
  6
Continuous
 62
     7
370
    30
100
AcDbCircle
 10
2250.096857967753
 20
-157.9042857168073
 30
0.0
 40
7.499999999999997
100
AcDbArc
 50
85.13671404887844
 51
163.4596340489073
  0
ARC
  5
241DB
330
A
100
AcDbEntity
  8
レイヤー 1
  6
Continuous
 62
     7
370
    30
100
AcDbCircle
 10
2250.838974513122
 20
-149.1862956369187
 30
0.0
 40
1.249999999999998
100
AcDbArc
 50
265.1367340488837
 51
85.13673404888363
  0
LINE
  5
2C2A2
330
A
100
AcDbEntity
  8
レイヤー 1
  6
Continuous
 62
     7
 48
5.0
370
    50
100
AcDbLine
 10
1269.901158279814
 20
780.8109816853317
 30
0.0
 11
1269.901158330607
 21
-135.3736408852001
 31
0.0
  0
ARC
  5
2C2A9
330
A
100
AcDbEntity
  8
レイヤー 1
  6
Continuous
 62
     7
 48
5.0
370
    50
100
AcDbCircle
 10
1271.901158636526
 20
-135.3730274331775
 30
0.0
 40
2.0000004
100
AcDbArc
 50
180.0
 51
270.0
  0
LINE
  5
2C31B
330
A
100
AcDbEntity
  8
レイヤー 1
  6
Continuous
 62
     7
 48
5.0
370
    50
100
AcDbLine
 10
2219.90025741656
 20
-135.3719071121649
 30
0.0
 11
2219.900257516163
 21
384.6293971219651
 31
0.0
  0
LINE
  5
2C338
330
A
100
AcDbEntity
  8
レイヤー 1
  6
Continuous
 62
     7
 48
5.0
370
    50
100
AcDbLine
 10
2194.901057459568
 20
780.8516246774234
 30
0.0
 11
2194.900657516161
 21
384.6279714217442
 31
0.0
  0
LINE
  5
2C346
330
A
100
AcDbEntity
  8
レイヤー 1
  6
Continuous
 62
     7
 48
5.0
370
    50
100
AcDbLine
 10
4151.02616478732
 20
-135.4091106603043
 30
0.0
 11
4151.025700566541
 21
2.627552751848256
 31
0.0
  0
LINE
  5
2C349
330
A
100
AcDbEntity
  8
レイヤー 1
  6
Continuous
 62
     7
 48
5.0
370
    50
100
AcDbLine
 10
4128.026100466941
 20
-137.3724872481507
 30
0.0
 11
4149.026500466938
 21
-137.3724872481507
 31
0.0
  0
ARC
  5
2C34E
330
A
100
AcDbEntity
  8
レイヤー 1
  6
Continuous
 62
     7
 48
5.0
370
    50
100
AcDbCircle
 10
4149.026500466938
 20
-135.3724472481517
 30
0.0
 40
2.0000004
100
AcDbArc
 50
270.0
 51
0.0
  0
ARC
  5
2C44F
330
A
100
AcDbEntity
  8
レイヤー 1
  6
Continuous
 62
     7
 48
5.0
370
    50
100
AcDbCircle
 10
4128.026100866941
 20
-135.3724872481507
 30
0.0
 40
2.0000004
100
AcDbArc
 50
180.0
 51
270.0
  0
LINE
  5
2C46F
330
A
100
AcDbEntity
  8
レイヤー 1
  6
Continuous
 62
     7
 48
5.0
370
    30
100
AcDbLine
 10
4130.524754321617
 20
-138.9678797171832
 30
0.0
 11
4134.524754321266
 21
-138.9679331906576
 31
0.0
  0
LINE
  5
2C470
330
A
100
AcDbEntity
  8
レイヤー 1
  6
Continuous
 62
     7
 48
5.0
370
    30
100
AcDbLine
 10
4130.524775711005
 20
-137.3678797173277
 30
0.0
 11
4130.524754321617
 21
-138.9678797171832
 31
0.0
  0
LINE
  5
2C471
330
A
100
AcDbEntity
  8
レイヤー 1
  6
Continuous
 62
     7
 48
5.0
370
    30
100
AcDbLine
 10
4142.524754320551
 20
-138.9680401376062
 30
0.0
 11
4146.52375432019
 21
-138.9680935977122
 31
0.0
  0
LINE
  5
2C472
330
A
100
AcDbEntity
  8
レイヤー 1
  6
Continuous
 62
     7
 48
5.0
370
    30
100
AcDbLine
 10
4146.523775709579
 20
-137.3680935978565
 30
0.0
 11
4146.52375432019
 21
-138.9680935977122
 31
0.0
  0
LINE
  5
2C473
330
A
100
AcDbEntity
  8
レイヤー 1
  6
Continuous
 62
     7
 48
5.0
370
    30
100
AcDbLine
 10
4134.524754321266
 20
-138.9679331906576
 30
0.0
 11
4142.524754320551
 21
-138.9680401376062
 31
0.0
  0
LINE
  5
2C474
330
A
100
AcDbEntity
  8
レイヤー 1
  6
Continuous
 62
     7
 48
5.0
370
    30
100
AcDbLine
 10
4132.096714216377
 20
-141.9679007319942
 30
0.0
 11
4132.096754321483
 21
-138.9679007322586
 31
0.0
  0
LINE
  5
2C475
330
A
100
AcDbEntity
  8
レイヤー 1
  6
Continuous
 62
     7
 48
5.0
370
    30
100
AcDbLine
 10
4138.524714215804
 20
-141.9679866638675
 30
0.0
 11
4138.524775710298
 21
-137.3679866642763
 31
0.0
  0
LINE
  5
2C476
330
A
100
AcDbEntity
  8
レイヤー 1
  6
Continuous
 62
     7
 48
5.0
370
    30
100
AcDbLine
 10
4144.951714215225
 20
-141.9680725823724
 30
0.0
 11
4144.951754320331
 21
-138.9680725826368
 31
0.0
  0
CIRCLE
  5
2C477
330
A
100
AcDbEntity
  8
レイヤー 1
  6
Continuous
 62
     7
 48
5.0
370
    30
100
AcDbCircle
 10
4153.908358415296
 20
-168.5831923204731
 30
0.0
 40
20.38460999999999
  0
ARC
  5
2C478
330
A
100
AcDbEntity
  8
レイヤー 1
  6
Continuous
 62
     7
 48
5.0
370
    30
100
AcDbCircle
 10
4132.428260721176
 20
-175.8909051672602
 30
0.0
 40
1.153845999999999
100
AcDbArc
 50
199.9972340489057
 51
29.39672404891102
  0
LINE
  5
2C479
330
A
100
AcDbEntity
  8
レイヤー 1
  6
Continuous
 62
     7
 48
5.0
370
    30
100
AcDbLine
 10
4133.433268287578
 20
-175.3249186025223
 30
0.0
 11
4134.769268287462
 21
-175.3249364626627
 31
0.0
  0
LINE
  5
2C47A
330
A
100
AcDbEntity
  8
レイヤー 1
  6
Continuous
 62
     7
 48
5.0
370
    30
100
AcDbLine
 10
4144.023648509775
 20
-146.883060176088
 30
0.0
 11
4144.02368747857
 21
-143.968060176344
 31
0.0
  0
LINE
  5
2C47B
330
A
100
AcDbEntity
  8
レイヤー 1
  6
Continuous
 62
     7
 48
5.0
370
    30
100
AcDbLine
 10
4133.024512287079
 20
-157.0729131364864
 30
0.0
 11
4133.024687479549
 21
-143.9679131376579
 31
0.0
  0
ARC
  5
2C47C
330
A
100
AcDbEntity
  8
レイヤー 1
  6
Continuous
 62
     7
 48
5.0
370
    30
100
AcDbCircle
 10
4153.908358415296
 20
-168.5831923204731
 30
0.0
 40
23.84615
100
AcDbArc
 50
341.1518340489091
 51
198.8466340488933
  0
ARC
  5
2C47D
330
A
100
AcDbEntity
  8
レイヤー 1
  6
Continuous
 62
     7
 48
5.0
370
    30
100
AcDbCircle
 10
4153.908358415296
 20
-168.5831923204731
 30
0.0
 40
21.53845999999999
100
AcDbArc
 50
341.775034048893
 51
198.7880340489085
  0
LINE
  5
2C47E
330
A
100
AcDbEntity
  8
レイヤー 1
  6
Continuous
 62
     7
 48
5.0
370
    30
100
AcDbLine
 10
4132.87829914183
 20
-173.0169111832831
 30
0.0
 11
4134.012299141727
 21
-173.016926343013
 31
0.0
  0
ARC
  5
2C47F
330
A
100
AcDbEntity
  8
レイヤー 1
  6
Continuous
 62
     7
 48
5.0
370
    30
100
AcDbCircle
 10
4175.388260717343
 20
-175.8914794723745
 30
0.0
 40
1.153845999999999
100
AcDbArc
 50
150.6017340488924
 51
340.0012340488967
  0
LINE
  5
2C480
330
A
100
AcDbEntity
  8
レイヤー 1
  6
Continuous
 62
     7
 48
5.0
370
    30
100
AcDbLine
 10
4173.047268284039
 20
-175.3254481770753
 30
0.0
 11
4174.384268283929
 21
-175.3254660505841
 31
0.0
  0
LINE
  5
2C481
330
A
100
AcDbEntity
  8
レイヤー 1
  6
Continuous
 62
     7
 48
5.0
370
    30
100
AcDbLine
 10
4173.805299138176
 20
-173.0174583105041
 30
0.0
 11
4174.939299138065
 21
-173.017473470234
 31
0.0
  0
LINE
  5
2C482
330
A
100
AcDbEntity
  8
レイヤー 1
  6
Continuous
 62
     7
 48
5.0
370
    30
100
AcDbLine
 10
4132.096714216377
 20
-141.9679007319942
 30
0.0
 11
4144.951714215225
 21
-141.9680725823724
 31
0.0
  0
LINE
  5
2C483
330
A
100
AcDbEntity
  8
レイヤー 1
  6
Continuous
 62
     7
 48
5.0
370
    30
100
AcDbLine
 10
4142.524714215446
 20
-141.9680401373418
 30
0.0
 11
4142.524687478708
 21
-143.9680401371594
 31
0.0
  0
LINE
  5
2C484
330
A
100
AcDbEntity
  8
レイヤー 1
  6
Continuous
 62
     7
 48
5.0
370
    30
100
AcDbLine
 10
4134.52471421616
 20
-141.9679331903932
 30
0.0
 11
4134.524687479422
 21
-143.9679331902108
 31
0.0
  0
LINE
  5
2C485
330
A
100
AcDbEntity
  8
レイヤー 1
  6
Continuous
 62
     7
 48
5.0
370
    30
100
AcDbLine
 10
4133.024687479549
 20
-143.9679131376579
 30
0.0
 11
4144.02368747857
 21
-143.968060176344
 31
0.0
  0
ARC
  5
2C486
330
A
100
AcDbEntity
  8
レイヤー 1
  6
Continuous
 62
     7
 48
5.0
370
    30
100
AcDbCircle
 10
4181.223500866193
 20
-157.9275574784068
 30
0.0
 40
9.999999999999996
100
AcDbArc
 50
85.13671404887844
 51
153.1325340489163
  0
ARC
  5
2C487
330
A
100
AcDbEntity
  8
レイヤー 1
  6
Continuous
 62
     7
 48
5.0
370
    30
100
AcDbCircle
 10
4181.223500866193
 20
-157.9275574784068
 30
0.0
 40
7.499999999999997
100
AcDbArc
 50
85.13671404887844
 51
163.4596340489073
  0
ARC
  5
2C488
330
A
100
AcDbEntity
  8
レイヤー 1
  6
Continuous
 62
     7
 48
5.0
370
    30
100
AcDbCircle
 10
4181.965617411561
 20
-149.2095673985182
 30
0.0
 40
1.249999999999998
100
AcDbArc
 50
265.1367340488837
 51
85.13673404888363
  0
LINE
  5
2C489
330
A
100
AcDbEntity
  8
レイヤー 1
  6
Continuous
 62
     7
 48
5.0
370
    30
100
AcDbLine
 10
4130.524754321617
 20
-138.9678797171832
 30
0.0
 11
4134.524754321266
 21
-138.9679331906576
 31
0.0
  0
LINE
  5
2C48A
330
A
100
AcDbEntity
  8
レイヤー 1
  6
Continuous
 62
     7
 48
5.0
370
    30
100
AcDbLine
 10
4130.524775711005
 20
-137.3678797173277
 30
0.0
 11
4130.524754321617
 21
-138.9678797171832
 31
0.0
  0
LINE
  5
2C48B
330
A
100
AcDbEntity
  8
レイヤー 1
  6
Continuous
 62
     7
 48
5.0
370
    30
100
AcDbLine
 10
4142.524754320551
 20
-138.9680401376062
 30
0.0
 11
4146.52375432019
 21
-138.9680935977122
 31
0.0
  0
LINE
  5
2C48C
330
A
100
AcDbEntity
  8
レイヤー 1
  6
Continuous
 62
     7
 48
5.0
370
    30
100
AcDbLine
 10
4146.523775709579
 20
-137.3680935978565
 30
0.0
 11
4146.52375432019
 21
-138.9680935977122
 31
0.0
  0
LINE
  5
2C48D
330
A
100
AcDbEntity
  8
レイヤー 1
  6
Continuous
 62
     7
 48
5.0
370
    30
100
AcDbLine
 10
4134.524754321266
 20
-138.9679331906576
 30
0.0
 11
4142.524754320551
 21
-138.9680401376062
 31
0.0
  0
LINE
  5
2C48E
330
A
100
AcDbEntity
  8
レイヤー 1
  6
Continuous
 62
     7
 48
5.0
370
    30
100
AcDbLine
 10
4132.096714216377
 20
-141.9679007319942
 30
0.0
 11
4132.096754321483
 21
-138.9679007322586
 31
0.0
  0
LINE
  5
2C48F
330
A
100
AcDbEntity
  8
レイヤー 1
  6
Continuous
 62
     7
 48
5.0
370
    30
100
AcDbLine
 10
4138.524714215804
 20
-141.9679866638675
 30
0.0
 11
4138.524775710298
 21
-137.3679866642763
 31
0.0
  0
LINE
  5
2C490
330
A
100
AcDbEntity
  8
レイヤー 1
  6
Continuous
 62
     7
 48
5.0
370
    30
100
AcDbLine
 10
4144.951714215225
 20
-141.9680725823724
 30
0.0
 11
4144.951754320331
 21
-138.9680725826368
 31
0.0
  0
CIRCLE
  5
2C491
330
A
100
AcDbEntity
  8
レイヤー 1
  6
Continuous
 62
     7
 48
5.0
370
    30
100
AcDbCircle
 10
4153.908358415296
 20
-168.5831923204731
 30
0.0
 40
20.38460999999999
  0
ARC
  5
2C492
330
A
100
AcDbEntity
  8
レイヤー 1
  6
Continuous
 62
     7
 48
5.0
370
    30
100
AcDbCircle
 10
4132.428260721176
 20
-175.8909051672602
 30
0.0
 40
1.153845999999999
100
AcDbArc
 50
199.9972340489057
 51
29.39672404891102
  0
LINE
  5
2C493
330
A
100
AcDbEntity
  8
レイヤー 1
  6
Continuous
 62
     7
 48
5.0
370
    30
100
AcDbLine
 10
4133.433268287578
 20
-175.3249186025223
 30
0.0
 11
4134.769268287462
 21
-175.3249364626627
 31
0.0
  0
LINE
  5
2C494
330
A
100
AcDbEntity
  8
レイヤー 1
  6
Continuous
 62
     7
 48
5.0
370
    30
100
AcDbLine
 10
4144.023648509775
 20
-146.883060176088
 30
0.0
 11
4144.02368747857
 21
-143.968060176344
 31
0.0
  0
LINE
  5
2C495
330
A
100
AcDbEntity
  8
レイヤー 1
  6
Continuous
 62
     7
 48
5.0
370
    30
100
AcDbLine
 10
4133.024512287079
 20
-157.0729131364864
 30
0.0
 11
4133.024687479549
 21
-143.9679131376579
 31
0.0
  0
ARC
  5
2C496
330
A
100
AcDbEntity
  8
レイヤー 1
  6
Continuous
 62
     7
 48
5.0
370
    30
100
AcDbCircle
 10
4153.908358415296
 20
-168.5831923204731
 30
0.0
 40
23.84615
100
AcDbArc
 50
341.1518340489091
 51
198.8466340488933
  0
ARC
  5
2C497
330
A
100
AcDbEntity
  8
レイヤー 1
  6
Continuous
 62
     7
 48
5.0
370
    30
100
AcDbCircle
 10
4153.908358415296
 20
-168.5831923204731
 30
0.0
 40
21.53845999999999
100
AcDbArc
 50
341.775034048893
 51
198.7880340489085
  0
LINE
  5
2C498
330
A
100
AcDbEntity
  8
レイヤー 1
  6
Continuous
 62
     7
 48
5.0
370
    30
100
AcDbLine
 10
4132.87829914183
 20
-173.0169111832831
 30
0.0
 11
4134.012299141727
 21
-173.016926343013
 31
0.0
  0
ARC
  5
2C499
330
A
100
AcDbEntity
  8
レイヤー 1
  6
Continuous
 62
     7
 48
5.0
370
    30
100
AcDbCircle
 10
4175.388260717343
 20
-175.8914794723745
 30
0.0
 40
1.153845999999999
100
AcDbArc
 50
150.6017340488924
 51
340.0012340488967
  0
LINE
  5
2C49A
330
A
100
AcDbEntity
  8
レイヤー 1
  6
Continuous
 62
     7
 48
5.0
370
    30
100
AcDbLine
 10
4173.047268284039
 20
-175.3254481770753
 30
0.0
 11
4174.384268283929
 21
-175.3254660505841
 31
0.0
  0
LINE
  5
2C49B
330
A
100
AcDbEntity
  8
レイヤー 1
  6
Continuous
 62
     7
 48
5.0
370
    30
100
AcDbLine
 10
4173.805299138176
 20
-173.0174583105041
 30
0.0
 11
4174.939299138065
 21
-173.017473470234
 31
0.0
  0
LINE
  5
2C49C
330
A
100
AcDbEntity
  8
レイヤー 1
  6
Continuous
 62
     7
 48
5.0
370
    30
100
AcDbLine
 10
4132.096714216377
 20
-141.9679007319942
 30
0.0
 11
4144.951714215225
 21
-141.9680725823724
 31
0.0
  0
LINE
  5
2C49D
330
A
100
AcDbEntity
  8
レイヤー 1
  6
Continuous
 62
     7
 48
5.0
370
    30
100
AcDbLine
 10
4142.524714215446
 20
-141.9680401373418
 30
0.0
 11
4142.524687478708
 21
-143.9680401371594
 31
0.0
  0
LINE
  5
2C49E
330
A
100
AcDbEntity
  8
レイヤー 1
  6
Continuous
 62
     7
 48
5.0
370
    30
100
AcDbLine
 10
4134.52471421616
 20
-141.9679331903932
 30
0.0
 11
4134.524687479422
 21
-143.9679331902108
 31
0.0
  0
LINE
  5
2C49F
330
A
100
AcDbEntity
  8
レイヤー 1
  6
Continuous
 62
     7
 48
5.0
370
    30
100
AcDbLine
 10
4133.024687479549
 20
-143.9679131376579
 30
0.0
 11
4144.02368747857
 21
-143.968060176344
 31
0.0
  0
ARC
  5
2C4A0
330
A
100
AcDbEntity
  8
レイヤー 1
  6
Continuous
 62
     7
 48
5.0
370
    30
100
AcDbCircle
 10
4181.223500866193
 20
-157.9275574784068
 30
0.0
 40
9.999999999999996
100
AcDbArc
 50
85.13671404887844
 51
153.1325340489163
  0
ARC
  5
2C4A1
330
A
100
AcDbEntity
  8
レイヤー 1
  6
Continuous
 62
     7
 48
5.0
370
    30
100
AcDbCircle
 10
4181.223500866193
 20
-157.9275574784068
 30
0.0
 40
7.499999999999997
100
AcDbArc
 50
85.13671404887844
 51
163.4596340489073
  0
ARC
  5
2C4A2
330
A
100
AcDbEntity
  8
レイヤー 1
  6
Continuous
 62
     7
 48
5.0
370
    30
100
AcDbCircle
 10
4181.965617411561
 20
-149.2095673985182
 30
0.0
 40
1.249999999999998
100
AcDbArc
 50
265.1367340488837
 51
85.13673404888363
  0
LINE
  5
2C4A3
330
A
100
AcDbEntity
  8
レイヤー 1
  6
Continuous
 62
     7
 48
5.0
370
    50
100
AcDbLine
 10
4151.025348525658
 20
780.8502227444977
 30
0.0
 11
4151.025700566541
 21
2.627552751848256
 31
0.0
  0
LINE
  5
2C59D
330
A
100
AcDbEntity
  8
レイヤー 1
  6
Continuous
 62
     7
 48
5.0
370
    50
100
AcDbLine
 10
5051.02570056654
 20
2.627552751844618
 30
0.0
 11
5051.024900066934
 21
-135.3724472481554
 31
0.0
  0
LINE
  5
2C59E
330
A
100
AcDbEntity
  8
レイヤー 1
  6
Continuous
 62
     7
 48
5.0
370
    50
100
AcDbLine
 10
5053.024900466935
 20
-137.3724872481543
 30
0.0
 11
5074.025300066939
 21
-137.3724872481543
 31
0.0
  0
LINE
  5
2C59F
330
A
100
AcDbEntity
  8
レイヤー 1
  6
Continuous
 62
     7
 48
5.0
370
    50
100
AcDbLine
 10
5051.026100510229
 20
780.8510845414332
 30
0.0
 11
5051.02570056654
 21
2.627552751844618
 31
0.0
  0
LINE
  5
2C5A0
330
A
100
AcDbEntity
  8
レイヤー 1
  6
Continuous
 62
     7
 48
5.0
370
    50
100
AcDbLine
 10
5076.025300466939
 20
-135.3724472481554
 30
0.0
 11
5076.025300566183
 21
780.8902179473366
 31
0.0
  0
ARC
  5
2C5A5
330
A
100
AcDbEntity
  8
レイヤー 1
  6
Continuous
 62
     7
 48
5.0
370
    50
100
AcDbCircle
 10
5074.025300066939
 20
-135.3724472481554
 30
0.0
 40
2.0000004
100
AcDbArc
 50
270.0
 51
0.0
  0
ARC
  5
2C5A6
330
A
100
AcDbEntity
  8
レイヤー 1
  6
Continuous
 62
     7
 48
5.0
370
    50
100
AcDbCircle
 10
5053.024900466935
 20
-135.3724472481554
 30
0.0
 40
2.0000004
100
AcDbArc
 50
180.0
 51
270.0
  0
LINE
  5
2C6A3
330
A
100
AcDbEntity
  8
レイヤー 1
  6
Continuous
 62
     7
 48
5.0
370
    30
100
AcDbLine
 10
5055.523154212151
 20
-138.9842559419599
 30
0.0
 11
5059.5231542118
 21
-138.9843094154342
 31
0.0
  0
LINE
  5
2C6A4
330
A
100
AcDbEntity
  8
レイヤー 1
  6
Continuous
 62
     7
 48
5.0
370
    30
100
AcDbLine
 10
5055.523175601542
 20
-137.3842559421043
 30
0.0
 11
5055.523154212151
 21
-138.9842559419599
 31
0.0
  0
LINE
  5
2C6A5
330
A
100
AcDbEntity
  8
レイヤー 1
  6
Continuous
 62
     7
 48
5.0
370
    30
100
AcDbLine
 10
5067.523154211085
 20
-138.9844163623829
 30
0.0
 11
5071.522154210725
 21
-138.9844698224889
 31
0.0
  0
LINE
  5
2C6A6
330
A
100
AcDbEntity
  8
レイヤー 1
  6
Continuous
 62
     7
 48
5.0
370
    30
100
AcDbLine
 10
5071.522175600115
 20
-137.3844698226333
 30
0.0
 11
5071.522154210725
 21
-138.9844698224889
 31
0.0
  0
LINE
  5
2C6A7
330
A
100
AcDbEntity
  8
レイヤー 1
  6
Continuous
 62
     7
 48
5.0
370
    30
100
AcDbLine
 10
5059.5231542118
 20
-138.9843094154342
 30
0.0
 11
5067.523154211085
 21
-138.9844163623829
 31
0.0
  0
LINE
  5
2C6A8
330
A
100
AcDbEntity
  8
レイヤー 1
  6
Continuous
 62
     7
 48
5.0
370
    30
100
AcDbLine
 10
5057.09511410691
 20
-141.9842769567709
 30
0.0
 11
5057.095154212015
 21
-138.9842769570353
 31
0.0
  0
LINE
  5
2C6A9
330
A
100
AcDbEntity
  8
レイヤー 1
  6
Continuous
 62
     7
 48
5.0
370
    30
100
AcDbLine
 10
5063.523114106338
 20
-141.9843628886441
 30
0.0
 11
5063.523175600835
 21
-137.384362889053
 31
0.0
  0
LINE
  5
2C6AA
330
A
100
AcDbEntity
  8
レイヤー 1
  6
Continuous
 62
     7
 48
5.0
370
    30
100
AcDbLine
 10
5069.950114105759
 20
-141.984448807149
 30
0.0
 11
5069.950154210864
 21
-138.9844488074134
 31
0.0
  0
CIRCLE
  5
2C6AB
330
A
100
AcDbEntity
  8
レイヤー 1
  6
Continuous
 62
     7
 48
5.0
370
    30
100
AcDbCircle
 10
5078.906758305831
 20
-168.5995685452498
 30
0.0
 40
20.38460999999999
  0
ARC
  5
2C6AC
330
A
100
AcDbEntity
  8
レイヤー 1
  6
Continuous
 62
     7
 48
5.0
370
    30
100
AcDbCircle
 10
5057.426660611709
 20
-175.9072813920369
 30
0.0
 40
1.153845999999999
100
AcDbArc
 50
199.9972340489049
 51
29.39672404891254
  0
LINE
  5
2C6AD
330
A
100
AcDbEntity
  8
レイヤー 1
  6
Continuous
 62
     7
 48
5.0
370
    30
100
AcDbLine
 10
5058.431668178116
 20
-175.3412948272989
 30
0.0
 11
5059.767668177998
 21
-175.3413126874394
 31
0.0
  0
LINE
  5
2C6AE
330
A
100
AcDbEntity
  8
レイヤー 1
  6
Continuous
 62
     7
 48
5.0
370
    30
100
AcDbLine
 10
5069.022048400311
 20
-146.8994364008647
 30
0.0
 11
5069.022087369106
 21
-143.9844364011205
 31
0.0
  0
LINE
  5
2C6AF
330
A
100
AcDbEntity
  8
レイヤー 1
  6
Continuous
 62
     7
 48
5.0
370
    30
100
AcDbLine
 10
5058.022912177616
 20
-157.0892893612631
 30
0.0
 11
5058.023087370084
 21
-143.9842893624346
 31
0.0
  0
ARC
  5
2C6B0
330
A
100
AcDbEntity
  8
レイヤー 1
  6
Continuous
 62
     7
 48
5.0
370
    30
100
AcDbCircle
 10
5078.906758305831
 20
-168.5995685452498
 30
0.0
 40
23.84615
100
AcDbArc
 50
341.1518340489099
 51
198.8466340488918
  0
ARC
  5
2C6B1
330
A
100
AcDbEntity
  8
レイヤー 1
  6
Continuous
 62
     7
 48
5.0
370
    30
100
AcDbCircle
 10
5078.906758305831
 20
-168.5995685452498
 30
0.0
 40
21.53845999999999
100
AcDbArc
 50
341.7750340488938
 51
198.7880340489085
  0
LINE
  5
2C6B2
330
A
100
AcDbEntity
  8
レイヤー 1
  6
Continuous
 62
     7
 48
5.0
370
    30
100
AcDbLine
 10
5057.876699032366
 20
-173.0332874080598
 30
0.0
 11
5059.010699032263
 21
-173.0333025677897
 31
0.0
  0
ARC
  5
2C6B3
330
A
100
AcDbEntity
  8
レイヤー 1
  6
Continuous
 62
     7
 48
5.0
370
    30
100
AcDbCircle
 10
5100.386660607878
 20
-175.9078556971511
 30
0.0
 40
1.153845999999999
100
AcDbArc
 50
150.6017340488907
 51
340.0012340488967
  0
LINE
  5
2C6B4
330
A
100
AcDbEntity
  8
レイヤー 1
  6
Continuous
 62
     7
 48
5.0
370
    30
100
AcDbLine
 10
5098.045668174576
 20
-175.341824401852
 30
0.0
 11
5099.382668174465
 21
-175.3418422753608
 31
0.0
  0
LINE
  5
2C6B5
330
A
100
AcDbEntity
  8
レイヤー 1
  6
Continuous
 62
     7
 48
5.0
370
    30
100
AcDbLine
 10
5098.803699028713
 20
-173.0338345352806
 30
0.0
 11
5099.9376990286
 21
-173.0338496950106
 31
0.0
  0
LINE
  5
2C6B6
330
A
100
AcDbEntity
  8
レイヤー 1
  6
Continuous
 62
     7
 48
5.0
370
    30
100
AcDbLine
 10
5057.09511410691
 20
-141.9842769567709
 30
0.0
 11
5069.950114105759
 21
-141.984448807149
 31
0.0
  0
LINE
  5
2C6B7
330
A
100
AcDbEntity
  8
レイヤー 1
  6
Continuous
 62
     7
 48
5.0
370
    30
100
AcDbLine
 10
5067.52311410598
 20
-141.9844163621185
 30
0.0
 11
5067.523087369243
 21
-143.9844163619361
 31
0.0
  0
LINE
  5
2C6B8
330
A
100
AcDbEntity
  8
レイヤー 1
  6
Continuous
 62
     7
 48
5.0
370
    30
100
AcDbLine
 10
5059.523114106696
 20
-141.9843094151698
 30
0.0
 11
5059.523087369957
 21
-143.9843094149875
 31
0.0
  0
LINE
  5
2C6B9
330
A
100
AcDbEntity
  8
レイヤー 1
  6
Continuous
 62
     7
 48
5.0
370
    30
100
AcDbLine
 10
5058.023087370084
 20
-143.9842893624346
 30
0.0
 11
5069.022087369106
 21
-143.9844364011205
 31
0.0
  0
ARC
  5
2C6BA
330
A
100
AcDbEntity
  8
レイヤー 1
  6
Continuous
 62
     7
 48
5.0
370
    30
100
AcDbCircle
 10
5106.221900756729
 20
-157.9439337031835
 30
0.0
 40
9.999999999999996
100
AcDbArc
 50
85.13671404887844
 51
153.1325340489163
  0
ARC
  5
2C6BB
330
A
100
AcDbEntity
  8
レイヤー 1
  6
Continuous
 62
     7
 48
5.0
370
    30
100
AcDbCircle
 10
5106.221900756729
 20
-157.9439337031835
 30
0.0
 40
7.499999999999997
100
AcDbArc
 50
85.13671404887844
 51
163.4596340489073
  0
ARC
  5
2C6BC
330
A
100
AcDbEntity
  8
レイヤー 1
  6
Continuous
 62
     7
 48
5.0
370
    30
100
AcDbCircle
 10
5106.964017302098
 20
-149.2259436232949
 30
0.0
 40
1.249999999999998
100
AcDbArc
 50
265.1367340488837
 51
85.13673404888363
  0
LINE
  5
2DBB3
330
A
100
AcDbEntity
  8
レイヤー 1
  6
Continuous
 62
     7
370
    50
100
AcDbLine
 10
3496.611433415318
 20
-137.3723107997395
 30
0.0
 11
3445.611433415319
 21
-137.3723107997395
 31
0.0
  0
ARC
  5
2DBB4
330
A
100
AcDbEntity
  8
レイヤー 1
  6
Continuous
 62
     7
370
    50
100
AcDbCircle
 10
3496.611078802242
 20
-135.3720146386708
 30
0.0
 40
2.0
100
AcDbArc
 50
270.0
 51
0.0
  0
ARC
  5
2DBB5
330
A
100
AcDbEntity
  8
レイヤー 1
  6
Continuous
 62
     7
370
    50
100
AcDbCircle
 10
3445.611433415319
 20
-135.3723107997396
 30
0.0
 40
2.0
100
AcDbArc
 50
180.0
 51
270.0
  0
ARC
  5
2DF9A
330
A
100
AcDbEntity
  8
レイヤー 1
  6
Continuous
 62
     7
 48
5.0
370
    50
100
AcDbCircle
 10
2815.611361893348
 20
-135.3764035546259
 30
0.0
 40
2.0000004
100
AcDbArc
 50
180.0
 51
270.0
  0
ARC
  5
2DF9B
330
A
100
AcDbEntity
  8
レイヤー 1
  6
Continuous
 62
     7
 48
5.0
370
    50
100
AcDbCircle
 10
2851.611361893348
 20
-135.3764035546259
 30
0.0
 40
2.0000004
100
AcDbArc
 50
270.0
 51
0.0
  0
CIRCLE
  5
2E0B9
330
A
100
AcDbEntity
  8
レイヤー 1
  6
Continuous
 62
     7
 48
5.0
370
    25
100
AcDbCircle
 10
2834.15982446502
 20
-9.848187239233183
 30
0.0
 40
7.5
  0
LINE
  5
2E0BA
330
A
100
AcDbEntity
  8
レイヤー 1
  6
Continuous
 62
     7
370
    30
100
AcDbLine
 10
2840.036555805086
 20
-138.9553788974828
 30
0.0
 11
2840.03651569998
 21
-141.9553788972184
 31
0.0
  0
LINE
  5
2E0BB
330
A
100
AcDbEntity
  8
レイヤー 1
  6
Continuous
 62
     7
370
    30
100
AcDbLine
 10
2833.609577195061
 20
-137.3552929791223
 30
0.0
 11
2833.609515700565
 21
-141.9552929787135
 31
0.0
  0
LINE
  5
2E0BC
330
A
100
AcDbEntity
  8
レイヤー 1
  6
Continuous
 62
     7
370
    30
100
AcDbLine
 10
2827.182555806242
 20
-138.9552070604731
 30
0.0
 11
2827.182515701136
 21
-141.9552070602087
 31
0.0
  0
LINE
  5
2E0BD
330
A
100
AcDbEntity
  8
レイヤー 1
  6
Continuous
 62
     7
370
    30
100
AcDbLine
 10
2840.03651569998
 20
-141.9553788972184
 30
0.0
 11
2827.182515701136
 21
-141.9552070602087
 31
0.0
  0
LINE
  5
2E0BE
330
A
100
AcDbEntity
  8
レイヤー 1
  6
Continuous
 62
     7
370
    30
100
AcDbLine
 10
2840.036555805086
 20
-138.9553788974828
 30
0.0
 11
2827.182555806242
 21
-138.9552070604731
 31
0.0
  0
LINE
  5
2E0BF
330
A
100
AcDbEntity
  8
レイヤー 1
  6
Continuous
 62
     7
370
    30
100
AcDbLine
 10
2841.609555804949
 20
-138.9553999259266
 30
0.0
 11
2837.609555805307
 21
-138.9553464524522
 31
0.0
  0
LINE
  5
2E0C0
330
A
100
AcDbEntity
  8
レイヤー 1
  6
Continuous
 62
     7
370
    30
100
AcDbLine
 10
2841.609555804949
 20
-138.9553999259266
 30
0.0
 11
2841.60957719434
 21
-137.355399926071
 31
0.0
  0
LINE
  5
2E0C1
330
A
100
AcDbEntity
  8
レイヤー 1
  6
Continuous
 62
     7
370
    30
100
AcDbLine
 10
2837.609577194696
 20
-137.3553464525967
 30
0.0
 11
2837.609555805307
 21
-138.9553464524522
 31
0.0
  0
LINE
  5
2E0C2
330
A
100
AcDbEntity
  8
レイヤー 1
  6
Continuous
 62
     7
370
    30
100
AcDbLine
 10
2829.609555806022
 20
-138.9552395055036
 30
0.0
 11
2825.609555806379
 21
-138.9551860320292
 31
0.0
  0
LINE
  5
2E0C3
330
A
100
AcDbEntity
  8
レイヤー 1
  6
Continuous
 62
     7
370
    30
100
AcDbLine
 10
2825.609555806379
 20
-138.9551860320292
 30
0.0
 11
2825.609577195768
 21
-137.3551860321737
 31
0.0
  0
LINE
  5
2E0C4
330
A
100
AcDbEntity
  8
レイヤー 1
  6
Continuous
 62
     7
370
    30
100
AcDbLine
 10
2829.609577195411
 20
-137.355239505648
 30
0.0
 11
2829.609555806022
 21
-138.9552395055036
 31
0.0
  0
LINE
  5
2E0C5
330
A
100
AcDbEntity
  8
レイヤー 1
  6
Continuous
 62
     7
370
    30
100
AcDbLine
 10
2837.609555805307
 20
-138.9553464524522
 30
0.0
 11
2829.609555806022
 21
-138.9552395055036
 31
0.0
  0
LINE
  5
2E0C6
330
A
100
AcDbEntity
  8
レイヤー 1
  6
Continuous
 62
     7
370
    30
100
AcDbLine
 10
2845.917478682443
 20
-144.7244575163432
 30
0.0
 11
2821.301478684648
 21
-144.7241284405822
 31
0.0
  0
LINE
  5
2E0C7
330
A
100
AcDbEntity
  8
レイヤー 1
  6
Continuous
 62
     7
370
    30
100
AcDbLine
 10
2845.917046777191
 20
-177.0324575134607
 30
0.0
 11
2821.301046779396
 21
-177.0321284376997
 31
0.0
  0
LINE
  5
2E0C8
330
A
100
AcDbEntity
  8
レイヤー 1
  6
Continuous
 62
     7
370
    30
100
AcDbLine
 10
2847.455067337605
 20
-175.4944780741486
 30
0.0
 11
2847.455458108387
 21
-146.2634780767608
 31
0.0
  0
ARC
  5
2E0C9
330
A
100
AcDbEntity
  8
レイヤー 1
  6
Continuous
 62
     7
370
    30
100
AcDbCircle
 10
2821.301458110729
 20
-146.2631284404489
 30
0.0
 40
1.538460999999999
100
AcDbArc
 50
89.99926404893018
 51
179.9992340489013
  0
ARC
  5
2E0CA
330
A
100
AcDbEntity
  8
レイヤー 1
  6
Continuous
 62
     7
370
    30
100
AcDbCircle
 10
2845.917458108524
 20
-146.2634575162099
 30
0.0
 40
1.538460999999999
100
AcDbArc
 50
359.9992340489013
 51
89.99926404893018
  0
ARC
  5
2E0CB
330
A
100
AcDbEntity
  8
レイヤー 1
  6
Continuous
 62
     7
370
    30
100
AcDbCircle
 10
2845.917067337742
 20
-175.4944575135976
 30
0.0
 40
1.538460999999999
100
AcDbArc
 50
269.9992340489012
 51
359.9992340489013
  0
ARC
  5
2E0CC
330
A
100
AcDbEntity
  8
レイヤー 1
  6
Continuous
 62
     7
370
    30
100
AcDbCircle
 10
2821.301067339947
 20
-175.4941284378366
 30
0.0
 40
1.538460999999999
100
AcDbArc
 50
179.9992340489013
 51
269.9992340489012
  0
ARC
  5
2E0CD
330
A
100
AcDbEntity
  8
レイヤー 1
  6
Continuous
 62
     7
370
    30
100
AcDbCircle
 10
2820.281391268981
 20
-151.2631148042662
 30
0.0
 40
3.076921999999998
100
AcDbArc
 50
99.69924404890429
 51
166.4444540489027
  0
LINE
  5
2E0CE
330
A
100
AcDbEntity
  8
レイヤー 1
  6
Continuous
 62
     7
370
    30
100
AcDbLine
 10
2824.082887749034
 20
-188.9281656274352
 30
0.0
 11
2819.486899767603
 21
-188.0291041864922
 31
0.0
  0
LINE
  5
2E0CF
330
A
100
AcDbEntity
  8
レイヤー 1
  6
Continuous
 62
     7
370
    30
100
AcDbLine
 10
2819.763067340084
 20
-175.4941078772858
 30
0.0
 11
2819.762899045692
 21
-188.0831078761572
 31
0.0
  0
LINE
  5
2E0D0
330
A
100
AcDbEntity
  8
レイヤー 1
  6
Continuous
 62
     7
370
    30
100
AcDbLine
 10
2825.916907935102
 20
-187.4181901451597
 30
0.0
 11
2825.917046778977
 21
-177.0321901460891
 31
0.0
  0
ARC
  5
2E0D1
330
A
100
AcDbEntity
  8
レイヤー 1
  6
Continuous
 62
     7
370
    30
100
AcDbCircle
 10
2824.377907935249
 20
-187.4181695712404
 30
0.0
 40
1.538460999999999
100
AcDbArc
 50
258.9407340489199
 51
359.9992340489013
  0
ARC
  5
2E0D2
330
A
100
AcDbEntity
  8
レイヤー 1
  6
Continuous
 62
     7
370
    30
100
AcDbCircle
 10
2820.076940126659
 20
-185.0101120741029
 30
0.0
 40
3.076921999999998
100
AcDbArc
 50
192.8617340489068
 51
258.9407340489199
  0
ARC
  5
2E0D3
330
A
100
AcDbEntity
  8
レイヤー 1
  6
Continuous
 62
     7
370
    30
100
AcDbCircle
 10
2892.070159896207
 20
-168.5710745045325
 30
0.0
 40
76.92305999999994
100
AcDbArc
 50
166.4444540489027
 51
192.8617340489068
  0
LINE
  5
2E0D4
330
A
100
AcDbEntity
  8
レイヤー 1
  6
Continuous
 62
     7
370
    30
100
AcDbLine
 10
2819.763458110866
 20
-146.263107879898
 30
0.0
 11
2819.763067340084
 21
-175.4941078772858
 31
0.0
  0
ARC
  5
2E0D5
330
A
100
AcDbEntity
  8
レイヤー 1
  6
Continuous
 62
     7
370
    30
100
AcDbCircle
 10
2846.937391266601
 20
-151.2634711514991
 30
0.0
 40
3.076921999999998
100
AcDbArc
 50
13.55403404888743
 51
80.29922404889845
  0
LINE
  5
2E0D6
330
A
100
AcDbEntity
  8
レイヤー 1
  6
Continuous
 62
     7
370
    30
100
AcDbLine
 10
2848.730899765078
 20
-188.0294853637538
 30
0.0
 11
2844.134887747321
 21
-188.9284239226529
 31
0.0
  0
LINE
  5
2E0D7
330
A
100
AcDbEntity
  8
レイヤー 1
  6
Continuous
 62
     7
370
    30
100
AcDbLine
 10
2847.455067337605
 20
-175.4944780741486
 30
0.0
 11
2847.454899043212
 21
-188.08347807302
 31
0.0
  0
LINE
  5
2E0D8
330
A
100
AcDbEntity
  8
レイヤー 1
  6
Continuous
 62
     7
370
    30
100
AcDbLine
 10
2841.300907933733
 20
-187.4183958041419
 30
0.0
 11
2841.301046777609
 21
-177.0323958050714
 31
0.0
  0
ARC
  5
2E0D9
330
A
100
AcDbEntity
  8
レイヤー 1
  6
Continuous
 62
     7
370
    30
100
AcDbCircle
 10
2842.839907933599
 20
-187.4184163780611
 30
0.0
 40
1.538460999999999
100
AcDbArc
 50
179.9992340489013
 51
281.0577340488825
  0
ARC
  5
2E0DA
330
A
100
AcDbEntity
  8
レイヤー 1
  6
Continuous
 62
     7
370
    30
100
AcDbCircle
 10
2847.140940124239
 20
-185.0104738756302
 30
0.0
 40
3.076921999999998
100
AcDbArc
 50
281.0577340488825
 51
347.1367340488956
  0
ARC
  5
2E0DB
330
A
100
AcDbEntity
  8
レイヤー 1
  6
Continuous
 62
     7
370
    30
100
AcDbCircle
 10
2775.147159906661
 20
-168.5695114347728
 30
0.0
 40
76.92305999999994
100
AcDbArc
 50
347.1367340488956
 51
13.55403404888743
  0
LINE
  5
2E0DE
330
A
100
AcDbEntity
  8
レイヤー 1
  6
Continuous
 62
     7
370
    30
100
AcDbLine
 10
2836.109338208512
 20
-155.2323263984468
 30
0.0
 11
2831.109338208959
 21
-155.2322595566039
 31
0.0
  0
LINE
  5
2E0DF
330
A
100
AcDbEntity
  8
レイヤー 1
  6
Continuous
 62
     7
370
    30
100
AcDbLine
 10
2831.109207198947
 20
-165.0322595557275
 30
0.0
 11
2831.109338208959
 21
-155.2322595566039
 31
0.0
  0
LINE
  5
2E0E0
330
A
100
AcDbEntity
  8
レイヤー 1
  6
Continuous
 62
     7
370
    30
100
AcDbLine
 10
2836.1092071985
 20
-165.0323263975704
 30
0.0
 11
2831.109207198947
 21
-165.0322595557275
 31
0.0
  0
LINE
  5
2E0E1
330
A
100
AcDbEntity
  8
レイヤー 1
  6
Continuous
 62
     7
370
    30
100
AcDbLine
 10
2836.109338208512
 20
-155.2323263984468
 30
0.0
 11
2836.1092071985
 21
-165.0323263975704
 31
0.0
  0
LINE
  5
2E0E2
330
A
100
AcDbEntity
  8
レイヤー 1
  6
Continuous
 62
     7
370
    30
100
AcDbLine
 10
2836.109338208514
 20
-155.2323263984466
 30
0.0
 11
2831.10933820896
 21
-155.2322595566037
 31
0.0
  0
LINE
  5
2E0E3
330
A
100
AcDbEntity
  8
レイヤー 1
  6
Continuous
 62
     7
370
    30
100
AcDbLine
 10
2839.359411734242
 20
-149.7323698461398
 30
0.0
 11
2839.359351576583
 21
-154.232369845734
 31
0.0
  0
LINE
  5
2E0E4
330
A
100
AcDbEntity
  8
レイヤー 1
  6
Continuous
 62
     7
370
    30
100
AcDbLine
 10
2839.359411734242
 20
-149.7323698461398
 30
0.0
 11
2827.85941173527
 21
-149.7322161099011
 31
0.0
  0
LINE
  5
2E0E5
330
A
100
AcDbEntity
  8
レイヤー 1
  6
Continuous
 62
     7
370
    30
100
AcDbLine
 10
2827.859351577611
 20
-154.2322161094953
 30
0.0
 11
2827.85941173527
 21
-149.7322161099011
 31
0.0
  0
LINE
  5
2E0E6
330
A
100
AcDbEntity
  8
レイヤー 1
  6
Continuous
 62
     7
370
    30
100
AcDbLine
 10
2839.359379195633
 20
-152.1663698459198
 30
0.0
 11
2827.85937919666
 21
-152.1662161096811
 31
0.0
  0
LINE
  5
2E0E7
330
A
100
AcDbEntity
  8
レイヤー 1
  6
Continuous
 62
     7
370
    30
100
AcDbLine
 10
2839.359351576584
 20
-154.2323698457339
 30
0.0
 11
2827.859351577611
 21
-154.2322161094952
 31
0.0
  0
LINE
  5
2E0E8
330
A
100
AcDbEntity
  8
レイヤー 1
  6
Continuous
 62
     7
370
    30
100
AcDbLine
 10
2831.10933820896
 20
-155.2322595566037
 30
0.0
 11
2827.859351577611
 21
-154.2322161094952
 31
0.0
  0
LINE
  5
2E0E9
330
A
100
AcDbEntity
  8
レイヤー 1
  6
Continuous
 62
     7
370
    30
100
AcDbLine
 10
2839.359351576584
 20
-154.2323698457339
 30
0.0
 11
2836.109338208514
 21
-155.2323263984466
 31
0.0
  0
LINE
  5
2E109
330
A
100
AcDbEntity
  8
レイヤー 1
  6
Continuous
 62
     7
370
    30
100
AcDbLine
 10
3479.109687314153
 20
-138.9610996053319
 30
0.0
 11
3475.109687314502
 21
-138.9610461318575
 31
0.0
  0
LINE
  5
2E10A
330
A
100
AcDbEntity
  8
レイヤー 1
  6
Continuous
 62
     7
370
    30
100
AcDbLine
 10
3479.109708703542
 20
-137.3610996054763
 30
0.0
 11
3479.109687314153
 21
-138.9610996053319
 31
0.0
  0
LINE
  5
2E10B
330
A
100
AcDbEntity
  8
レイヤー 1
  6
Continuous
 62
     7
370
    30
100
AcDbLine
 10
3467.109687315217
 20
-138.9609391849089
 30
0.0
 11
3463.110687315578
 21
-138.9608857248029
 31
0.0
  0
LINE
  5
2E10C
330
A
100
AcDbEntity
  8
レイヤー 1
  6
Continuous
 62
     7
370
    30
100
AcDbLine
 10
3463.110708704967
 20
-137.3608857249474
 30
0.0
 11
3463.110687315578
 21
-138.9608857248029
 31
0.0
  0
LINE
  5
2E10D
330
A
100
AcDbEntity
  8
レイヤー 1
  6
Continuous
 62
     7
370
    30
100
AcDbLine
 10
3475.109687314502
 20
-138.9610461318575
 30
0.0
 11
3467.109687315217
 21
-138.9609391849089
 31
0.0
  0
LINE
  5
2E10E
330
A
100
AcDbEntity
  8
レイヤー 1
  6
Continuous
 62
     7
370
    30
100
AcDbLine
 10
3477.537647209179
 20
-141.961078589992
 30
0.0
 11
3477.537687314285
 21
-138.9610785902565
 31
0.0
  0
LINE
  5
2E110
330
A
100
AcDbEntity
  8
レイヤー 1
  6
Continuous
 62
     7
370
    30
100
AcDbLine
 10
3464.682647210332
 20
-141.9609067396139
 30
0.0
 11
3464.682687315438
 21
-138.9609067398783
 31
0.0
  0
CIRCLE
  5
2E111
330
A
100
AcDbEntity
  8
レイヤー 1
  6
Continuous
 62
     7
370
    30
100
AcDbCircle
 10
3455.725291412
 20
-168.5757869967599
 30
0.0
 40
20.38460999999999
  0
ARC
  5
2E112
330
A
100
AcDbEntity
  8
レイヤー 1
  6
Continuous
 62
     7
370
    30
100
AcDbCircle
 10
3477.205193714048
 20
-175.8840741486613
 30
0.0
 40
1.153845999999999
100
AcDbArc
 50
150.6017440489033
 51
340.0012340488939
  0
LINE
  5
2E113
330
A
100
AcDbEntity
  8
レイヤー 1
  6
Continuous
 62
     7
370
    30
100
AcDbLine
 10
3476.200201280637
 20
-175.3180607135025
 30
0.0
 11
3474.864201280752
 21
-175.318042853362
 31
0.0
  0
LINE
  5
2E114
330
A
100
AcDbEntity
  8
レイヤー 1
  6
Continuous
 62
     7
370
    30
100
AcDbLine
 10
3465.610581504717
 20
-146.8759191450216
 30
0.0
 11
3465.610620473511
 21
-143.9609191452776
 31
0.0
  0
LINE
  5
2E115
330
A
100
AcDbEntity
  8
レイヤー 1
  6
Continuous
 62
     7
370
    30
100
AcDbLine
 10
3476.609445280061
 20
-157.0660661827922
 30
0.0
 11
3476.609620472532
 21
-143.9610661839636
 31
0.0
  0
ARC
  5
2E116
330
A
100
AcDbEntity
  8
レイヤー 1
  6
Continuous
 62
     7
370
    30
100
AcDbCircle
 10
3455.725291412
 20
-168.5757869967599
 30
0.0
 40
23.84615
100
AcDbArc
 50
341.1518340489081
 51
198.8466340488942
  0
ARC
  5
2E117
330
A
100
AcDbEntity
  8
レイヤー 1
  6
Continuous
 62
     7
370
    30
100
AcDbCircle
 10
3455.725291412
 20
-168.5757869967599
 30
0.0
 40
21.53845999999999
100
AcDbArc
 50
341.2104340488934
 51
198.2234340489162
  0
LINE
  5
2E118
330
A
100
AcDbEntity
  8
レイヤー 1
  6
Continuous
 62
     7
370
    30
100
AcDbLine
 10
3476.755232134773
 20
-173.0100681331524
 30
0.0
 11
3475.621232134876
 21
-173.0100529734225
 31
0.0
  0
ARC
  5
2E119
330
A
100
AcDbEntity
  8
レイヤー 1
  6
Continuous
 62
     7
370
    30
100
AcDbCircle
 10
3434.245193717878
 20
-175.883499843547
 30
0.0
 40
1.153845999999999
100
AcDbArc
 50
199.9972340489085
 51
29.396734048918
  0
LINE
  5
2E11A
330
A
100
AcDbEntity
  8
レイヤー 1
  6
Continuous
 62
     7
370
    30
100
AcDbLine
 10
3436.586201284174
 20
-175.3175311389495
 30
0.0
 11
3435.249201284288
 21
-175.3175132654407
 31
0.0
  0
LINE
  5
2E11B
330
A
100
AcDbEntity
  8
レイヤー 1
  6
Continuous
 62
     7
370
    30
100
AcDbLine
 10
3435.828232138427
 20
-173.0095210059315
 30
0.0
 11
3434.694232138537
 21
-173.0095058462015
 31
0.0
  0
LINE
  5
2E11C
330
A
100
AcDbEntity
  8
レイヤー 1
  6
Continuous
 62
     7
370
    30
100
AcDbLine
 10
3477.537647209179
 20
-141.961078589992
 30
0.0
 11
3464.682647210332
 21
-141.9609067396139
 31
0.0
  0
LINE
  5
2E11D
330
A
100
AcDbEntity
  8
レイヤー 1
  6
Continuous
 62
     7
370
    30
100
AcDbLine
 10
3467.109647210111
 20
-141.9609391846444
 30
0.0
 11
3467.109620473375
 21
-143.9609391844621
 31
0.0
  0
LINE
  5
2E11E
330
A
100
AcDbEntity
  8
レイヤー 1
  6
Continuous
 62
     7
370
    30
100
AcDbLine
 10
3475.109647209396
 20
-141.9610461315931
 30
0.0
 11
3475.10962047266
 21
-143.9610461314106
 31
0.0
  0
LINE
  5
2E11F
330
A
100
AcDbEntity
  8
レイヤー 1
  6
Continuous
 62
     7
370
    30
100
AcDbLine
 10
3476.609620472532
 20
-143.9610661839636
 30
0.0
 11
3465.610620473511
 21
-143.9609191452776
 31
0.0
  0
ARC
  5
2E120
330
A
100
AcDbEntity
  8
レイヤー 1
  6
Continuous
 62
     7
370
    30
100
AcDbCircle
 10
3428.410433867774
 20
-157.9194218407179
 30
0.0
 40
9.999999999999996
100
AcDbArc
 50
26.86593404888374
 51
94.86175404891113
  0
ARC
  5
2E121
330
A
100
AcDbEntity
  8
レイヤー 1
  6
Continuous
 62
     7
370
    30
100
AcDbCircle
 10
3428.410433867774
 20
-157.9194218407179
 30
0.0
 40
7.499999999999997
100
AcDbArc
 50
16.53883404889015
 51
94.86175404891113
  0
ARC
  5
2E122
330
A
100
AcDbEntity
  8
レイヤー 1
  6
Continuous
 62
     7
370
    30
100
AcDbCircle
 10
3427.668550413279
 20
-149.2014119221703
 30
0.0
 40
1.249999999999998
100
AcDbArc
 50
94.86173404891909
 51
274.861734048919
  0
CIRCLE
  5
2E150
330
A
100
AcDbEntity
  8
レイヤー 1
  6
Continuous
 62
     7
 48
5.0
370
    25
100
AcDbCircle
 10
3455.160055986997
 20
402.1274327518437
 30
0.0
 40
7.5
  0
CIRCLE
  5
2E167
330
A
100
AcDbEntity
  8
レイヤー 1
  6
Continuous
 62
     7
 48
5.0
370
    25
100
AcDbCircle
 10
2834.111281893346
 20
752.123556445375
 30
0.0
 40
7.5
  0
LINE
  5
2EEBA
330
A
100
AcDbEntity
  8
レイヤー 1
 62
     7
 48
5.0
370
    30
100
AcDbLine
 10
3411.611513415325
 20
376.6239224953265
 30
0.0
 11
3411.611513415325
 21
362.6239224953266
 31
0.0
  0
ARC
  5
2EEBB
330
A
100
AcDbEntity
  8
レイヤー 1
 62
     7
 48
5.0
370
    30
100
AcDbCircle
 10
3414.611513415326
 20
376.6239224953265
 30
0.0
 40
3.0
100
AcDbArc
 50
89.99997999999797
 51
180.0
  0
ARC
  5
2EEBC
330
A
100
AcDbEntity
  8
レイヤー 1
 62
     7
 48
5.0
370
    30
100
AcDbCircle
 10
3414.611513415326
 20
362.6239224953266
 30
0.0
 40
3.0
100
AcDbArc
 50
180.0
 51
270.0
  0
LINE
  5
2EEBD
330
A
100
AcDbEntity
  8
レイヤー 1
 62
     7
 48
5.0
370
    30
100
AcDbLine
 10
3414.611514462523
 20
379.6239224953264
 30
0.0
 11
3415.611433415046
 21
379.6239224953264
 31
0.0
  0
LINE
  5
2EEBE
330
A
100
AcDbEntity
  8
レイヤー 1
 62
     7
 48
5.0
370
    30
100
AcDbLine
 10
3414.611513415326
 20
359.6239224953265
 30
0.0
 11
3415.611433415046
 21
359.6239224953265
 31
0.0
  0
LINE
  5
2EF22
330
A
100
AcDbEntity
  8
レイヤー 1
  6
Continuous
 62
     7
 48
5.0
370
    50
100
AcDbLine
 10
3395.880579674033
 20
801.9044016963782
 30
0.0
 11
3422.658658960096
 21
801.9044016963782
 31
0.0
  0
LINE
  5
2EF40
330
A
100
AcDbEntity
  8
レイヤー 1
  6
Continuous
 62
     7
370
    30
100
AcDbLine
 10
3471.109687209756
 20
-141.9609926586535
 30
0.0
 11
3471.109748704252
 21
-137.3609926590624
 31
0.0
  0
ARC
  5
318F5
330
A
100
AcDbEntity
  8
レイヤー 1
 62
     7
 48
5.0
370
    50
100
AcDbCircle
 10
5063.526100566544
 20
1535.378585994385
 30
0.0
 40
20.0
100
AcDbArc
 50
234.3130976924506
 51
305.6821996153451
  0
ARC
  5
318F6
330
A
100
AcDbEntity
  8
レイヤー 1
 62
     7
 48
5.0
370
    50
100
AcDbCircle
 10
5074.025300566542
 20
1520.757819962468
 30
0.0
 40
2.0
100
AcDbArc
 50
305.6821996153451
 51
0.0
  0
ARC
  5
318F7
330
A
100
AcDbEntity
  8
レイヤー 1
 62
     7
370
    50
100
AcDbCircle
 10
5053.025700566539
 20
1520.758681759408
 30
0.0
 40
2.0
100
AcDbArc
 50
180.0
 51
234.3130976924506
  0
ARC
  5
3190B
330
A
100
AcDbEntity
  8
レイヤー 1
 62
     7
 48
5.0
370
    50
100
AcDbCircle
 10
5063.526100566544
 20
2180.365694030613
 30
0.0
 40
20.0
100
AcDbArc
 50
54.31780038465277
 51
125.6869023075473
  0
ARC
  5
3190C
330
A
100
AcDbEntity
  8
レイヤー 1
 62
     7
 48
5.0
370
    50
100
AcDbCircle
 10
5074.025300566542
 20
2194.986460062529
 30
0.0
 40
2.0
100
AcDbArc
 50
0.0
 51
54.31780038465277
  0
ARC
  5
3190D
330
A
100
AcDbEntity
  8
レイヤー 1
 62
     7
370
    50
100
AcDbCircle
 10
5053.025700566539
 20
2194.98559826559
 30
0.0
 40
2.0
100
AcDbArc
 50
125.6869023075473
 51
180.0
  0
ARC
  5
31A3F
330
A
100
AcDbEntity
  8
レイヤー 1
 62
     7
 48
5.0
370
    50
100
AcDbCircle
 10
4138.485140780935
 20
1535.378585994385
 30
0.0
 40
20.0
100
AcDbArc
 50
234.3178003846485
 51
305.6869023075593
  0
ARC
  5
31A40
330
A
100
AcDbEntity
  8
レイヤー 1
 62
     7
 48
5.0
370
    50
100
AcDbCircle
 10
4127.985940780936
 20
1520.757819962468
 30
0.0
 40
2.0
100
AcDbArc
 50
180.0
 51
234.3178003846485
  0
ARC
  5
31A41
330
A
100
AcDbEntity
  8
レイヤー 1
 62
     7
370
    50
100
AcDbCircle
 10
4148.985540780939
 20
1520.758681759408
 30
0.0
 40
2.0
100
AcDbArc
 50
305.6869023075593
 51
0.0
  0
ARC
  5
31A43
330
A
100
AcDbEntity
  8
レイヤー 1
 62
     7
 48
5.0
370
    50
100
AcDbCircle
 10
4138.485140780935
 20
2180.365694030613
 30
0.0
 40
20.0
100
AcDbArc
 50
54.31309769244045
 51
125.6821996153515
  0
ARC
  5
31A44
330
A
100
AcDbEntity
  8
レイヤー 1
 62
     7
 48
5.0
370
    50
100
AcDbCircle
 10
4127.985940780936
 20
2194.986460062529
 30
0.0
 40
2.0
100
AcDbArc
 50
125.6821996153515
 51
180.0
  0
ARC
  5
31A45
330
A
100
AcDbEntity
  8
レイヤー 1
 62
     7
370
    50
100
AcDbCircle
 10
4148.985540780939
 20
2194.98559826559
 30
0.0
 40
2.0
100
AcDbArc
 50
0.0
 51
54.31309769244045
  0
LINE
  5
31A46
330
A
100
AcDbEntity
  8
レイヤー 1
 62
     7
370
    50
100
AcDbLine
 10
4148.985504867115
 20
2160.365694030613
 30
0.0
 11
4127.985940780937
 21
2160.365694030613
 31
0.0
  0
ARC
  5
32049
330
A
100
AcDbEntity
  8
レイヤー 1
  6
Continuous
 62
     7
370
    50
100
AcDbCircle
 10
5049.02530056655
 20
1544.378585594395
 30
0.0
 40
2.0000004
100
AcDbArc
 50
0.0
 51
89.99981999998189
  0
ARC
  5
3204A
330
A
100
AcDbEntity
  8
レイヤー 1
  6
Continuous
 62
     7
370
    50
100
AcDbCircle
 10
5049.02530056655
 20
1527.379385594418
 30
0.0
 40
2.0000004
100
AcDbArc
 50
270.0002000000201
 51
0.0
  0
LINE
  5
3280E
330
A
100
AcDbEntity
  8
レイヤー 1
 62
     7
370
    50
100
AcDbLine
 10
4150.985540780939
 20
2190.365694030613
 30
0.0
 11
5051.02570056654
 21
2190.365694030613
 31
0.0
  0
LINE
  5
3280F
330
A
100
AcDbEntity
  8
レイヤー 1
 62
     7
370
    50
100
AcDbLine
 10
4150.985540780939
 20
2169.365694030612
 30
0.0
 11
5051.02570056654
 21
2169.365694030612
 31
0.0
  0
LINE
  5
3286D
330
A
100
AcDbEntity
  8
レイヤー 1
 62
     7
370
    20
100
AcDbLine
 10
4150.985540780939
 20
1565.378586002763
 30
0.0
 11
4150.985540780939
 21
1544.378586002763
 31
0.0
  0
ARC
  5
328CB
330
A
100
AcDbEntity
  8
レイヤー 1
 62
     7
370
    50
100
AcDbCircle
 10
4152.985541180938
 20
1567.378585594395
 30
0.0
 40
2.0000004
100
AcDbArc
 50
89.99981999998189
 51
180.0
  0
ARC
  5
328CC
330
A
100
AcDbEntity
  8
レイヤー 1
 62
     7
370
    50
100
AcDbCircle
 10
4152.985541180938
 20
1550.37818559439
 30
0.0
 40
2.0000004
100
AcDbArc
 50
180.0
 51
270.0002000000201
  0
LINE
  5
329BB
330
A
100
AcDbEntity
  8
レイヤー 1
 62
     7
370
    20
100
AcDbLine
 10
4150.985540780939
 20
1565.378586002763
 30
0.0
 11
4150.985540780939
 21
1546.378185602768
 31
0.0
  0
ARC
  5
329BC
330
A
100
AcDbEntity
  8
レイヤー 1
  6
Continuous
 62
     7
370
    50
100
AcDbCircle
 10
5049.025700166541
 20
1567.378585594394
 30
0.0
 40
2.0000004
100
AcDbArc
 50
0.0
 51
90.00018000001812
  0
ARC
  5
329BD
330
A
100
AcDbEntity
  8
レイヤー 1
  6
Continuous
 62
     7
370
    50
100
AcDbCircle
 10
5049.025700166541
 20
1550.37818559439
 30
0.0
 40
2.0000004
100
AcDbArc
 50
269.9997999999799
 51
0.0
  0
LINE
  5
32B98
330
A
100
AcDbEntity
  8
レイヤー 1
  6
Continuous
 62
     7
370
    30
100
AcDbLine
 10
4150.985141180919
 20
1551.878585594395
 30
0.0
 11
4150.985141180919
 21
1534.879385594418
 31
0.0
  0
ARC
  5
32B99
330
A
100
AcDbEntity
  8
レイヤー 1
  6
Continuous
 62
     7
370
    53
100
AcDbCircle
 10
4152.985541180938
 20
1544.378585594395
 30
0.0
 40
2.0000004
100
AcDbArc
 50
89.99981999998189
 51
180.0
  0
ARC
  5
32B9A
330
A
100
AcDbEntity
  8
レイヤー 1
  6
Continuous
 62
     7
370
    50
100
AcDbCircle
 10
4152.985568670484
 20
1527.37891850026
 30
0.0
 40
2.0000004
100
AcDbArc
 50
180.0
 51
270.0002000000201
  0
CIRCLE
  5
3418E
330
A
100
AcDbEntity
  8
レイヤー 1
  6
Continuous
 62
     7
100
AcDbCircle
 10
3455.160055986997
 20
402.1274327518437
 30
0.0
 40
6.5
  0
CIRCLE
  5
3418F
330
A
100
AcDbEntity
  8
レイヤー 1
  6
Continuous
 62
     7
100
AcDbCircle
 10
3455.160055986997
 20
402.1274327518437
 30
0.0
 40
5.7
  0
LINE
  5
34190
330
A
100
AcDbEntity
  8
レイヤー 1
  6
Continuous
 62
     7
100
AcDbLine
 10
3454.160055986997
 20
403.8595327518437
 30
0.0
 11
3456.160055986997
 21
403.8595327518437
 31
0.0
  0
LINE
  5
34191
330
A
100
AcDbEntity
  8
レイヤー 1
  6
Continuous
 62
     7
100
AcDbLine
 10
3453.160055986997
 20
402.1274327518437
 30
0.0
 11
3454.160055986997
 21
403.8595327518437
 31
0.0
  0
LINE
  5
34192
330
A
100
AcDbEntity
  8
レイヤー 1
  6
Continuous
 62
     7
100
AcDbLine
 10
3453.160055986997
 20
402.1274327518437
 30
0.0
 11
3454.160055986997
 21
400.3954327518437
 31
0.0
  0
LINE
  5
34193
330
A
100
AcDbEntity
  8
レイヤー 1
  6
Continuous
 62
     7
100
AcDbLine
 10
3454.160055986997
 20
400.3954327518437
 30
0.0
 11
3456.160055986997
 21
400.3954327518437
 31
0.0
  0
LINE
  5
34194
330
A
100
AcDbEntity
  8
レイヤー 1
  6
Continuous
 62
     7
100
AcDbLine
 10
3456.160055986997
 20
400.3954327518437
 30
0.0
 11
3457.160055986997
 21
402.1274327518437
 31
0.0
  0
LINE
  5
34195
330
A
100
AcDbEntity
  8
レイヤー 1
  6
Continuous
 62
     7
100
AcDbLine
 10
3456.160055986997
 20
403.8595327518437
 30
0.0
 11
3457.160055986997
 21
402.1274327518437
 31
0.0
  0
CIRCLE
  5
34196
330
A
100
AcDbEntity
  8
レイヤー 1
  6
Continuous
 62
     7
100
AcDbCircle
 10
2834.15982446502
 20
-9.848187239233167
 30
0.0
 40
6.5
  0
CIRCLE
  5
34197
330
A
100
AcDbEntity
  8
レイヤー 1
  6
Continuous
 62
     7
100
AcDbCircle
 10
2834.15982446502
 20
-9.848187239233167
 30
0.0
 40
5.7
  0
LINE
  5
34198
330
A
100
AcDbEntity
  8
レイヤー 1
  6
Continuous
 62
     7
100
AcDbLine
 10
2833.15982446502
 20
-8.116087239233223
 30
0.0
 11
2835.15982446502
 21
-8.116087239233223
 31
0.0
  0
LINE
  5
34199
330
A
100
AcDbEntity
  8
レイヤー 1
  6
Continuous
 62
     7
100
AcDbLine
 10
2832.15982446502
 20
-9.848187239233167
 30
0.0
 11
2833.15982446502
 21
-8.116087239233223
 31
0.0
  0
LINE
  5
3419A
330
A
100
AcDbEntity
  8
レイヤー 1
  6
Continuous
 62
     7
100
AcDbLine
 10
2832.15982446502
 20
-9.848187239233167
 30
0.0
 11
2833.15982446502
 21
-11.58018723923314
 31
0.0
  0
LINE
  5
3419B
330
A
100
AcDbEntity
  8
レイヤー 1
  6
Continuous
 62
     7
100
AcDbLine
 10
2833.15982446502
 20
-11.58018723923314
 30
0.0
 11
2835.15982446502
 21
-11.58018723923314
 31
0.0
  0
LINE
  5
3419C
330
A
100
AcDbEntity
  8
レイヤー 1
  6
Continuous
 62
     7
100
AcDbLine
 10
2835.15982446502
 20
-11.58018723923314
 30
0.0
 11
2836.15982446502
 21
-9.848187239233167
 31
0.0
  0
LINE
  5
3419D
330
A
100
AcDbEntity
  8
レイヤー 1
  6
Continuous
 62
     7
100
AcDbLine
 10
2835.15982446502
 20
-8.116087239233223
 30
0.0
 11
2836.15982446502
 21
-9.848187239233167
 31
0.0
  0
CIRCLE
  5
3419E
330
A
100
AcDbEntity
  8
レイヤー 1
  6
Continuous
 62
     7
100
AcDbCircle
 10
2834.111281893346
 20
752.123556445375
 30
0.0
 40
6.5
  0
CIRCLE
  5
3419F
330
A
100
AcDbEntity
  8
レイヤー 1
  6
Continuous
 62
     7
100
AcDbCircle
 10
2834.111281893346
 20
752.123556445375
 30
0.0
 40
5.7
  0
LINE
  5
341A0
330
A
100
AcDbEntity
  8
レイヤー 1
  6
Continuous
 62
     7
100
AcDbLine
 10
2833.111281893346
 20
753.8556564453751
 30
0.0
 11
2835.111281893346
 21
753.8556564453751
 31
0.0
  0
LINE
  5
341A1
330
A
100
AcDbEntity
  8
レイヤー 1
  6
Continuous
 62
     7
100
AcDbLine
 10
2832.111281893346
 20
752.123556445375
 30
0.0
 11
2833.111281893346
 21
753.8556564453751
 31
0.0
  0
LINE
  5
341A2
330
A
100
AcDbEntity
  8
レイヤー 1
  6
Continuous
 62
     7
100
AcDbLine
 10
2832.111281893346
 20
752.123556445375
 30
0.0
 11
2833.111281893346
 21
750.391556445375
 31
0.0
  0
LINE
  5
341A3
330
A
100
AcDbEntity
  8
レイヤー 1
  6
Continuous
 62
     7
100
AcDbLine
 10
2833.111281893346
 20
750.391556445375
 30
0.0
 11
2835.111281893346
 21
750.391556445375
 31
0.0
  0
LINE
  5
341A4
330
A
100
AcDbEntity
  8
レイヤー 1
  6
Continuous
 62
     7
100
AcDbLine
 10
2835.111281893346
 20
750.391556445375
 30
0.0
 11
2836.111281893347
 21
752.123556445375
 31
0.0
  0
LINE
  5
341A5
330
A
100
AcDbEntity
  8
レイヤー 1
  6
Continuous
 62
     7
100
AcDbLine
 10
2835.111281893346
 20
753.8556564453751
 30
0.0
 11
2836.111281893347
 21
752.123556445375
 31
0.0
  0
LINE
  5
35BC4
330
A
100
AcDbEntity
  8
レイヤー 1
  6
Continuous
 62
     7
 48
5.0
370
    50
100
AcDbLine
 10
2851.611361893348
 20
-137.3764435546249
 30
0.0
 11
2815.611361893348
 21
-137.3764435546249
 31
0.0
  0
LINE
  5
35EB3
330
A
100
AcDbEntity
  8
レイヤー 1
  6
Continuous
 62
     7
370
    30
100
AcDbLine
 10
2829.609475753859
 20
-141.9512795047066
 30
0.0
 11
2829.609438683908
 21
-144.7242395044536
 31
0.0
  0
LINE
  5
35EB4
330
A
100
AcDbEntity
  8
レイヤー 1
  6
Continuous
 62
     7
370
    30
100
AcDbLine
 10
2837.609475753144
 20
-141.9513864516551
 30
0.0
 11
2837.609438683193
 21
-144.7243464514022
 31
0.0
  0
LINE
  5
36167
330
A
100
AcDbEntity
  8
レイヤー 1
  6
Continuous
 62
     7
 48
5.0
370
    50
100
AcDbLine
 10
2832.361325702954
 20
786.2307724651805
 30
0.0
 11
2848.611319232651
 21
786.230773999266
 31
0.0
  0
ARC
  5
3616A
330
A
100
AcDbEntity
  8
レイヤー 1
 62
     7
370
    50
100
AcDbCircle
 10
2833.611322451164
 20
766.2307713773724
 30
0.0
 40
20.0
100
AcDbArc
 50
89.61650165993075
 51
180.0116287152359
  0
LINE
  5
3626A
330
A
100
AcDbEntity
  8
レイヤー 1
  6
Continuous
 62
     7
 48
5.0
370
    50
100
AcDbLine
 10
3478.471218379571
 20
786.2309441541214
 30
0.0
 11
3448.602956531175
 21
786.230946771807
 31
0.0
  0
ARC
  5
3626C
330
A
100
AcDbEntity
  8
レイヤー 1
 62
     7
370
    50
100
AcDbCircle
 10
3478.605086553042
 20
766.2309441322596
 30
0.0
 40
20.0
100
AcDbArc
 50
359.9883712847641
 51
90.38349834008059
  0
LINE
  5
36274
330
A
100
AcDbEntity
  8
レイヤー 1
  6
Continuous
 62
     7
 48
5.0
370
    50
100
AcDbLine
 10
2813.611361294703
 20
766.2701888866794
 30
0.0
 11
2813.611361493348
 21
-135.3764035546259
 31
0.0
  0
LINE
  5
382CC
330
A
100
AcDbEntity
  8
レイヤー 1
  6
Continuous
 62
     7
 48
5.0
370
    50
100
AcDbLine
 10
4126.026100510414
 20
780.8886054042425
 30
0.0
 11
4126.026100561022
 21
-135.3731006995043
 31
0.0
  0
LINE
  5
384DB
330
A
100
AcDbEntity
  8
レイヤー 1
  6
Continuous
 62
     7
 48
5.0
370
    50
100
AcDbLine
 10
2194.900657516161
 20
384.6279714217442
 30
0.0
 11
2194.900657516161
 21
2.628092887835029
 31
0.0
  0
LINE
  5
384DD
330
A
100
AcDbEntity
  8
レイヤー 1
  6
Continuous
 62
     7
 48
5.0
370
    50
100
AcDbLine
 10
2219.900257516163
 20
384.6293971219651
 30
0.0
 11
2219.900257459848
 21
780.890760866607
 31
0.0
  0
LINE
  5
3923B
330
A
100
AcDbEntity
  8
レイヤー 1
  6
Continuous
 62
     7
370
    50
100
AcDbLine
 10
3498.605086141117
 20
766.2268849449145
 30
0.0
 11
3498.611078802241
 21
-135.3720146341319
 31
0.0
  0
LINE
  5
397A8
330
A
100
AcDbEntity
  8
レイヤー 1
  6
Continuous
 62
     7
370
    50
100
AcDbLine
 10
4152.985541180938
 20
1569.378585994385
 30
0.0
 11
5049.025700166541
 21
1569.378585994385
 31
0.0
  0
LINE
  5
397AA
330
A
100
AcDbEntity
  8
レイヤー 1
  6
Continuous
 62
     7
370
    50
100
AcDbLine
 10
4152.945503203239
 20
1548.378585994385
 30
0.0
 11
5049.065738144245
 21
1548.378585994385
 31
0.0
  0
LINE
  5
3E0F6
330
A
100
AcDbEntity
  8
レイヤー 1
 62
     7
370
    20
100
AcDbLine
 10
4125.985940780937
 20
2162.365694030613
 30
0.0
 11
4125.985940780936
 21
2169.871094719985
 31
0.0
  0
LINE
  5
3E0F7
330
A
100
AcDbEntity
  8
レイヤー 1
 62
     7
370
    20
100
AcDbLine
 10
4150.985504867064
 20
2162.365680005788
 30
0.0
 11
4150.985540780939
 21
2167.487151793213
 31
0.0
  0
ARC
  5
3E0F8
330
A
100
AcDbEntity
  8
レイヤー 1
 62
     7
 48
5.0
370
    50
100
AcDbCircle
 10
4127.985940780937
 20
2162.365694030613
 30
0.0
 40
2.0
100
AcDbArc
 50
179.9999999999971
 51
270.0
  0
ARC
  5
3E0F9
330
A
100
AcDbEntity
  8
レイヤー 1
 62
     7
 48
5.0
370
    50
100
AcDbCircle
 10
4148.985504867115
 20
2162.365694030613
 30
0.0
 40
2.0
100
AcDbArc
 50
270.0
 51
359.9995982183651
  0
ARC
  5
3E0FB
330
A
100
AcDbEntity
  8
レイヤー 1
 62
     7
 48
5.0
370
    50
100
AcDbCircle
 10
4127.985940780936
 20
1568.378586002762
 30
0.0
 40
2.0
100
AcDbArc
 50
90.0
 51
180.0
  0
ARC
  5
3E0FC
330
A
100
AcDbEntity
  8
レイヤー 1
 62
     7
 48
5.0
370
    50
100
AcDbCircle
 10
4148.984561883771
 20
1568.378586002762
 30
0.0
 40
2.0
100
AcDbArc
 50
0.0000000000008142
 51
90.0
  0
LINE
  5
3E0FD
330
A
100
AcDbEntity
  8
レイヤー 1
 62
     7
370
    50
100
AcDbLine
 10
4148.984561883771
 20
1570.378586002763
 30
0.0
 11
4127.985940780936
 21
1570.378586002763
 31
0.0
  0
LINE
  5
3E303
330
A
100
AcDbEntity
  8
レイヤー 1
 62
     7
370
    20
100
AcDbLine
 10
5051.026223680668
 20
1568.379041889707
 30
0.0
 11
5051.02570056654
 21
1566.084112753087
 31
0.0
  0
LINE
  5
3E304
330
A
100
AcDbEntity
  8
レイヤー 1
 62
     7
370
    20
100
AcDbLine
 10
5076.025300566541
 20
1568.378586002763
 30
0.0
 11
5076.025300566541
 21
1567.446573692276
 31
0.0
  0
LINE
  5
3E307
330
A
100
AcDbEntity
  8
レイヤー 1
 62
     7
370
    20
100
AcDbLine
 10
5051.025736095006
 20
2162.36567962038
 30
0.0
 11
5051.02570056654
 21
2167.296684893597
 31
0.0
  0
LINE
  5
3E308
330
A
100
AcDbEntity
  8
レイヤー 1
 62
     7
370
    20
100
AcDbLine
 10
5076.025356527565
 20
2162.365708415809
 30
0.0
 11
5076.025300566541
 21
2170.146070982464
 31
0.0
  0
LINE
  5
3F6A2
330
A
100
AcDbEntity
  8
レイヤー 1
  6
Continuous
 62
     7
 48
5.0
370
    50
100
AcDbLine
 10
2901.340347317543
 20
801.8817651375169
 30
0.0
 11
2874.611319726974
 21
801.8817651375121
 31
0.0
  0
ARC
  5
3F6B2
330
A
100
AcDbEntity
  8
レイヤー 1
  6
Continuous
 62
     7
 48
5.0
370
    50
100
AcDbCircle
 10
3422.617899137544
 20
781.8819415859784
 30
0.0
 40
20.0
100
AcDbArc
 50
0.0000000000053942
 51
90.0
  0
ARC
  5
3F6B5
330
A
100
AcDbEntity
  8
レイヤー 1
 62
     7
 48
5.0
370
    50
100
AcDbCircle
 10
3448.60295609297
 20
781.2309467718067
 30
0.0
 40
5.0
100
AcDbArc
 50
89.99999497853536
 51
178.5078611248156
  0
ARC
  5
3F6B7
330
A
100
AcDbEntity
  8
レイヤー 1
 62
     7
 48
5.0
370
    50
100
AcDbCircle
 10
2848.611319704678
 20
781.230773999266
 30
0.0
 40
5.0
100
AcDbArc
 50
359.999998037026
 51
90.00000540902574
  0
ARC
  5
3F6B8
330
A
100
AcDbEntity
  8
レイヤー 1
  6
Continuous
 62
     7
 48
5.0
370
    50
100
AcDbCircle
 10
2874.610057506882
 20
781.8817688310359
 30
0.0
 40
20.0
100
AcDbArc
 50
90.00000000000976
 51
179.9999980370259
  0
LINE
  5
3F6B9
330
A
100
AcDbEntity
  8
レイヤー 1
  6
Continuous
 62
     7
 48
5.0
370
    50
100
AcDbLine
 10
2853.611319705344
 20
781.250207642936
 30
0.0
 11
2853.61131790248
 21
728.6277643123172
 31
0.0
  0
ARC
  5
3F6CC
330
A
100
AcDbEntity
  8
レイヤー 1
  6
Continuous
 62
     7
 48
5.0
370
    50
100
AcDbCircle
 10
3395.880579674033
 20
856.9044016963783
 30
0.0
 40
55.0
100
AcDbArc
 50
246.1434637651859
 51
270.0
  0
ARC
  5
3F6CD
330
A
100
AcDbEntity
  8
レイヤー 1
  6
Continuous
 62
     7
 48
5.0
370
    50
100
AcDbCircle
 10
2901.340347317534
 20
856.8817651375168
 30
0.0
 40
55.0
100
AcDbArc
 50
270.00000000001
 51
293.8565362350678
  0
LINE
  5
3F6CE
330
A
100
AcDbEntity
  8
レイヤー 1
 62
     7
370
    25
100
AcDbLine
 10
5051.067951697604
 20
196.627432751844
 30
0.0
 11
5051.067951697604
 21
196.627432751844
 31
0.0
  0
ARC
  5
3F6D8
330
A
100
AcDbEntity
  8
レイヤー 1
  6
Continuous
 62
     7
 48
5.0
370
    50
100
AcDbCircle
 10
3345.324588398863
 20
742.5842733453964
 30
0.0
 40
70.0
100
AcDbArc
 50
66.14346376518589
 51
116.1044609488962
  0
ARC
  5
3F6D9
330
A
100
AcDbEntity
  8
レイヤー 1
  6
Continuous
 62
     7
 48
5.0
370
    50
100
AcDbCircle
 10
2951.896338593209
 20
742.5616367867587
 30
0.0
 40
70.0
100
AcDbArc
 50
63.91086280238722
 51
113.8565362350676
  0
ARC
  5
3F75C
330
A
100
AcDbEntity
  8
レイヤー 1
  6
Continuous
 62
     7
 48
5.0
370
    50
100
AcDbCircle
 10
4154.52570056654
 20
772.6277527518432
 30
0.0
 40
2.0
100
AcDbArc
 50
90.0
 51
180.0
  0
ARC
  5
3F75D
330
A
100
AcDbEntity
  8
レイヤー 1
  6
Continuous
 62
     7
 48
5.0
370
    50
100
AcDbCircle
 10
5047.525700566541
 20
772.6277527518432
 30
0.0
 40
2.0
100
AcDbArc
 50
0.0
 51
90.0
  0
LINE
  5
40ECC
330
A
100
AcDbEntity
  8
レイヤー 1
  6
Continuous
 62
     7
 48
5.0
370
    50
100
AcDbLine
 10
4360.521019220207
 20
357.6274559364754
 30
0.0
 11
4360.521019220207
 21
381.6274559694982
 31
0.0
  0
LINE
  5
41362
330
A
100
AcDbEntity
  8
レイヤー 1
  6
Continuous
 62
     7
370
    50
100
AcDbLine
 10
4359.521019220206
 20
8.627455969498083
 30
0.0
 11
4359.521019220204
 21
31.62751532190171
 31
0.0
  0
LINE
  5
415C5
330
A
100
AcDbEntity
  8
レイヤー 1
  6
Continuous
 62
     7
 48
5.0
370
    25
100
AcDbLine
 10
4699.073179865648
 20
342.9045527518467
 30
0.0
 11
4699.524379865652
 21
356.6272727518482
 31
0.0
  0
LINE
  5
415C6
330
A
100
AcDbEntity
  8
レイヤー 1
  6
Continuous
 62
     7
 48
5.0
370
    25
100
AcDbLine
 10
4708.524379865653
 20
356.6273927518452
 30
0.0
 11
4708.97437986565
 21
342.9045527518467
 31
0.0
  0
LINE
  5
41613
330
A
100
AcDbEntity
  8
レイヤー 1
  6
Continuous
 62
     7
 48
5.0
370
    25
100
AcDbLine
 10
4708.423579865656
 20
388.6274327518439
 30
0.0
 11
4708.423579865656
 21
383.6290118841164
 31
0.0
  0
LINE
  5
41614
330
A
100
AcDbEntity
  8
レイヤー 1
  6
Continuous
 62
     7
 48
5.0
370
    25
100
AcDbLine
 10
4699.623979865655
 20
388.6274327518439
 30
0.0
 11
4699.623979865655
 21
383.6289817860414
 31
0.0
  0
ARC
  5
4162E
330
A
100
AcDbEntity
  8
レイヤー 1
  6
Continuous
 62
     7
 48
5.0
370
    25
100
AcDbCircle
 10
4704.024379865653
 20
354.6272327518456
 30
0.0
 40
20.000004
100
AcDbArc
 50
245.0989999999897
 51
294.9010999999993
  0
ARC
  5
4162F
330
A
100
AcDbEntity
  8
レイヤー 1
  6
Continuous
 62
     7
 48
5.0
370
    25
100
AcDbCircle
 10
4712.023579865651
 20
337.3935527518481
 30
0.0
 40
0.99999996
100
AcDbArc
 50
294.9010999999993
 51
71.05578999999557
  0
ARC
  5
41630
330
A
100
AcDbEntity
  8
レイヤー 1
  6
Continuous
 62
     7
 48
5.0
370
    25
100
AcDbCircle
 10
4713.972379865657
 20
343.0687127518469
 30
0.0
 40
5.000000400000001
100
AcDbArc
 50
181.8807000000082
 51
251.0557999999944
  0
ARC
  5
41631
330
A
100
AcDbEntity
  8
レイヤー 1
  6
Continuous
 62
     7
 48
5.0
370
    25
100
AcDbCircle
 10
4696.0242728809
 20
337.3937046354506
 30
0.0
 40
0.99999996
100
AcDbArc
 50
108.9442999999968
 51
245.0989999999897
  0
ARC
  5
41632
330
A
100
AcDbEntity
  8
レイヤー 1
  6
Continuous
 62
     7
 48
5.0
370
    25
100
AcDbCircle
 10
4694.076379865656
 20
343.0687127518469
 30
0.0
 40
5.000000400000001
100
AcDbArc
 50
288.9443000000002
 51
358.1194000000014
  0
LINE
  5
4319A
330
A
100
AcDbEntity
  8
レイヤー 1
  6
Continuous
 62
     7
 48
5.0
370
    50
100
AcDbLine
 10
4666.521022119989
 20
738.6278301739347
 30
0.0
 11
4666.521022119988
 21
415.6274327518437
 31
0.0
  0
LINE
  5
4319B
330
A
100
AcDbEntity
  8
レイヤー 1
  6
Continuous
 62
     7
 48
5.0
370
    50
100
AcDbLine
 10
4638.521022119987
 20
738.6277527518432
 30
0.0
 11
4638.521022119987
 21
415.6274327518438
 31
0.0
  0
LINE
  5
44D56
330
A
100
AcDbEntity
  8
レイヤー 1
  6
Continuous
 62
     7
370
    50
100
AcDbLine
 10
3443.604651557424
 20
781.3611457346411
 30
0.0
 11
3443.609828085765
 21
81.62712113979035
 31
0.0
  0
LINE
  5
45ED7
330
A
100
AcDbEntity
  8
レイヤー 1
  6
Continuous
 62
     7
 48
5.0
370
    50
100
AcDbLine
 10
4362.482411000015
 20
356.6278286198652
 30
0.0
 11
4839.529923673055
 21
356.6294604094332
 31
0.0
  0
CIRCLE
  5
45F52
330
A
100
AcDbEntity
  8
レイヤー 1
  6
Continuous
 62
     7
100
AcDbCircle
 10
4242.003728978216
 20
369.6237497404395
 30
0.0
 40
6.999999599999999
  0
CIRCLE
  5
45F53
330
A
100
AcDbEntity
  8
レイヤー 1
  6
Continuous
 62
     7
100
AcDbCircle
 10
4242.003728978216
 20
369.6237497404395
 30
0.0
 40
6.0
  0
CIRCLE
  5
45F54
330
A
100
AcDbEntity
  8
レイヤー 1
  6
Continuous
 62
     7
 48
5.0
370
    25
100
AcDbCircle
 10
4242.003728978216
 20
22.63073536599441
 30
0.0
 40
6.999999599999999
  0
CIRCLE
  5
45F55
330
A
100
AcDbEntity
  8
レイヤー 1
  6
Continuous
 62
     7
 48
5.0
370
    25
100
AcDbCircle
 10
4242.003728978216
 20
22.63073536599441
 30
0.0
 40
3.999999599999998
  0
LINE
  5
45F56
330
A
100
AcDbEntity
  8
レイヤー 1
  6
Continuous
 62
     7
100
AcDbLine
 10
4239.504128978222
 20
370.1237897404384
 30
0.0
 11
4240.503728978216
 21
370.1237897404384
 31
0.0
  0
LINE
  5
45F57
330
A
100
AcDbEntity
  8
レイヤー 1
  6
Continuous
 62
     7
100
AcDbLine
 10
4241.504528978219
 20
371.1237497404395
 30
0.0
 11
4241.504528978219
 21
372.1238297404411
 31
0.0
  0
LINE
  5
45F58
330
A
100
AcDbEntity
  8
レイヤー 1
  6
Continuous
 62
     7
100
AcDbLine
 10
4241.504528978219
 20
372.1238297404411
 30
0.0
 11
4242.504128978222
 21
372.1238297404411
 31
0.0
  0
LINE
  5
45F59
330
A
100
AcDbEntity
  8
レイヤー 1
  6
Continuous
 62
     7
100
AcDbLine
 10
4244.504528978219
 20
370.1237897404384
 30
0.0
 11
4244.504528978219
 21
369.1238297404411
 31
0.0
  0
LINE
  5
45F5A
330
A
100
AcDbEntity
  8
レイヤー 1
  6
Continuous
 62
     7
100
AcDbLine
 10
4243.503728978216
 20
369.1238297404411
 30
0.0
 11
4244.504528978219
 21
369.1238297404411
 31
0.0
  0
LINE
  5
45F5B
330
A
100
AcDbEntity
  8
レイヤー 1
  6
Continuous
 62
     7
100
AcDbLine
 10
4242.504128978222
 20
368.1237497404394
 30
0.0
 11
4242.504128978222
 21
367.1237897404385
 31
0.0
  0
LINE
  5
45F5C
330
A
100
AcDbEntity
  8
レイヤー 1
  6
Continuous
 62
     7
100
AcDbLine
 10
4241.504528978219
 20
367.1237897404385
 30
0.0
 11
4242.504128978222
 21
367.1237897404385
 31
0.0
  0
LINE
  5
45F5D
330
A
100
AcDbEntity
  8
レイヤー 1
  6
Continuous
 62
     7
100
AcDbLine
 10
4241.504528978219
 20
367.1237897404385
 30
0.0
 11
4241.504528978219
 21
368.1237497404394
 31
0.0
  0
LINE
  5
45F5E
330
A
100
AcDbEntity
  8
レイヤー 1
  6
Continuous
 62
     7
100
AcDbLine
 10
4239.504128978222
 20
369.1238297404411
 30
0.0
 11
4240.503728978216
 21
369.1238297404411
 31
0.0
  0
LINE
  5
45F5F
330
A
100
AcDbEntity
  8
レイヤー 1
  6
Continuous
 62
     7
100
AcDbLine
 10
4239.504128978222
 20
369.1238297404411
 30
0.0
 11
4239.504128978222
 21
370.1237897404384
 31
0.0
  0
LINE
  5
45F60
330
A
100
AcDbEntity
  8
レイヤー 1
  6
Continuous
 62
     7
100
AcDbLine
 10
4242.504128978222
 20
372.1238297404411
 30
0.0
 11
4242.504128978222
 21
371.1237497404395
 31
0.0
  0
LINE
  5
45F61
330
A
100
AcDbEntity
  8
レイヤー 1
  6
Continuous
 62
     7
100
AcDbLine
 10
4243.503728978216
 20
370.1237897404384
 30
0.0
 11
4244.504528978219
 21
370.1237897404384
 31
0.0
  0
ARC
  5
45F62
330
A
100
AcDbEntity
  8
レイヤー 1
  6
Continuous
 62
     7
100
AcDbCircle
 10
4243.503728978216
 20
371.1237497404395
 30
0.0
 40
0.99999996
100
AcDbArc
 50
180.0
 51
270.0
  0
ARC
  5
45F63
330
A
100
AcDbEntity
  8
レイヤー 1
  6
Continuous
 62
     7
100
AcDbCircle
 10
4240.503728978216
 20
371.1237497404395
 30
0.0
 40
0.99999996
100
AcDbArc
 50
270.0
 51
0.0
  0
ARC
  5
45F64
330
A
100
AcDbEntity
  8
レイヤー 1
  6
Continuous
 62
     7
100
AcDbCircle
 10
4240.503728978216
 20
368.1237497404394
 30
0.0
 40
0.99999996
100
AcDbArc
 50
0.0
 51
89.99997999999797
  0
ARC
  5
45F65
330
A
100
AcDbEntity
  8
レイヤー 1
  6
Continuous
 62
     7
100
AcDbCircle
 10
4243.503728978216
 20
368.1237497404394
 30
0.0
 40
0.99999996
100
AcDbArc
 50
90.0
 51
180.0
  0
CIRCLE
  5
45F67
330
A
100
AcDbEntity
  8
レイヤー 1
  6
Continuous
 62
     7
 48
5.0
370
    25
100
AcDbCircle
 10
4242.003728978216
 20
196.1274499017766
 30
0.0
 40
6.999999599999999
  0
CIRCLE
  5
45F68
330
A
100
AcDbEntity
  8
レイヤー 1
  6
Continuous
 62
     7
 48
5.0
370
    25
100
AcDbCircle
 10
4242.003728978216
 20
196.1274499017766
 30
0.0
 40
3.999999599999998
  0
LINE
  5
45F69
330
A
100
AcDbEntity
  8
レイヤー 1
  6
Continuous
 62
     7
 48
5.0
370
    50
100
AcDbLine
 10
4228.503728978217
 20
388.6274327518438
 30
0.0
 11
4228.503728978217
 21
3.627432751843929
 31
0.0
  0
LINE
  5
45F6A
330
A
100
AcDbEntity
  8
レイヤー 1
  6
Continuous
 62
     7
 48
5.0
370
    50
100
AcDbLine
 10
4255.503728978218
 20
388.6274327518439
 30
0.0
 11
4255.503728978218
 21
3.627432751843933
 31
0.0
  0
LINE
  5
4608A
330
A
100
AcDbEntity
  8
レイヤー 1
  6
Continuous
 62
     7
 48
5.0
370
    50
100
AcDbLine
 10
4357.521022119986
 20
388.6274327518439
 30
0.0
 11
4357.521022119986
 21
3.627432751843941
 31
0.0
  0
ARC
  5
46B7C
330
A
100
AcDbEntity
  8
レイヤー 1
  6
Continuous
 62
     7
 48
5.0
370
    50
100
AcDbCircle
 10
4361.521019220204
 20
31.62751532190188
 30
0.0
 40
2.0
100
AcDbArc
 50
90.00019422809648
 51
180.0000000000047
  0
ARC
  5
46B7E
330
A
100
AcDbEntity
  8
レイヤー 1
  6
Continuous
 62
     7
 48
5.0
370
    50
100
AcDbCircle
 10
4362.521019220206
 20
358.6274559364754
 30
0.0
 40
2.0
100
AcDbArc
 50
180.0
 51
270.0001959860449
  0
LINE
  5
470AB
330
A
100
AcDbEntity
  8
レイヤー 1
  6
Continuous
 62
     7
 48
5.0
370
    25
100
AcDbLine
 10
4357.521022119986
 20
24.12747251893382
 30
0.0
 11
4357.521022119986
 21
16.12747251893381
 31
0.0
  0
LINE
  5
4BCC2
330
A
100
AcDbEntity
  8
レイヤー 1
  6
Continuous
 62
     7
 48
5.0
370
    50
100
AcDbLine
 10
4460.521022119989
 20
738.6276572520413
 30
0.0
 11
4460.521022119986
 21
415.6274327518438
 31
0.0
  0
LINE
  5
4BCC3
330
A
100
AcDbEntity
  8
レイヤー 1
  6
Continuous
 62
     7
 48
5.0
370
    50
100
AcDbLine
 10
4432.521022119987
 20
738.6275798299497
 30
0.0
 11
4432.521022119987
 21
415.6274327518438
 31
0.0
  0
LINE
  5
4BCD2
330
A
100
AcDbEntity
  8
レイヤー 1
  6
Continuous
 62
     7
 48
5.0
370
    50
100
AcDbLine
 10
4769.521022119991
 20
738.6278301739347
 30
0.0
 11
4769.521022119987
 21
415.6274327518438
 31
0.0
  0
LINE
  5
4BCD3
330
A
100
AcDbEntity
  8
レイヤー 1
  6
Continuous
 62
     7
 48
5.0
370
    50
100
AcDbLine
 10
4741.521022119989
 20
738.6277527518432
 30
0.0
 11
4741.521022119989
 21
415.627432751844
 31
0.0
  0
LINE
  5
4BCE2
330
A
100
AcDbEntity
  8
レイヤー 1
  6
Continuous
 62
     7
 48
5.0
370
    50
100
AcDbLine
 10
3066.611427610902
 20
738.6273497554467
 30
0.0
 11
3066.611427610898
 21
3.627432795973577
 31
0.0
  0
LINE
  5
4BCE3
330
A
100
AcDbEntity
  8
レイヤー 1
  6
Continuous
 62
     7
 48
5.0
370
    50
100
AcDbLine
 10
3038.611430510676
 20
738.627746809108
 30
0.0
 11
3038.611430510676
 21
3.627432791146623
 31
0.0
  0
LINE
  5
4BCE4
330
A
100
AcDbEntity
  8
レイヤー 1
  6
Continuous
 62
     7
 48
5.0
370
    50
100
AcDbLine
 10
3066.611427610898
 20
738.6273493894337
 30
0.0
 11
3066.611427610898
 21
3.627432795973577
 31
0.0
  0
LINE
  5
4BCF3
330
A
100
AcDbEntity
  8
レイヤー 1
  6
Continuous
 62
     7
 48
5.0
370
    50
100
AcDbLine
 10
2985.611700532301
 20
738.6509215410231
 30
0.0
 11
2985.611700532295
 21
3.627432782008475
 31
0.0
  0
LINE
  5
4BCF4
330
A
100
AcDbEntity
  8
レイヤー 1
  6
Continuous
 62
     7
 48
5.0
370
    50
100
AcDbLine
 10
2957.611703432074
 20
738.6513185946841
 30
0.0
 11
2957.611703432074
 21
3.627432777181831
 31
0.0
  0
LINE
  5
4BCF5
330
A
100
AcDbEntity
  8
レイヤー 1
  6
Continuous
 62
     7
 48
5.0
370
    50
100
AcDbLine
 10
2985.611700532295
 20
738.6509211750101
 30
0.0
 11
2985.611700532295
 21
3.627432782008473
 31
0.0
  0
LINE
  5
4BD04
330
A
100
AcDbEntity
  8
レイヤー 1
  6
Continuous
 62
     7
 48
5.0
370
    50
100
AcDbLine
 10
3258.604503471501
 20
738.6286849218103
 30
0.0
 11
3258.604503471495
 21
3.627432829071506
 31
0.0
  0
LINE
  5
4BD05
330
A
100
AcDbEntity
  8
レイヤー 1
  6
Continuous
 62
     7
 48
5.0
370
    50
100
AcDbLine
 10
3230.604506371274
 20
738.6290819754712
 30
0.0
 11
3230.604506371274
 21
3.627432824244551
 31
0.0
  0
LINE
  5
4BD06
330
A
100
AcDbEntity
  8
レイヤー 1
  6
Continuous
 62
     7
 48
5.0
370
    50
100
AcDbLine
 10
3258.604503471494
 20
738.6286845557972
 30
0.0
 11
3258.604503471494
 21
3.627432829071506
 31
0.0
  0
LINE
  5
4BD15
330
A
100
AcDbEntity
  8
レイヤー 1
  6
Continuous
 62
     7
 48
5.0
370
    50
100
AcDbLine
 10
3339.611436314842
 20
738.6273533597679
 30
0.0
 11
3339.611436314837
 21
3.627432843036393
 31
0.0
  0
LINE
  5
4BD16
330
A
100
AcDbEntity
  8
レイヤー 1
  6
Continuous
 62
     7
 48
5.0
370
    50
100
AcDbLine
 10
3311.611439214616
 20
738.6277504134291
 30
0.0
 11
3311.611439214616
 21
3.627432838209438
 31
0.0
  0
LINE
  5
4BD17
330
A
100
AcDbEntity
  8
レイヤー 1
  6
Continuous
 62
     7
 48
5.0
370
    50
100
AcDbLine
 10
3339.611436314837
 20
738.627352993755
 30
0.0
 11
3339.611436314837
 21
3.627432843036392
 31
0.0
  0
LINE
  5
4BD21
330
A
100
AcDbEntity
  8
レイヤー 1
  6
Continuous
 62
     7
 48
5.0
370
    50
100
AcDbLine
 10
3176.115193698175
 20
3.627432814851071
 30
0.0
 11
3176.115193698175
 21
738.6277507969743
 31
0.0
  0
LINE
  5
4BD22
330
A
100
AcDbEntity
  8
レイヤー 1
  6
Continuous
 62
     7
 48
5.0
370
    50
100
AcDbLine
 10
3149.115193698175
 20
808.1181506101133
 30
0.0
 11
3149.115193698175
 21
738.6277505999542
 31
0.0
  0
LINE
  5
4BD5B
330
A
100
AcDbEntity
  8
レイヤー 1
  6
Continuous
 62
     7
 48
5.0
370
    50
100
AcDbLine
 10
3121.115193698175
 20
3.627432805366583
 30
0.0
 11
3121.115193698175
 21
738.6277505929155
 31
0.0
  0
LINE
  5
4BD64
330
A
100
AcDbEntity
  8
レイヤー 1
  6
Continuous
 62
     7
 48
5.0
370
    50
100
AcDbLine
 10
3442.611433415045
 20
-34.37256570309804
 30
0.0
 11
3442.611433415045
 21
3.627432860792513
 31
0.0
  0
LINE
  5
4BD65
330
A
100
AcDbEntity
  8
レイヤー 1
  6
Continuous
 62
     7
 48
5.0
370
    50
100
AcDbLine
 10
3415.611433415046
 20
738.6278532436622
 30
0.0
 11
3415.611433415046
 21
3.627432856138128
 31
0.0
  0
LINE
  5
4BD7C
330
A
100
AcDbEntity
  8
レイヤー 1
  6
Continuous
 62
     7
 48
5.0
370
    50
100
AcDbLine
 10
2854.611433410495
 20
-34.37256678310678
 30
0.0
 11
2854.611433410494
 21
3.627432759440968
 31
0.0
  0
LINE
  5
4BDA3
330
A
100
AcDbEntity
  8
レイヤー 1
  6
Continuous
 62
     7
 48
5.0
370
    50
100
AcDbLine
 10
4666.525700566544
 20
356.6288686308809
 30
0.0
 11
4666.52570056654
 21
33.62882405648135
 31
0.0
  0
LINE
  5
4BDA4
330
A
100
AcDbEntity
  8
レイヤー 1
  6
Continuous
 62
     7
 48
5.0
370
    50
100
AcDbLine
 10
4638.525700566541
 20
356.6287728540311
 30
0.0
 11
4638.525700566541
 21
33.62873151872938
 31
0.0
  0
LINE
  5
4BDB3
330
A
100
AcDbEntity
  8
レイヤー 1
  6
Continuous
 62
     7
 48
5.0
370
    50
100
AcDbLine
 10
4769.525700566545
 20
356.6292209528636
 30
0.0
 11
4769.525700566541
 21
33.62916446321185
 31
0.0
  0
LINE
  5
4BDB4
330
A
100
AcDbEntity
  8
レイヤー 1
  6
Continuous
 62
     7
 48
5.0
370
    50
100
AcDbLine
 10
4741.52570056654
 20
356.6291251760139
 30
0.0
 11
4741.52570056654
 21
33.62907192545986
 31
0.0
  0
LINE
  5
4BDC3
330
A
100
AcDbEntity
  8
レイヤー 1
  6
Continuous
 62
     7
 48
5.0
370
    50
100
AcDbLine
 10
4460.525700566541
 20
356.6281639869155
 30
0.0
 11
4460.525700566537
 21
33.62814324302036
 31
0.0
  0
LINE
  5
4BDC4
330
A
100
AcDbEntity
  8
レイヤー 1
  6
Continuous
 62
     7
 48
5.0
370
    50
100
AcDbLine
 10
4432.525700566537
 20
356.6280682100658
 30
0.0
 11
4432.525700566539
 21
33.62805070526837
 31
0.0
  0
LINE
  5
4BDCC
330
A
100
AcDbEntity
  8
レイヤー 1
  6
Continuous
 62
     7
 48
5.0
370
    50
100
AcDbLine
 10
4330.521022119985
 20
388.6274327518439
 30
0.0
 11
4330.521022119987
 21
3.627432751843938
 31
0.0
  0
LINE
  5
4BDE0
330
A
100
AcDbEntity
  8
レイヤー 1
  6
Continuous
 62
     7
 48
5.0
370
    50
100
AcDbLine
 10
4872.521022119991
 20
738.6275101739354
 30
0.0
 11
4872.521022119989
 21
415.627432751844
 31
0.0
  0
LINE
  5
4BDE1
330
A
100
AcDbEntity
  8
レイヤー 1
  6
Continuous
 62
     7
 48
5.0
370
    50
100
AcDbLine
 10
4844.521022119987
 20
738.627432751844
 30
0.0
 11
4844.521022119987
 21
415.6274327518438
 31
0.0
  0
LINE
  5
4BDF0
330
A
100
AcDbEntity
  8
レイヤー 1
  6
Continuous
 62
     7
 48
5.0
370
    50
100
AcDbLine
 10
4357.521022119987
 20
738.6272598299504
 30
0.0
 11
4357.521022119986
 21
415.627432751844
 31
0.0
  0
LINE
  5
4BDF1
330
A
100
AcDbEntity
  8
レイヤー 1
  6
Continuous
 62
     7
 48
5.0
370
    50
100
AcDbLine
 10
4329.521022119986
 20
738.627182407859
 30
0.0
 11
4329.521022119986
 21
415.6274327518438
 31
0.0
  0
LINE
  5
4BE06
330
A
100
AcDbEntity
  8
レイヤー 1
  6
Continuous
 62
     7
 48
5.0
370
    50
100
AcDbLine
 10
4871.522325367585
 20
388.6274327518439
 30
0.0
 11
4871.52232536758
 21
3.627432751843984
 31
0.0
  0
LINE
  5
4BE07
330
A
100
AcDbEntity
  8
レイヤー 1
  6
Continuous
 62
     7
 48
5.0
370
    50
100
AcDbLine
 10
4844.522325367582
 20
388.6274327518439
 30
0.0
 11
4844.522325367582
 21
3.627432751843981
 31
0.0
  0
LINE
  5
4C038
330
A
100
AcDbEntity
  8
レイヤー 1
  6
Continuous
 62
     7
 48
5.0
370
    50
100
AcDbLine
 10
4563.52102211999
 20
738.6271493604738
 30
0.0
 11
4563.521022119988
 21
415.6274327518437
 31
0.0
  0
LINE
  5
4C039
330
A
100
AcDbEntity
  8
レイヤー 1
  6
Continuous
 62
     7
 48
5.0
370
    50
100
AcDbLine
 10
4535.521022119989
 20
738.6270719383823
 30
0.0
 11
4535.521022119989
 21
415.6274327518438
 31
0.0
  0
LINE
  5
4C048
330
A
100
AcDbEntity
  8
レイヤー 1
  6
Continuous
 62
     7
 48
5.0
370
    50
100
AcDbLine
 10
4563.525700566542
 20
356.6285163088982
 30
0.0
 11
4563.525700566541
 21
33.62848364975086
 31
0.0
  0
LINE
  5
4C049
330
A
100
AcDbEntity
  8
レイヤー 1
  6
Continuous
 62
     7
 48
5.0
370
    50
100
AcDbLine
 10
4535.52570056654
 20
356.6284205320485
 30
0.0
 11
4535.52570056654
 21
33.62839111199888
 31
0.0
  0
LINE
  5
4C061
330
A
100
AcDbEntity
  8
レイヤー 1
  6
Continuous
 62
     7
 48
5.0
370
    50
100
AcDbLine
 10
4254.521022119988
 20
738.6272598299504
 30
0.0
 11
4254.521022119985
 21
415.6274327518437
 31
0.0
  0
LINE
  5
4C062
330
A
100
AcDbEntity
  8
レイヤー 1
  6
Continuous
 62
     7
 48
5.0
370
    50
100
AcDbLine
 10
4226.521022119987
 20
738.627182407859
 30
0.0
 11
4226.521022119987
 21
415.6274327518437
 31
0.0
  0
LINE
  5
4C073
330
A
100
AcDbEntity
  8
レイヤー 1
  6
Continuous
 62
     7
 48
5.0
370
    50
100
AcDbLine
 10
4975.525700566544
 20
738.6275101739352
 30
0.0
 11
4975.525700566542
 21
415.627432751844
 31
0.0
  0
LINE
  5
4C074
330
A
100
AcDbEntity
  8
レイヤー 1
  6
Continuous
 62
     7
 48
5.0
370
    50
100
AcDbLine
 10
4947.525700566543
 20
738.6274327518439
 30
0.0
 11
4947.525700566544
 21
415.627432751844
 31
0.0
  0
LINE
  5
4C090
330
A
100
AcDbEntity
  8
レイヤー 1
  6
Continuous
 62
     7
 48
5.0
370
    50
100
AcDbLine
 10
4362.521019218934
 20
383.6278287620195
 30
0.0
 11
4839.526012680006
 21
383.6294603057325
 31
0.0
  0
LINE
  5
4C091
330
A
100
AcDbEntity
  8
レイヤー 1
  6
Continuous
 62
     7
 48
5.0
370
    50
100
AcDbLine
 10
4361.521012439371
 20
33.62781604047484
 30
0.0
 11
4840.530388686492
 21
33.62939912800538
 31
0.0
  0
LINE
  5
4C092
330
A
100
AcDbEntity
  8
レイヤー 1
  6
Continuous
 62
     7
 48
5.0
370
    50
100
AcDbLine
 10
4361.521019218829
 20
6.627851741962741
 30
0.0
 11
4840.5303819057
 21
6.629518278668007
 31
0.0
  0
LINE
  5
4C10D
330
A
100
AcDbEntity
  8
レイヤー 1
  6
Continuous
 62
     7
370
    50
100
AcDbLine
 10
4842.530381912874
 20
8.627455969498083
 30
0.0
 11
4842.530381912878
 21
31.62751532190171
 31
0.0
  0
ARC
  5
4C10E
330
A
100
AcDbEntity
  8
レイヤー 1
  6
Continuous
 62
     7
370
    50
100
AcDbCircle
 10
4840.530381912873
 20
8.627455969498083
 30
0.0
 40
2.0
100
AcDbArc
 50
270.0
 51
0.0000000000000064
  0
ARC
  5
4C10F
330
A
100
AcDbEntity
  8
レイヤー 1
  6
Continuous
 62
     7
 48
5.0
370
    50
100
AcDbCircle
 10
4840.530381912877
 20
31.62751532190188
 30
0.0
 40
2.0
100
AcDbArc
 50
359.9999999999953
 51
89.99980577191493
  0
LINE
  5
4C182
330
A
100
AcDbEntity
  8
レイヤー 1
  6
Continuous
 62
     7
 48
5.0
370
    50
100
AcDbLine
 10
4841.52991680753
 20
358.6297723121559
 30
0.0
 11
4841.526324438055
 21
381.6649626872233
 31
0.0
  0
ARC
  5
4C183
330
A
100
AcDbEntity
  8
レイヤー 1
  6
Continuous
 62
     7
 48
5.0
370
    50
100
AcDbCircle
 10
4839.526324462376
 20
381.6646507844889
 30
0.0
 40
1.999999999999999
100
AcDbArc
 50
0.0089353551878573
 51
90.00893535520672
  0
LINE
  5
4C186
330
A
100
AcDbEntity
  8
レイヤー 1
  6
Continuous
 62
     7
 48
5.0
370
    50
100
AcDbLine
 10
4973.547672154865
 20
388.627432751844
 30
0.0
 11
4973.547672154865
 21
3.627432751843991
 31
0.0
  0
LINE
  5
4C187
330
A
100
AcDbEntity
  8
レイヤー 1
  6
Continuous
 62
     7
 48
5.0
370
    50
100
AcDbLine
 10
4946.547672154864
 20
388.6274327518441
 30
0.0
 11
4946.547672154864
 21
3.627432751843989
 31
0.0
  0
CIRCLE
  5
4C1FE
330
A
100
AcDbEntity
  8
レイヤー 1
  6
Continuous
 62
     7
100
AcDbCircle
 10
4960.047672154864
 20
369.6237497404395
 30
0.0
 40
6.999999599999999
  0
CIRCLE
  5
4C1FF
330
A
100
AcDbEntity
  8
レイヤー 1
  6
Continuous
 62
     7
100
AcDbCircle
 10
4960.047672154864
 20
369.6237497404395
 30
0.0
 40
6.0
  0
CIRCLE
  5
4C200
330
A
100
AcDbEntity
  8
レイヤー 1
  6
Continuous
 62
     7
 48
5.0
370
    25
100
AcDbCircle
 10
4960.047672154864
 20
22.63073536599441
 30
0.0
 40
6.999999599999999
  0
CIRCLE
  5
4C201
330
A
100
AcDbEntity
  8
レイヤー 1
  6
Continuous
 62
     7
 48
5.0
370
    25
100
AcDbCircle
 10
4960.047672154864
 20
22.63073536599441
 30
0.0
 40
3.999999599999998
  0
LINE
  5
4C202
330
A
100
AcDbEntity
  8
レイヤー 1
  6
Continuous
 62
     7
100
AcDbLine
 10
4962.547272154861
 20
370.1237897404384
 30
0.0
 11
4961.547672154864
 21
370.1237897404384
 31
0.0
  0
LINE
  5
4C203
330
A
100
AcDbEntity
  8
レイヤー 1
  6
Continuous
 62
     7
100
AcDbLine
 10
4960.546872154862
 20
371.1237497404395
 30
0.0
 11
4960.546872154862
 21
372.1238297404411
 31
0.0
  0
LINE
  5
4C204
330
A
100
AcDbEntity
  8
レイヤー 1
  6
Continuous
 62
     7
100
AcDbLine
 10
4960.546872154862
 20
372.1238297404411
 30
0.0
 11
4959.547272154861
 21
372.1238297404411
 31
0.0
  0
LINE
  5
4C205
330
A
100
AcDbEntity
  8
レイヤー 1
  6
Continuous
 62
     7
100
AcDbLine
 10
4957.546872154862
 20
370.1237897404384
 30
0.0
 11
4957.546872154862
 21
369.1238297404411
 31
0.0
  0
LINE
  5
4C206
330
A
100
AcDbEntity
  8
レイヤー 1
  6
Continuous
 62
     7
100
AcDbLine
 10
4958.547672154864
 20
369.1238297404411
 30
0.0
 11
4957.546872154862
 21
369.1238297404411
 31
0.0
  0
LINE
  5
4C207
330
A
100
AcDbEntity
  8
レイヤー 1
  6
Continuous
 62
     7
100
AcDbLine
 10
4959.547272154861
 20
368.1237497404394
 30
0.0
 11
4959.547272154861
 21
367.1237897404385
 31
0.0
  0
LINE
  5
4C208
330
A
100
AcDbEntity
  8
レイヤー 1
  6
Continuous
 62
     7
100
AcDbLine
 10
4960.546872154862
 20
367.1237897404385
 30
0.0
 11
4959.547272154861
 21
367.1237897404385
 31
0.0
  0
LINE
  5
4C209
330
A
100
AcDbEntity
  8
レイヤー 1
  6
Continuous
 62
     7
100
AcDbLine
 10
4960.546872154862
 20
367.1237897404385
 30
0.0
 11
4960.546872154862
 21
368.1237497404394
 31
0.0
  0
LINE
  5
4C20A
330
A
100
AcDbEntity
  8
レイヤー 1
  6
Continuous
 62
     7
100
AcDbLine
 10
4962.547272154861
 20
369.1238297404411
 30
0.0
 11
4961.547672154864
 21
369.1238297404411
 31
0.0
  0
LINE
  5
4C20B
330
A
100
AcDbEntity
  8
レイヤー 1
  6
Continuous
 62
     7
100
AcDbLine
 10
4962.547272154861
 20
369.1238297404411
 30
0.0
 11
4962.547272154861
 21
370.1237897404384
 31
0.0
  0
LINE
  5
4C20C
330
A
100
AcDbEntity
  8
レイヤー 1
  6
Continuous
 62
     7
100
AcDbLine
 10
4959.547272154861
 20
372.1238297404411
 30
0.0
 11
4959.547272154861
 21
371.1237497404395
 31
0.0
  0
LINE
  5
4C20D
330
A
100
AcDbEntity
  8
レイヤー 1
  6
Continuous
 62
     7
100
AcDbLine
 10
4958.547672154864
 20
370.1237897404384
 30
0.0
 11
4957.546872154862
 21
370.1237897404384
 31
0.0
  0
ARC
  5
4C20E
330
A
100
AcDbEntity
  8
レイヤー 1
  6
Continuous
 62
     7
100
AcDbCircle
 10
4958.547672154864
 20
371.1237497404395
 30
0.0
 40
0.99999996
100
AcDbArc
 50
270.0
 51
0.0
  0
ARC
  5
4C20F
330
A
100
AcDbEntity
  8
レイヤー 1
  6
Continuous
 62
     7
100
AcDbCircle
 10
4961.547672154864
 20
371.1237497404395
 30
0.0
 40
0.99999996
100
AcDbArc
 50
180.0
 51
270.0
  0
ARC
  5
4C210
330
A
100
AcDbEntity
  8
レイヤー 1
  6
Continuous
 62
     7
100
AcDbCircle
 10
4961.547672154864
 20
368.1237497404394
 30
0.0
 40
0.99999996
100
AcDbArc
 50
90.00002000000199
 51
180.0
  0
ARC
  5
4C211
330
A
100
AcDbEntity
  8
レイヤー 1
  6
Continuous
 62
     7
100
AcDbCircle
 10
4958.547672154864
 20
368.1237497404394
 30
0.0
 40
0.99999996
100
AcDbArc
 50
0.0
 51
90.0
  0
CIRCLE
  5
4C213
330
A
100
AcDbEntity
  8
レイヤー 1
  6
Continuous
 62
     7
 48
5.0
370
    25
100
AcDbCircle
 10
4960.047672154864
 20
196.1274499017766
 30
0.0
 40
6.999999599999999
  0
CIRCLE
  5
4C214
330
A
100
AcDbEntity
  8
レイヤー 1
  6
Continuous
 62
     7
 48
5.0
370
    25
100
AcDbCircle
 10
4960.047672154864
 20
196.1274499017766
 30
0.0
 40
3.999999599999998
  0
LINE
  5
4C27F
330
A
100
AcDbEntity
  8
レイヤー 1
  6
Continuous
 62
     7
 48
5.0
370
    50
100
AcDbLine
 10
4151.025512835022
 20
415.6274327518437
 30
0.0
 11
5051.025913842773
 21
415.627432751844
 31
0.0
  0
LINE
  5
4C280
330
A
100
AcDbEntity
  8
レイヤー 1
  6
Continuous
 62
     7
 48
5.0
370
    50
100
AcDbLine
 10
4151.025525501248
 20
388.6274327518438
 30
0.0
 11
5051.025899453048
 21
388.627432751844
 31
0.0
  0
LINE
  5
4C2AB
330
A
100
AcDbEntity
  8
レイヤー 1
  6
Continuous
 62
     7
 48
5.0
370
    50
100
AcDbLine
 10
4154.52570056654
 20
774.6277506491288
 30
0.0
 11
5047.525700566541
 21
774.6277523989903
 31
0.0
  0
LINE
  5
4C2AC
330
A
100
AcDbEntity
  8
レイヤー 1
  6
Continuous
 62
     7
 48
5.0
370
    50
100
AcDbLine
 10
4152.525700566541
 20
738.6277527518434
 30
0.0
 11
5049.52570056654
 21
738.6277527518432
 31
0.0
  0
LINE
  5
4C2AD
330
A
100
AcDbEntity
  8
レイヤー 1
  6
Continuous
 62
     7
 48
5.0
370
    50
100
AcDbLine
 10
4151.025700566541
 20
3.627432751843923
 30
0.0
 11
5051.02570056654
 21
3.627432751843997
 31
0.0
  0
LINE
  5
4C2AE
330
A
100
AcDbEntity
  8
レイヤー 1
  6
Continuous
 62
     7
 48
5.0
370
    50
100
AcDbLine
 10
4151.025784651381
 20
-23.37256724815607
 30
0.0
 11
5051.025555547798
 21
-23.372567248156
 31
0.0
  0
LINE
  5
4C2ED
330
A
100
AcDbEntity
  8
レイヤー 1
  6
Continuous
 62
     7
 48
5.0
370
    50
100
AcDbLine
 10
3442.610390320198
 20
3.627432860792513
 30
0.0
 11
3149.11393143344
 21
3.627432810196289
 31
0.0
  0
LINE
  5
4C2EE
330
A
100
AcDbEntity
  8
レイヤー 1
  6
Continuous
 62
     7
 48
5.0
370
    50
100
AcDbLine
 10
3440.611433418744
 20
-36.37256570309804
 30
0.0
 11
3151.116236796721
 21
-36.37256623847021
 31
0.0
  0
ARC
  5
4C2F0
330
A
100
AcDbEntity
  8
レイヤー 1
 62
     7
370
    50
100
AcDbCircle
 10
3148.610464942051
 20
318.2307649042143
 30
0.0
 40
500.0
100
AcDbArc
 50
75.20634339790818
 51
88.77158625371869
  0
ARC
  5
4C2F4
330
A
100
AcDbEntity
  8
レイヤー 1
 62
     7
 48
5.0
370
    50
100
AcDbCircle
 10
3006.867451518766
 20
854.8255078394076
 30
0.0
 40
55.0
100
AcDbArc
 50
243.910862802387
 51
284.7968626416274
  0
ARC
  5
4C2F5
330
A
100
AcDbEntity
  8
レイヤー 1
 62
     7
370
    50
100
AcDbCircle
 10
3290.323452477073
 20
854.8334383637289
 30
0.0
 40
55.0
100
AcDbArc
 50
255.2063433979082
 51
296.1044609488959
  0
LINE
  5
4C40B
330
A
100
AcDbEntity
  8
レイヤー 1
  6
Continuous
 62
     7
 48
5.0
370
    50
100
AcDbLine
 10
1810.398719507894
 20
738.6381152395207
 30
0.0
 11
1810.39871950789
 21
3.628702942327138
 31
0.0
  0
LINE
  5
4C40C
330
A
100
AcDbEntity
  8
レイヤー 1
  6
Continuous
 62
     7
 48
5.0
370
    50
100
AcDbLine
 10
1782.398719507892
 20
738.6380378174292
 30
0.0
 11
1782.398719507892
 21
3.628702942293108
 31
0.0
  0
LINE
  5
4C41B
330
A
100
AcDbEntity
  8
レイヤー 1
  6
Continuous
 62
     7
 48
5.0
370
    50
100
AcDbLine
 10
1604.398719507893
 20
738.6379423176272
 30
0.0
 11
1604.398719507887
 21
3.628702942076768
 31
0.0
  0
LINE
  5
4C41C
330
A
100
AcDbEntity
  8
レイヤー 1
  6
Continuous
 62
     7
 48
5.0
370
    50
100
AcDbLine
 10
1576.39871950789
 20
738.6378648955357
 30
0.0
 11
1576.398719507891
 21
3.628702942042736
 31
0.0
  0
LINE
  5
4C42B
330
A
100
AcDbEntity
  8
レイヤー 1
  6
Continuous
 62
     7
 48
5.0
370
    50
100
AcDbLine
 10
1913.398719507894
 20
738.6381152395207
 30
0.0
 11
1913.39871950789
 21
3.628702942452325
 31
0.0
  0
LINE
  5
4C42C
330
A
100
AcDbEntity
  8
レイヤー 1
  6
Continuous
 62
     7
 48
5.0
370
    50
100
AcDbLine
 10
1885.398719507892
 20
738.6380378174292
 30
0.0
 11
1885.398719507892
 21
3.628702942418294
 31
0.0
  0
LINE
  5
4C43B
330
A
100
AcDbEntity
  8
レイヤー 1
  6
Continuous
 62
     7
 48
5.0
370
    50
100
AcDbLine
 10
2016.398719507895
 20
738.6377952395213
 30
0.0
 11
2016.39871950789
 21
3.628702942577509
 31
0.0
  0
LINE
  5
4C43C
330
A
100
AcDbEntity
  8
レイヤー 1
 62
     7
 48
5.0
370
    50
100
AcDbLine
 10
1988.398719507893
 20
738.6377178174299
 30
0.0
 11
1988.398719507893
 21
3.628702942543479
 31
0.0
  0
LINE
  5
4C44B
330
A
100
AcDbEntity
  8
レイヤー 1
  6
Continuous
 62
     7
 48
5.0
370
    50
100
AcDbLine
 10
1501.398719507892
 20
738.6375448955361
 30
0.0
 11
1501.398719507888
 21
3.628702941951583
 31
0.0
  0
LINE
  5
4C44C
330
A
100
AcDbEntity
  8
レイヤー 1
  6
Continuous
 62
     7
 48
5.0
370
    50
100
AcDbLine
 10
1473.398719507891
 20
738.6374674734448
 30
0.0
 11
1473.398719507891
 21
3.628702941917551
 31
0.0
  0
LINE
  5
4C45B
330
A
100
AcDbEntity
  8
レイヤー 1
  6
Continuous
 62
     7
 48
5.0
370
    50
100
AcDbLine
 10
1707.398719507894
 20
738.6374344260596
 30
0.0
 11
1707.39871950789
 21
3.628702942201952
 31
0.0
  0
LINE
  5
4C45C
330
A
100
AcDbEntity
  8
レイヤー 1
  6
Continuous
 62
     7
 48
5.0
370
    50
100
AcDbLine
 10
1679.398719507893
 20
738.6373570039681
 30
0.0
 11
1679.398719507893
 21
3.628702942167923
 31
0.0
  0
LINE
  5
4C48B
330
A
100
AcDbEntity
  8
レイヤー 1
  6
Continuous
 62
     7
 48
5.0
370
    50
100
AcDbLine
 10
2091.405577898156
 20
738.6271417698464
 30
0.0
 11
2091.405577898159
 21
3.628702942668673
 31
0.0
  0
LINE
  5
4C48C
330
A
100
AcDbEntity
  8
レイヤー 1
  6
Continuous
 62
     7
 48
5.0
370
    50
100
AcDbLine
 10
2118.405577898158
 20
738.6270761902498
 30
0.0
 11
2118.405577898158
 21
3.628702942701488
 31
0.0
  0
CIRCLE
  5
4C503
330
A
100
AcDbEntity
  8
レイヤー 1
  6
Continuous
 62
     7
100
AcDbCircle
 10
2104.905577898158
 20
369.6220610517327
 30
0.0
 40
6.999999599999999
  0
CIRCLE
  5
4C504
330
A
100
AcDbEntity
  8
レイヤー 1
  6
Continuous
 62
     7
100
AcDbCircle
 10
2104.905577898158
 20
369.6220610517327
 30
0.0
 40
6.0
  0
CIRCLE
  5
4C505
330
A
100
AcDbEntity
  8
レイヤー 1
  6
Continuous
 62
     7
 48
5.0
370
    25
100
AcDbCircle
 10
2104.905577898158
 20
22.62904667360139
 30
0.0
 40
6.999999599999999
  0
CIRCLE
  5
4C506
330
A
100
AcDbEntity
  8
レイヤー 1
  6
Continuous
 62
     7
 48
5.0
370
    25
100
AcDbCircle
 10
2104.905577898158
 20
22.62904667360139
 30
0.0
 40
3.999999599999998
  0
LINE
  5
4C507
330
A
100
AcDbEntity
  8
レイヤー 1
  6
Continuous
 62
     7
100
AcDbLine
 10
2102.405977898162
 20
370.1221010517317
 30
0.0
 11
2103.405577898158
 21
370.1221010517317
 31
0.0
  0
LINE
  5
4C508
330
A
100
AcDbEntity
  8
レイヤー 1
  6
Continuous
 62
     7
100
AcDbLine
 10
2104.406377898159
 20
371.1220610517326
 30
0.0
 11
2104.406377898159
 21
372.1221410517344
 31
0.0
  0
LINE
  5
4C509
330
A
100
AcDbEntity
  8
レイヤー 1
  6
Continuous
 62
     7
100
AcDbLine
 10
2104.406377898159
 20
372.1221410517344
 30
0.0
 11
2105.405977898162
 21
372.1221410517344
 31
0.0
  0
LINE
  5
4C50A
330
A
100
AcDbEntity
  8
レイヤー 1
  6
Continuous
 62
     7
100
AcDbLine
 10
2107.406377898159
 20
370.1221010517317
 30
0.0
 11
2107.406377898159
 21
369.1221410517343
 31
0.0
  0
LINE
  5
4C50B
330
A
100
AcDbEntity
  8
レイヤー 1
  6
Continuous
 62
     7
100
AcDbLine
 10
2106.405577898158
 20
369.1221410517343
 30
0.0
 11
2107.406377898159
 21
369.1221410517343
 31
0.0
  0
LINE
  5
4C50C
330
A
100
AcDbEntity
  8
レイヤー 1
  6
Continuous
 62
     7
100
AcDbLine
 10
2105.405977898162
 20
368.1220610517327
 30
0.0
 11
2105.405977898162
 21
367.1221010517316
 31
0.0
  0
LINE
  5
4C50D
330
A
100
AcDbEntity
  8
レイヤー 1
  6
Continuous
 62
     7
100
AcDbLine
 10
2104.406377898159
 20
367.1221010517316
 30
0.0
 11
2105.405977898162
 21
367.1221010517316
 31
0.0
  0
LINE
  5
4C50E
330
A
100
AcDbEntity
  8
レイヤー 1
  6
Continuous
 62
     7
100
AcDbLine
 10
2104.406377898159
 20
367.1221010517316
 30
0.0
 11
2104.406377898159
 21
368.1220610517327
 31
0.0
  0
LINE
  5
4C50F
330
A
100
AcDbEntity
  8
レイヤー 1
  6
Continuous
 62
     7
100
AcDbLine
 10
2102.405977898162
 20
369.1221410517343
 30
0.0
 11
2103.405577898158
 21
369.1221410517343
 31
0.0
  0
LINE
  5
4C510
330
A
100
AcDbEntity
  8
レイヤー 1
  6
Continuous
 62
     7
100
AcDbLine
 10
2102.405977898162
 20
369.1221410517343
 30
0.0
 11
2102.405977898162
 21
370.1221010517317
 31
0.0
  0
LINE
  5
4C511
330
A
100
AcDbEntity
  8
レイヤー 1
  6
Continuous
 62
     7
100
AcDbLine
 10
2105.405977898162
 20
372.1221410517344
 30
0.0
 11
2105.405977898162
 21
371.1220610517326
 31
0.0
  0
LINE
  5
4C512
330
A
100
AcDbEntity
  8
レイヤー 1
  6
Continuous
 62
     7
100
AcDbLine
 10
2106.405577898158
 20
370.1221010517317
 30
0.0
 11
2107.406377898159
 21
370.1221010517317
 31
0.0
  0
ARC
  5
4C513
330
A
100
AcDbEntity
  8
レイヤー 1
  6
Continuous
 62
     7
100
AcDbCircle
 10
2106.405577898158
 20
371.1220610517326
 30
0.0
 40
0.99999996
100
AcDbArc
 50
180.0
 51
270.0
  0
ARC
  5
4C514
330
A
100
AcDbEntity
  8
レイヤー 1
  6
Continuous
 62
     7
100
AcDbCircle
 10
2103.405577898158
 20
371.1220610517326
 30
0.0
 40
0.99999996
100
AcDbArc
 50
270.0
 51
0.0
  0
ARC
  5
4C515
330
A
100
AcDbEntity
  8
レイヤー 1
  6
Continuous
 62
     7
100
AcDbCircle
 10
2103.405577898158
 20
368.1220610517327
 30
0.0
 40
0.99999996
100
AcDbArc
 50
0.0
 51
89.99997999999797
  0
ARC
  5
4C516
330
A
100
AcDbEntity
  8
レイヤー 1
  6
Continuous
 62
     7
100
AcDbCircle
 10
2106.405577898158
 20
368.1220610517327
 30
0.0
 40
0.99999996
100
AcDbArc
 50
90.0
 51
180.0
  0
CIRCLE
  5
4C518
330
A
100
AcDbEntity
  8
レイヤー 1
  6
Continuous
 62
     7
 48
5.0
370
    25
100
AcDbCircle
 10
2104.905577898158
 20
196.1274499017766
 30
0.0
 40
6.999999599999999
  0
CIRCLE
  5
4C519
330
A
100
AcDbEntity
  8
レイヤー 1
  6
Continuous
 62
     7
 48
5.0
370
    25
100
AcDbCircle
 10
2104.905577898158
 20
196.1274499017766
 30
0.0
 40
3.999999599999998
  0
LINE
  5
4C51A
330
A
100
AcDbEntity
  8
レイヤー 1
  6
Continuous
 62
     7
 48
5.0
370
    50
100
AcDbLine
 10
1398.401308581041
 20
738.6287648748641
 30
0.0
 11
1398.397865651922
 21
3.628702941826396
 31
0.0
  0
LINE
  5
4C51B
330
A
100
AcDbEntity
  8
レイヤー 1
  6
Continuous
 62
     7
 48
5.0
370
    50
100
AcDbLine
 10
1371.401308581039
 20
738.6288304544608
 30
0.0
 11
1371.397865651615
 21
3.62870294179358
 31
0.0
  0
CIRCLE
  5
4C592
330
A
100
AcDbEntity
  8
レイヤー 1
  6
Continuous
 62
     7
100
AcDbCircle
 10
1384.899561338976
 20
369.6237497404395
 30
0.0
 40
6.999999599999998
  0
CIRCLE
  5
4C593
330
A
100
AcDbEntity
  8
レイヤー 1
  6
Continuous
 62
     7
100
AcDbCircle
 10
1384.899561338976
 20
369.6237497404395
 30
0.0
 40
5.999999999999999
  0
CIRCLE
  5
4C594
330
A
100
AcDbEntity
  8
レイヤー 1
  6
Continuous
 62
     7
 48
5.0
370
    25
100
AcDbCircle
 10
1384.897987461377
 20
22.63073536599441
 30
0.0
 40
6.999999599999998
  0
CIRCLE
  5
4C595
330
A
100
AcDbEntity
  8
レイヤー 1
  6
Continuous
 62
     7
 48
5.0
370
    25
100
AcDbCircle
 10
1384.897987461377
 20
22.63073536599441
 30
0.0
 40
3.999999599999998
  0
LINE
  5
4C596
330
A
100
AcDbEntity
  8
レイヤー 1
  6
Continuous
 62
     7
100
AcDbLine
 10
1387.39916368126
 20
370.1237780316644
 30
0.0
 11
1386.399563681275
 21
370.1237827140476
 31
0.0
  0
LINE
  5
4C597
330
A
100
AcDbEntity
  8
レイヤー 1
  6
Continuous
 62
     7
100
AcDbLine
 10
1385.398768365354
 20
371.123747402042
 30
0.0
 11
1385.398773049985
 21
372.1238274020326
 31
0.0
  0
LINE
  5
4C598
330
A
100
AcDbEntity
  8
レイヤー 1
  6
Continuous
 62
     7
100
AcDbLine
 10
1385.398773049985
 20
372.1238274020326
 30
0.0
 11
1384.399173049994
 21
372.1238320844158
 31
0.0
  0
LINE
  5
4C599
330
A
100
AcDbEntity
  8
レイヤー 1
  6
Continuous
 62
     7
100
AcDbLine
 10
1382.398763681317
 20
370.1238014548227
 30
0.0
 11
1382.398758997248
 21
369.1238414548363
 31
0.0
  0
LINE
  5
4C59A
330
A
100
AcDbEntity
  8
レイヤー 1
  6
Continuous
 62
     7
100
AcDbLine
 10
1383.399558997238
 20
369.123836766832
 30
0.0
 11
1382.398758997248
 21
369.1238414548363
 31
0.0
  0
LINE
  5
4C59B
330
A
100
AcDbEntity
  8
レイヤー 1
  6
Continuous
 62
     7
100
AcDbLine
 10
1384.399154312591
 20
368.1237520844582
 30
0.0
 11
1384.399149628522
 21
367.1237920844682
 31
0.0
  0
LINE
  5
4C59C
330
A
100
AcDbEntity
  8
レイヤー 1
  6
Continuous
 62
     7
100
AcDbLine
 10
1385.398749628514
 20
367.1237874020849
 30
0.0
 11
1384.399149628522
 21
367.1237920844682
 31
0.0
  0
LINE
  5
4C59D
330
A
100
AcDbEntity
  8
レイヤー 1
  6
Continuous
 62
     7
100
AcDbLine
 10
1385.398749628514
 20
367.1237874020849
 30
0.0
 11
1385.398754312583
 21
368.1237474020749
 31
0.0
  0
LINE
  5
4C59E
330
A
100
AcDbEntity
  8
レイヤー 1
  6
Continuous
 62
     7
100
AcDbLine
 10
1387.39915899719
 20
369.123818031678
 30
0.0
 11
1386.399558997206
 21
369.1238227140612
 31
0.0
  0
LINE
  5
4C59F
330
A
100
AcDbEntity
  8
レイヤー 1
  6
Continuous
 62
     7
100
AcDbLine
 10
1387.39915899719
 20
369.123818031678
 30
0.0
 11
1387.39916368126
 21
370.1237780316644
 31
0.0
  0
LINE
  5
4C5A0
330
A
100
AcDbEntity
  8
レイヤー 1
  6
Continuous
 62
     7
100
AcDbLine
 10
1384.399173049994
 20
372.1238320844158
 30
0.0
 11
1384.399168365362
 21
371.1237520844252
 31
0.0
  0
LINE
  5
4C5A1
330
A
100
AcDbEntity
  8
レイヤー 1
  6
Continuous
 62
     7
100
AcDbLine
 10
1383.399563681308
 20
370.1237967668184
 30
0.0
 11
1382.398763681317
 21
370.1238014548227
 31
0.0
  0
ARC
  5
4C5A2
330
A
100
AcDbEntity
  8
レイヤー 1
  6
Continuous
 62
     7
100
AcDbCircle
 10
1383.399568365377
 20
371.1237567668084
 30
0.0
 40
0.9999999599999998
100
AcDbArc
 50
269.9997316118459
 51
359.999731611849
  0
ARC
  5
4C5A3
330
A
100
AcDbEntity
  8
レイヤー 1
  6
Continuous
 62
     7
100
AcDbCircle
 10
1386.399568365345
 20
371.1237427140377
 30
0.0
 40
0.9999999599999998
100
AcDbArc
 50
179.9997316118489
 51
269.9997316118459
  0
ARC
  5
4C5A4
330
A
100
AcDbEntity
  8
レイヤー 1
  6
Continuous
 62
     7
100
AcDbCircle
 10
1386.399554312574
 20
368.1237427140706
 30
0.0
 40
0.9999999599999998
100
AcDbArc
 50
89.99975161184778
 51
179.9997316118489
  0
ARC
  5
4C5A5
330
A
100
AcDbEntity
  8
レイヤー 1
  6
Continuous
 62
     7
100
AcDbCircle
 10
1383.399554312607
 20
368.1237567668413
 30
0.0
 40
0.9999999599999998
100
AcDbArc
 50
359.999731611849
 51
89.99973161184575
  0
CIRCLE
  5
4C5A7
330
A
100
AcDbEntity
  8
レイヤー 1
  6
Continuous
 62
     7
 48
5.0
370
    25
100
AcDbCircle
 10
1384.898774401148
 20
196.1274499017766
 30
0.0
 40
6.999999599999998
  0
CIRCLE
  5
4C5A8
330
A
100
AcDbEntity
  8
レイヤー 1
  6
Continuous
 62
     7
 48
5.0
370
    25
100
AcDbCircle
 10
1384.898774401148
 20
196.1274499017766
 30
0.0
 40
3.999999599999998
  0
LINE
  5
4C5CE
330
A
100
AcDbEntity
  8
レイヤー 1
  6
Continuous
 62
     7
 48
5.0
370
    50
100
AcDbLine
 10
1294.900758335909
 20
3.628702941700606
 30
0.0
 11
2194.900657516161
 21
3.628702942794461
 31
0.0
  0
LINE
  5
4C5D0
330
A
100
AcDbEntity
  8
レイヤー 1
  6
Continuous
 62
     7
 48
5.0
370
    50
100
AcDbLine
 10
1294.900657671666
 20
-23.37256724924992
 30
0.0
 11
2194.9006573317
 21
-23.37256724815607
 31
0.0
  0
LINE
  5
4C5D1
330
A
100
AcDbEntity
  8
レイヤー 1
  6
Continuous
 62
     7
 48
5.0
370
    50
100
AcDbLine
 10
1294.900388174573
 20
738.6290072873176
 30
0.0
 11
2194.901014838436
 21
738.6268993702381
 31
0.0
  0
LINE
  5
4C5D3
330
A
100
AcDbEntity
  8
レイヤー 1
  6
Continuous
 62
     7
 48
5.0
370
    50
100
AcDbLine
 10
1294.900370068921
 20
774.6289530975742
 30
0.0
 11
2194.901051176396
 21
774.6268917178007
 31
0.0
  0
LINE
  5
4CABE
330
A
100
AcDbEntity
  8
レイヤー 1
  6
Continuous
 62
     7
 48
5.0
370
    50
100
AcDbLine
 10
2854.611433410493
 20
738.6277485270362
 30
0.0
 11
3148.116570987788
 21
738.6277505929252
 31
0.0
  0
LINE
  5
4CB33
330
A
100
AcDbEntity
  8
レイヤー 1
  6
Continuous
 62
     7
 48
5.0
370
    50
100
AcDbLine
 10
3149.115193698362
 20
738.6277505999542
 30
0.0
 11
3442.611433415045
 21
738.6277526657806
 31
0.0
  0
LINE
  5
4CBFA
330
A
100
AcDbEntity
  8
レイヤー 1
  6
Continuous
 62
     7
 48
5.0
370
    50
100
AcDbLine
 10
2889.611433410494
 20
379.6237447693923
 30
0.0
 11
2957.611703432074
 21
379.6237450329666
 31
0.0
  0
LINE
  5
4CBFE
330
A
100
AcDbEntity
  8
レイヤー 1
  6
Continuous
 62
     7
 48
5.0
370
    50
100
AcDbLine
 10
3148.616871777037
 20
403.6274328757283
 30
0.0
 11
3148.615263870377
 21
375.6274342245871
 31
0.0
  0
LINE
  5
4CC00
330
A
100
AcDbEntity
  8
レイヤー 1
  6
Continuous
 62
     7
 48
5.0
370
    50
100
AcDbLine
 10
3415.611433415046
 20
406.6237471066471
 30
0.0
 11
3339.61143631484
 21
406.6237471066471
 31
0.0
  0
LINE
  5
4CC01
330
A
100
AcDbEntity
  8
レイヤー 1
  6
Continuous
 62
     7
 48
5.0
370
    50
100
AcDbLine
 10
3352.601791774981
 20
412.1237390131996
 30
0.0
 11
3352.60177693738
 21
406.6237471066471
 31
0.0
  0
LINE
  5
4CC02
330
A
100
AcDbEntity
  8
レイヤー 1
  6
Continuous
 62
     7
 48
5.0
370
    50
100
AcDbLine
 10
3415.611433415046
 20
412.6231802632384
 30
0.0
 11
3353.101799868254
 21
412.6237471064714
 31
0.0
  0
LINE
  5
4CC04
330
A
100
AcDbEntity
  8
レイヤー 1
  6
Continuous
 62
     7
 48
5.0
370
    50
100
AcDbLine
 10
3353.101799868254
 20
412.6237471064714
 30
0.0
 11
3352.601791774981
 21
412.1237390131996
 31
0.0
  0
LINE
  5
4CC09
330
A
100
AcDbEntity
  8
レイヤー 1
  6
Continuous
 62
     7
 48
5.0
370
    50
100
AcDbLine
 10
3340.605021462648
 20
412.6223995805514
 30
0.0
 11
3339.61143631484
 21
412.6224085404636
 31
0.0
  0
LINE
  5
4CC0A
330
A
100
AcDbEntity
  8
レイヤー 1
  6
Continuous
 62
     7
 48
5.0
370
    50
100
AcDbLine
 10
3340.605021462648
 20
412.6223995805514
 30
0.0
 11
3341.105021462648
 21
412.1223995805513
 31
0.0
  0
LINE
  5
4CC0C
330
A
100
AcDbEntity
  8
レイヤー 1
  6
Continuous
 62
     7
 48
5.0
370
    50
100
AcDbLine
 10
3341.103886791852
 20
412.1235342513458
 30
0.0
 11
3341.101805649322
 21
406.6232021611605
 31
0.0
  0
LINE
  5
4CC0E
330
A
100
AcDbEntity
  8
レイヤー 1
  6
Continuous
 62
     7
 48
5.0
370
    50
100
AcDbLine
 10
3230.604506371273
 20
412.6230256905231
 30
0.0
 11
3176.115193698175
 21
412.6235170620677
 31
0.0
  0
LINE
  5
4CC13
330
A
100
AcDbEntity
  8
レイヤー 1
  6
Continuous
 62
     7
 48
5.0
370
    50
100
AcDbLine
 10
3121.115193698175
 20
412.6231022741069
 30
0.0
 11
3066.6114276109
 21
412.6235937759888
 31
0.0
  0
LINE
  5
4CC17
330
A
100
AcDbEntity
  8
レイヤー 1
  6
Continuous
 62
     7
 48
5.0
370
    50
100
AcDbLine
 10
2948.108252115784
 20
412.124011485943
 30
0.0
 11
2948.10823727818
 21
406.62401957939
 31
0.0
  0
LINE
  5
4CC18
330
A
100
AcDbEntity
  8
レイヤー 1
  6
Continuous
 62
     7
 48
5.0
370
    50
100
AcDbLine
 10
3037.60823727818
 20
412.6232169987809
 30
0.0
 11
2985.611700532297
 21
412.6236858910703
 31
0.0
  0
LINE
  5
4CC19
330
A
100
AcDbEntity
  8
レイヤー 1
  6
Continuous
 62
     7
 48
5.0
370
    50
100
AcDbLine
 10
3037.60823727818
 20
412.6232169987809
 30
0.0
 11
3038.10823727818
 21
412.1232169987809
 31
0.0
  0
LINE
  5
4CC1A
330
A
100
AcDbEntity
  8
レイヤー 1
  6
Continuous
 62
     7
 48
5.0
370
    50
100
AcDbLine
 10
2948.608260209055
 20
412.6240195792146
 30
0.0
 11
2948.108252115784
 21
412.124011485943
 31
0.0
  0
LINE
  5
4CC1B
330
A
100
AcDbEntity
  8
レイヤー 1
  6
Continuous
 62
     7
 48
5.0
370
    50
100
AcDbLine
 10
3038.107102607385
 20
412.1243516695758
 30
0.0
 11
3038.105021464853
 21
406.62401957939
 31
0.0
  0
LINE
  5
4CC1D
330
A
100
AcDbEntity
  8
レイヤー 1
  6
Continuous
 62
     7
 48
5.0
370
    50
100
AcDbLine
 10
2936.111453091509
 20
412.6243068897514
 30
0.0
 11
2889.611433410494
 21
412.6247262157692
 31
0.0
  0
LINE
  5
4CC1E
330
A
100
AcDbEntity
  8
レイヤー 1
  6
Continuous
 62
     7
 48
5.0
370
    50
100
AcDbLine
 10
2936.111453091509
 20
412.6243068897514
 30
0.0
 11
2936.611453091508
 21
412.1243068897514
 31
0.0
  0
LINE
  5
4CC20
330
A
100
AcDbEntity
  8
レイヤー 1
  6
Continuous
 62
     7
 48
5.0
370
    50
100
AcDbLine
 10
2936.610318420712
 20
412.1254415605466
 30
0.0
 11
2936.608237278181
 21
406.6251094703607
 31
0.0
  0
LINE
  5
4CFA4
330
A
100
AcDbEntity
  8
レイヤー 1
  6
Continuous
 62
     7
 48
5.0
370
    50
100
AcDbLine
 10
2854.611433410494
 20
3.627432759426632
 30
0.0
 11
2854.611433410493
 21
13.62711721043274
 31
0.0
  0
LINE
  5
4CFA5
330
A
100
AcDbEntity
  8
レイヤー 1
  6
Continuous
 62
     7
 48
5.0
370
    50
100
AcDbLine
 10
3442.610350735114
 20
3.627432860792506
 30
0.0
 11
3442.610548677212
 21
13.62827530201986
 31
0.0
  0
LINE
  5
4CFA6
330
A
100
AcDbEntity
  8
レイヤー 1
  6
Continuous
 62
     7
 48
5.0
370
    50
100
AcDbLine
 10
3149.116236793022
 20
-34.37256623847022
 30
0.0
 11
3149.116236793022
 21
3.627432860792676
 31
0.0
  0
LINE
  5
4CFA7
330
A
100
AcDbEntity
  8
レイヤー 1
  6
Continuous
 62
     7
 48
5.0
370
    50
100
AcDbLine
 10
3148.116236793024
 20
-34.37256624771686
 30
0.0
 11
3148.116236793024
 21
3.627432810021026
 31
0.0
  0
LINE
  5
4CFA8
330
A
100
AcDbEntity
  8
レイヤー 1
  6
Continuous
 62
     7
 48
5.0
370
    50
100
AcDbLine
 10
3148.116236793024
 20
3.627432810021026
 30
0.0
 11
2854.611433410865
 21
3.627432759426632
 31
0.0
  0
LINE
  5
4D660
330
A
100
AcDbEntity
  8
レイヤー 1
  6
Continuous
 62
     7
 48
5.0
370
    50
100
AcDbLine
 10
3148.115193698175
 20
121.6271118075649
 30
0.0
 11
3148.115193698175
 21
620.6277620903147
 31
0.0
  0
LINE
  5
4D664
330
A
100
AcDbEntity
  8
レイヤー 1
  6
Continuous
 62
     7
 48
5.0
370
    50
100
AcDbLine
 10
3149.115193698175
 20
738.6277505999542
 30
0.0
 11
3149.115193698175
 21
688.6277547157779
 31
0.0
  0
LINE
  5
4D6F2
330
A
100
AcDbEntity
  8
レイヤー 1
  6
Continuous
 62
     7
370
    50
100
AcDbLine
 10
4152.985547464306
 20
1546.378986046532
 30
0.0
 11
5049.026658898153
 21
1546.378585533129
 31
0.0
  0
LINE
  5
4D6F3
330
A
100
AcDbEntity
  8
レイヤー 1
  6
Continuous
 62
     7
370
    50
100
AcDbLine
 10
4152.985575651775
 20
1525.378985142279
 30
0.0
 11
5049.026658900925
 21
1525.379385655686
 31
0.0
  0
LINE
  5
4D6F4
330
A
100
AcDbEntity
  8
レイヤー 1
  6
Continuous
 62
     7
370
    50
100
AcDbLine
 10
4125.985940780936
 20
1520.757819962468
 30
0.0
 11
4125.985940780936
 21
1568.428999469624
 31
0.0
  0
LINE
  5
4D6F5
330
A
100
AcDbEntity
  8
レイヤー 1
  6
Continuous
 62
     7
370
    50
100
AcDbLine
 10
4150.985540780939
 20
1520.715707792084
 30
0.0
 11
4150.985540780939
 21
1568.378586002762
 31
0.0
  0
LINE
  5
4D6FB
330
A
100
AcDbEntity
  8
レイヤー 1
 62
     7
370
    50
100
AcDbLine
 10
5076.025300566541
 20
1520.757819962468
 30
0.0
 11
5076.025300566541
 21
1568.378586002762
 31
0.0
  0
LINE
  5
4D6FD
330
A
100
AcDbEntity
  8
レイヤー 1
 62
     7
370
    50
100
AcDbLine
 10
5051.02570056654
 20
1520.758681759408
 30
0.0
 11
5051.02570056654
 21
1568.407273111471
 31
0.0
  0
LINE
  5
4D861
330
A
100
AcDbEntity
  8
レイヤー 1
 62
     7
370
    20
100
AcDbLine
 10
4150.985540780939
 20
1571.378586002763
 30
0.0
 11
4150.985540780939
 21
1571.378586002763
 31
0.0
  0
LINE
  5
4D865
330
A
100
AcDbEntity
  8
レイヤー 1
  6
Continuous
 62
     7
370
    50
100
AcDbLine
 10
4150.985540780939
 20
2162.365680005787
 30
0.0
 11
4150.985540780939
 21
2194.98559826559
 31
0.0
  0
LINE
  5
4D867
330
A
100
AcDbEntity
  8
レイヤー 1
  6
Continuous
 62
     7
370
    50
100
AcDbLine
 10
4125.985940780936
 20
2162.365694030612
 30
0.0
 11
4125.985940780936
 21
2194.986460062529
 31
0.0
  0
ARC
  5
4D869
330
A
100
AcDbEntity
  8
レイヤー 1
 62
     7
370
    50
100
AcDbCircle
 10
4131.985540780939
 20
2157.365694030613
 30
0.0
 40
2.0
100
AcDbArc
 50
90.0
 51
180.0
  0
LINE
  5
4D86B
330
A
100
AcDbEntity
  8
レイヤー 1
  6
Continuous
 62
     7
370
    50
100
AcDbLine
 10
4129.985540780938
 20
1573.378586002762
 30
0.0
 11
4129.985540780938
 21
1862.878586002762
 31
0.0
  0
ARC
  5
4D870
330
A
100
AcDbEntity
  8
レイヤー 1
 62
     7
370
    50
100
AcDbCircle
 10
4131.985540780939
 20
1573.378586002762
 30
0.0
 40
2.0
100
AcDbArc
 50
180.0
 51
270.0000000000006
  0
LINE
  5
4D871
330
A
100
AcDbEntity
  8
レイヤー 1
  6
Continuous
 62
     7
370
    50
100
AcDbLine
 10
4129.985540780938
 20
1867.865694030612
 30
0.0
 11
4129.985540780938
 21
2157.365694030613
 31
0.0
  0
LINE
  5
4D873
330
A
100
AcDbEntity
  8
レイヤー 1
  6
Continuous
 62
     7
370
    50
100
AcDbLine
 10
4150.98554078094
 20
1867.865694030613
 30
0.0
 11
4150.986341103325
 21
2157.365694430612
 31
0.0
  0
ARC
  5
4D875
330
A
100
AcDbEntity
  8
レイヤー 1
 62
     7
370
    50
100
AcDbCircle
 10
4148.98554078094
 20
1867.865694030613
 30
0.0
 40
2.0
100
AcDbArc
 50
270.0
 51
0.0
  0
ARC
  5
4D876
330
A
100
AcDbEntity
  8
レイヤー 1
 62
     7
370
    50
100
AcDbCircle
 10
4148.98554078094
 20
1862.878586002762
 30
0.0
 40
2.0
100
AcDbArc
 50
359.9999999999998
 51
90.0
  0
ARC
  5
4D877
330
A
100
AcDbEntity
  8
レイヤー 1
 62
     7
370
    50
100
AcDbCircle
 10
4131.985540780939
 20
1867.865694030612
 30
0.0
 40
2.0
100
AcDbArc
 50
180.0
 51
270.0
  0
ARC
  5
4D878
330
A
100
AcDbEntity
  8
レイヤー 1
 62
     7
370
    50
100
AcDbCircle
 10
4131.985540780939
 20
1862.878586002762
 30
0.0
 40
2.0
100
AcDbArc
 50
89.99999999999941
 51
180.0
  0
LINE
  5
51E93
330
A
100
AcDbEntity
  8
レイヤー 1
  6
Continuous
 62
     7
100
AcDbLine
 10
4137.985140380942
 20
1868.36609403061
 30
0.0
 11
4139.98554038094
 21
1868.36609403061
 31
0.0
  0
CIRCLE
  5
51ECE
330
A
100
AcDbEntity
  8
レイヤー 1
  6
Continuous
 62
     7
370
    30
100
AcDbCircle
 10
4129.984740380944
 20
1865.36609403061
 30
0.0
 40
3.0
  0
LINE
  5
51ECF
330
A
100
AcDbEntity
  8
レイヤー 1
  6
Continuous
 62
     7
370
    30
100
AcDbLine
 10
4129.984740380944
 20
1868.36609403061
 30
0.0
 11
4148.985540380947
 21
1868.36609403061
 31
0.0
  0
LINE
  5
51ED0
330
A
100
AcDbEntity
  8
レイヤー 1
  6
Continuous
 62
     7
370
    30
100
AcDbLine
 10
4129.984740380944
 20
1862.36609403061
 30
0.0
 11
4148.985540380947
 21
1862.36609403061
 31
0.0
  0
LINE
  5
51ED1
330
A
100
AcDbEntity
  8
レイヤー 1
  6
Continuous
 62
     7
370
    30
100
AcDbLine
 10
4148.985540380947
 20
1868.36609403061
 30
0.0
 11
4148.985540380947
 21
1866.365694030613
 31
0.0
  0
LINE
  5
51ED2
330
A
100
AcDbEntity
  8
レイヤー 1
  6
Continuous
 62
     7
370
    30
100
AcDbLine
 10
4148.985540380947
 20
1864.365294030616
 30
0.0
 11
4148.985540380947
 21
1862.36609403061
 31
0.0
  0
LINE
  5
51ED3
330
A
100
AcDbEntity
  8
レイヤー 1
  6
Continuous
 62
     7
370
    30
100
AcDbLine
 10
4132.814340380941
 20
1866.365694030613
 30
0.0
 11
4148.985540380947
 21
1866.365694030613
 31
0.0
  0
LINE
  5
51ED4
330
A
100
AcDbEntity
  8
レイヤー 1
  6
Continuous
 62
     7
370
    30
100
AcDbLine
 10
4132.814340380941
 20
1864.365294030616
 30
0.0
 11
4148.985540380947
 21
1864.365294030616
 31
0.0
  0
LINE
  5
51ED6
330
A
100
AcDbEntity
  8
レイヤー 1
  6
Continuous
 62
     7
100
AcDbLine
 10
4137.985140380942
 20
1862.36609403061
 30
0.0
 11
4139.98554038094
 21
1862.36609403061
 31
0.0
  0
CIRCLE
  5
51F11
330
A
100
AcDbEntity
  8
レイヤー 1
  6
Continuous
 62
     7
370
    30
100
AcDbCircle
 10
4129.984740380944
 20
1865.36609403061
 30
0.0
 40
2.499999599999999
  0
CIRCLE
  5
51F4F
330
A
100
AcDbEntity
  8
レイヤー 1
  6
Continuous
 62
     7
370
    30
100
AcDbCircle
 10
4150.985540780939
 20
1570.878586002763
 30
0.0
 40
3.0
  0
LINE
  5
51F50
330
A
100
AcDbEntity
  8
レイヤー 1
  6
Continuous
 62
     7
370
    30
100
AcDbLine
 10
4131.984740780938
 20
1573.878586002763
 30
0.0
 11
4150.985540780939
 21
1573.878586002763
 31
0.0
  0
LINE
  5
51F51
330
A
100
AcDbEntity
  8
レイヤー 1
  6
Continuous
 62
     7
370
    30
100
AcDbLine
 10
4131.984740780938
 20
1567.878586002763
 30
0.0
 11
4150.985540780939
 21
1567.878586002763
 31
0.0
  0
LINE
  5
51F52
330
A
100
AcDbEntity
  8
レイヤー 1
  6
Continuous
 62
     7
370
    30
100
AcDbLine
 10
4131.984740780938
 20
1573.878586002763
 30
0.0
 11
4131.984740780938
 21
1571.878186002766
 31
0.0
  0
LINE
  5
51F53
330
A
100
AcDbEntity
  8
レイヤー 1
  6
Continuous
 62
     7
370
    30
100
AcDbLine
 10
4131.984740780938
 20
1569.877786002768
 30
0.0
 11
4131.984740780938
 21
1567.878586002763
 31
0.0
  0
LINE
  5
51F54
330
A
100
AcDbEntity
  8
レイヤー 1
  6
Continuous
 62
     7
370
    30
100
AcDbLine
 10
4131.984740780938
 20
1571.878186002766
 30
0.0
 11
4148.157140780933
 21
1571.878186002766
 31
0.0
  0
LINE
  5
51F55
330
A
100
AcDbEntity
  8
レイヤー 1
  6
Continuous
 62
     7
370
    30
100
AcDbLine
 10
4131.984740780938
 20
1569.877786002768
 30
0.0
 11
4148.157140780933
 21
1569.877786002768
 31
0.0
  0
CIRCLE
  5
51F92
330
A
100
AcDbEntity
  8
レイヤー 1
  6
Continuous
 62
     7
370
    30
100
AcDbCircle
 10
4150.985540780939
 20
1570.878586002763
 30
0.0
 40
2.499999599999999
  0
CIRCLE
  5
51FCF
330
A
100
AcDbEntity
  8
レイヤー 1
  6
Continuous
 62
     7
370
    30
100
AcDbCircle
 10
4150.986341180945
 20
2159.865694030613
 30
0.0
 40
3.0
  0
LINE
  5
51FD0
330
A
100
AcDbEntity
  8
レイヤー 1
  6
Continuous
 62
     7
370
    30
100
AcDbLine
 10
4131.985541180943
 20
2162.865694030613
 30
0.0
 11
4150.986341180945
 21
2162.865694030613
 31
0.0
  0
LINE
  5
51FD1
330
A
100
AcDbEntity
  8
レイヤー 1
  6
Continuous
 62
     7
370
    30
100
AcDbLine
 10
4131.985541180943
 20
2156.865694030614
 30
0.0
 11
4150.986341180945
 21
2156.865694030614
 31
0.0
  0
LINE
  5
51FD2
330
A
100
AcDbEntity
  8
レイヤー 1
  6
Continuous
 62
     7
370
    30
100
AcDbLine
 10
4131.985541180943
 20
2160.865294030616
 30
0.0
 11
4131.985541180943
 21
2162.865694030613
 31
0.0
  0
LINE
  5
51FD3
330
A
100
AcDbEntity
  8
レイヤー 1
  6
Continuous
 62
     7
370
    30
100
AcDbLine
 10
4131.985541180943
 20
2156.865694030614
 30
0.0
 11
4131.985541180943
 21
2158.864894030619
 31
0.0
  0
LINE
  5
51FD4
330
A
100
AcDbEntity
  8
レイヤー 1
  6
Continuous
 62
     7
370
    30
100
AcDbLine
 10
4131.985541180943
 20
2160.865294030616
 30
0.0
 11
4148.157941180939
 21
2160.865294030616
 31
0.0
  0
LINE
  5
51FD5
330
A
100
AcDbEntity
  8
レイヤー 1
  6
Continuous
 62
     7
370
    30
100
AcDbLine
 10
4131.985541180943
 20
2158.864894030619
 30
0.0
 11
4148.157941180939
 21
2158.864894030619
 31
0.0
  0
CIRCLE
  5
52012
330
A
100
AcDbEntity
  8
レイヤー 1
  6
Continuous
 62
     7
370
    30
100
AcDbCircle
 10
4150.986341180945
 20
2159.865694030613
 30
0.0
 40
2.499999599999999
  0
LINE
  5
52015
330
A
100
AcDbEntity
  8
レイヤー 1
  6
Hidden
 62
     7
370
    30
100
AcDbLine
 10
4144.985940380943
 20
1862.36609403061
 30
0.0
 11
4150.98554078094
 21
1862.36609403061
 31
0.0
  0
LINE
  5
52019
330
A
100
AcDbEntity
  8
レイヤー 1
  6
Continuous
 62
     7
 48
5.0
370
    50
100
AcDbLine
 10
2192.401912457116
 20
379.6254273752783
 30
0.0
 11
2192.401912457116
 21
406.6254273752782
 31
0.0
  0
LINE
  5
5201A
330
A
100
AcDbEntity
  8
レイヤー 1
  6
Continuous
 62
     7
 48
5.0
370
    50
100
AcDbLine
 10
1297.401912457116
 20
379.6254273752783
 30
0.0
 11
1371.399626916868
 21
379.6254273752783
 31
0.0
  0
LINE
  5
5201B
330
A
100
AcDbEntity
  8
レイヤー 1
  6
Continuous
 62
     7
 48
5.0
370
    50
100
AcDbLine
 10
1297.401912457116
 20
411.6254273752783
 30
0.0
 11
1297.401912457116
 21
406.6254273752781
 31
0.0
  0
LINE
  5
5201C
330
A
100
AcDbEntity
  8
レイヤー 1
  6
Continuous
 62
     7
 48
5.0
370
    50
100
AcDbLine
 10
1298.401912457116
 20
412.6254273752783
 30
0.0
 11
1297.401912457116
 21
411.6254273752783
 31
0.0
  0
LINE
  5
5201D
330
A
100
AcDbEntity
  8
レイヤー 1
  6
Continuous
 62
     7
 48
5.0
370
    50
100
AcDbLine
 10
1297.401912457116
 20
406.6254273752781
 30
0.0
 11
1371.399753391805
 21
406.6254273752781
 31
0.0
  0
LINE
  5
5201E
330
A
100
AcDbEntity
  8
レイヤー 1
  6
Continuous
 62
     7
 48
5.0
370
    50
100
AcDbLine
 10
1298.401912457116
 20
412.6254273752783
 30
0.0
 11
1371.399781497346
 21
412.6254273752783
 31
0.0
  0
LINE
  5
5201F
330
A
100
AcDbEntity
  8
レイヤー 1
  6
Continuous
 62
     7
 48
5.0
370
    50
100
AcDbLine
 10
2192.401912457116
 20
411.6254273752783
 30
0.0
 11
2191.401912457116
 21
412.6254273752783
 31
0.0
  0
LINE
  5
52020
330
A
100
AcDbEntity
  8
レイヤー 1
  6
Continuous
 62
     7
 48
5.0
370
    50
100
AcDbLine
 10
2192.401912457116
 20
411.6254273752783
 30
0.0
 11
2192.401912457116
 21
406.6254273752781
 31
0.0
  0
LINE
  5
52021
330
A
100
AcDbEntity
  8
レイヤー 1
  6
Continuous
 62
     7
 48
5.0
370
    50
100
AcDbLine
 10
1297.401912457116
 20
379.6254273752783
 30
0.0
 11
1297.401912457116
 21
406.6254273752782
 31
0.0
  0
LINE
  5
52165
330
A
100
AcDbEntity
  8
レイヤー 1
 62
     7
370
    50
100
AcDbLine
 10
5053.025736480372
 20
2160.365694030613
 30
0.0
 11
5074.02530056655
 21
2160.365694030613
 31
0.0
  0
ARC
  5
52166
330
A
100
AcDbEntity
  8
レイヤー 1
 62
     7
 48
5.0
370
    50
100
AcDbCircle
 10
5053.025736480372
 20
2162.365694030613
 30
0.0
 40
2.0
100
AcDbArc
 50
180.0004017816349
 51
270.0
  0
ARC
  5
52167
330
A
100
AcDbEntity
  8
レイヤー 1
 62
     7
 48
5.0
370
    50
100
AcDbCircle
 10
5074.02530056655
 20
1568.378586002762
 30
0.0
 40
2.0
100
AcDbArc
 50
0.000000000000007
 51
90.0
  0
ARC
  5
52168
330
A
100
AcDbEntity
  8
レイヤー 1
  6
Hidden
 62
     7
 48
5.0
370
    50
100
AcDbCircle
 10
5053.026679463716
 20
1568.378586002762
 30
0.0
 40
2.0
100
AcDbArc
 50
90.0
 51
179.9999999999992
  0
ARC
  5
5233A
330
A
100
AcDbEntity
  8
レイヤー 1
 62
     7
 48
5.0
370
    50
100
AcDbCircle
 10
5074.011524269178
 20
2162.365646583458
 30
0.0
 40
1.999999999999999
100
AcDbArc
 50
270.3946649693207
 51
0.3942631876554867
  0
ARC
  5
52355
330
A
100
AcDbEntity
  8
レイヤー 1
 62
     7
 48
5.0
370
    50
100
AcDbCircle
 10
2856.611433410495
 20
-34.37256678310678
 30
0.0
 40
2.0
100
AcDbArc
 50
180.0
 51
270.0000001059588
  0
LINE
  5
52356
330
A
100
AcDbEntity
  8
レイヤー 1
  6
Continuous
 62
     7
 48
5.0
370
    50
100
AcDbLine
 10
3146.116236796721
 20
-36.37256624771686
 30
0.0
 11
2856.611433414193
 21
-36.37256678310678
 31
0.0
  0
ARC
  5
52358
330
A
100
AcDbEntity
  8
レイヤー 1
  6
Continuous
 62
     7
 48
5.0
370
    50
100
AcDbCircle
 10
3146.116236793023
 20
-34.37256624771686
 30
0.0
 40
2.0
100
AcDbArc
 50
270.0000001059588
 51
0.0
  0
ARC
  5
52359
330
A
100
AcDbEntity
  8
レイヤー 1
  6
Continuous
 62
     7
 48
5.0
370
    50
100
AcDbCircle
 10
3151.116236793022
 20
-34.37256623847022
 30
0.0
 40
2.0
100
AcDbArc
 50
180.0
 51
270.0000001059588
  0
ARC
  5
5235A
330
A
100
AcDbEntity
  8
レイヤー 1
  6
Continuous
 62
     7
 48
5.0
370
    50
100
AcDbCircle
 10
3440.611433415045
 20
-34.37256570309804
 30
0.0
 40
2.0
100
AcDbArc
 50
270.0000001059588
 51
0.0
  0
LINE
  5
52370
330
A
100
AcDbEntity
  8
レイヤー 1
  6
Continuous
 62
     7
 48
5.0
370
    50
100
AcDbLine
 10
3148.115193698175
 20
738.6277505929156
 30
0.0
 11
3148.115193698175
 21
808.1183533176355
 31
0.0
  0
LINE
  5
52371
330
A
100
AcDbEntity
  8
レイヤー 1
  6
Continuous
 62
     7
 48
5.0
370
    50
100
AcDbLine
 10
2854.611433410493
 20
738.6277485270362
 30
0.0
 11
2854.611433410493
 21
782.1163626317578
 31
0.0
  0
ARC
  5
52372
330
A
100
AcDbEntity
  8
レイヤー 1
 62
     7
370
    50
100
AcDbCircle
 10
3148.610464942051
 20
318.2307649042143
 30
0.0
 40
500.0
100
AcDbArc
 50
91.2273076238535
 51
104.7968626416272
  0
LINE
  5
52376
330
A
100
AcDbEntity
  8
レイヤー 1
  6
Continuous
 62
     7
 48
5.0
370
    50
100
AcDbLine
 10
3442.611433415045
 20
738.6277526657806
 30
0.0
 11
3442.611433415045
 21
782.3904561819763
 31
0.0
  0
LINE
  5
523CC
330
A
100
AcDbEntity
  8
レイヤー 1
  6
Continuous
 62
     7
370
    50
100
AcDbLine
 10
4150.985540780939
 20
1573.378585602763
 30
0.0
 11
4150.98554078094
 21
1862.878586002762
 31
0.0
  0
LINE
  5
523D0
330
A
100
AcDbEntity
  8
レイヤー 1
  6
Continuous
 62
     7
370
    50
100
AcDbLine
 10
5076.025300566545
 20
2162.365708415809
 30
0.0
 11
5076.025300566541
 21
2194.986460062529
 31
0.0
  0
LINE
  5
523D2
330
A
100
AcDbEntity
  8
レイヤー 1
  6
Continuous
 62
     7
370
    50
100
AcDbLine
 10
5051.02570056654
 20
2162.36567962038
 30
0.0
 11
5051.02570056654
 21
2194.98559826559
 31
0.0
  0
CIRCLE
  5
525A0
330
A
100
AcDbEntity
  8
レイヤー 1
  6
Hidden
 62
     7
370
    30
100
AcDbCircle
 10
3162.615193698175
 20
393.1237456628423
 30
0.0
 40
6.25
  0
CIRCLE
  5
525A1
330
A
100
AcDbEntity
  8
レイヤー 1
  6
Hidden
 62
     7
370
    30
100
AcDbCircle
 10
3162.615193698175
 20
393.1237456628423
 30
0.0
 40
3.0
  0
LINE
  5
525A2
330
A
100
AcDbEntity
  8
レイヤー 1
  6
Hidden
 62
     7
370
    30
100
AcDbLine
 10
3160.865193698175
 20
396.1548456628424
 30
0.0
 11
3164.365193698175
 21
396.1548456628424
 31
0.0
  0
LINE
  5
525A3
330
A
100
AcDbEntity
  8
レイヤー 1
  6
Hidden
 62
     7
370
    30
100
AcDbLine
 10
3159.115193698176
 20
393.1237456628423
 30
0.0
 11
3160.865193698175
 21
396.1548456628424
 31
0.0
  0
LINE
  5
525A4
330
A
100
AcDbEntity
  8
レイヤー 1
  6
Hidden
 62
     7
370
    30
100
AcDbLine
 10
3159.115193698176
 20
393.1237456628423
 30
0.0
 11
3160.865193698175
 21
390.0926456628425
 31
0.0
  0
LINE
  5
525A5
330
A
100
AcDbEntity
  8
レイヤー 1
  6
Hidden
 62
     7
370
    30
100
AcDbLine
 10
3160.865193698175
 20
390.0926456628425
 30
0.0
 11
3164.365193698175
 21
390.0926456628425
 31
0.0
  0
LINE
  5
525A6
330
A
100
AcDbEntity
  8
レイヤー 1
  6
Hidden
 62
     7
370
    30
100
AcDbLine
 10
3164.365193698175
 20
390.0926456628425
 30
0.0
 11
3166.115193698175
 21
393.1237456628423
 31
0.0
  0
LINE
  5
525A7
330
A
100
AcDbEntity
  8
レイヤー 1
  6
Hidden
 62
     7
370
    30
100
AcDbLine
 10
3164.365193698175
 20
396.1548456628424
 30
0.0
 11
3166.115193698175
 21
393.1237456628423
 31
0.0
  0
CIRCLE
  5
525A8
330
A
100
AcDbEntity
  8
レイヤー 1
  6
Hidden
 62
     7
370
    30
100
AcDbCircle
 10
3162.615193698175
 20
393.1237456628423
 30
0.0
 40
2.7
  0
ARC
  5
5340C
330
A
100
AcDbEntity
  8
レイヤー 1
 62
     7
370
    50
100
AcDbCircle
 10
2205.400657516161
 20
798.6277499206975
 30
0.0
 40
20.0
100
AcDbArc
 50
61.82135725947039
 51
118.1800873882426
  0
LINE
  5
5340D
330
A
100
AcDbEntity
  8
レイヤー 1
 62
     7
370
    50
100
AcDbLine
 10
2215.900657516161
 20
814.4943815733201
 30
0.0
 11
2215.900657516161
 21
786.230858645507
 31
0.0
  0
LINE
  5
5340E
330
A
100
AcDbEntity
  8
レイヤー 1
 62
     7
370
    50
100
AcDbLine
 10
2194.900257459848
 20
814.4941672504739
 30
0.0
 11
2194.901057459568
 21
780.8516246774234
 31
0.0
  0
ARC
  5
53410
330
A
100
AcDbEntity
  8
レイヤー 1
 62
     7
370
    50
100
AcDbCircle
 10
2213.900657516161
 20
814.4943815733201
 30
0.0
 40
2.0
100
AcDbArc
 50
0.0
 51
61.82135725947084
  0
ARC
  5
53411
330
A
100
AcDbEntity
  8
レイヤー 1
 62
     7
370
    50
100
AcDbCircle
 10
2196.900257459848
 20
814.4941672504739
 30
0.0
 40
2.0
100
AcDbArc
 50
118.1800873882462
 51
180.0
  0
ARC
  5
53427
330
A
100
AcDbEntity
  8
レイヤー 1
 62
     7
370
    50
100
AcDbCircle
 10
1284.399256864863
 20
798.6162242170386
 30
0.0
 40
20.0
100
AcDbArc
 50
61.82134664686545
 51
118.180076775657
  0
ARC
  5
53428
330
A
100
AcDbEntity
  8
レイヤー 1
 62
     7
370
    50
100
AcDbCircle
 10
1292.899259803755
 20
814.4828542952504
 30
0.0
 40
2.0
100
AcDbArc
 50
0.0014340351167133
 51
61.82134664686466
  0
ARC
  5
53429
330
A
100
AcDbEntity
  8
レイヤー 1
 62
     7
370
    50
100
AcDbCircle
 10
1275.898859747403
 20
814.4826431212994
 30
0.0
 40
2.0
100
AcDbArc
 50
118.1800767756569
 51
180.0014340351166
  0
LINE
  5
5342A
330
A
100
AcDbEntity
  8
レイヤー 1
 62
     7
370
    50
100
AcDbLine
 10
1273.898859748029
 20
814.4825930640307
 30
0.0
 11
1273.899614339163
 21
784.333479759739
 31
0.0
  0
LINE
  5
5342B
330
A
100
AcDbEntity
  8
レイヤー 1
 62
     7
370
    50
100
AcDbLine
 10
1294.899259803129
 20
814.482904352519
 30
0.0
 11
1294.900366940295
 21
780.8496825594708
 31
0.0
  0
ARC
  5
53439
330
A
100
AcDbEntity
  8
レイヤー 1
 62
     7
370
    50
100
AcDbCircle
 10
5061.525639529707
 20
798.6111823342971
 30
0.0
 40
20.0
100
AcDbArc
 50
61.82135725947272
 51
118.180087388237
  0
ARC
  5
5343A
330
A
100
AcDbEntity
  8
レイヤー 1
 62
     7
370
    50
100
AcDbCircle
 10
5053.025239473394
 20
814.4775996640737
 30
0.0
 40
2.0
100
AcDbArc
 50
118.1800873882378
 51
180.0
  0
ARC
  5
5343B
330
A
100
AcDbEntity
  8
レイヤー 1
 62
     7
370
    50
100
AcDbCircle
 10
5070.025639529707
 20
814.4778139869199
 30
0.0
 40
2.0
100
AcDbArc
 50
0.0
 51
61.82135725947285
  0
LINE
  5
5343C
330
A
100
AcDbEntity
  8
レイヤー 1
 62
     7
370
    50
100
AcDbLine
 10
5072.025639529709
 20
814.4778139869199
 30
0.0
 11
5072.025639529709
 21
784.3340263218387
 31
0.0
  0
LINE
  5
5343D
330
A
100
AcDbEntity
  8
レイヤー 1
 62
     7
370
    50
100
AcDbLine
 10
5051.025239473394
 20
814.4775996640737
 30
0.0
 11
5051.026100510231
 21
780.8510855692709
 31
0.0
  0
ARC
  5
53449
330
A
100
AcDbEntity
  8
レイヤー 1
 62
     7
370
    50
100
AcDbCircle
 10
4140.524238878408
 20
798.5996566306384
 30
0.0
 40
20.0
100
AcDbArc
 50
61.82134664686352
 51
118.1800767756594
  0
ARC
  5
5344A
330
A
100
AcDbEntity
  8
レイヤー 1
 62
     7
370
    50
100
AcDbCircle
 10
4149.024241817302
 20
814.4662867088502
 30
0.0
 40
2.0
100
AcDbArc
 50
0.0014340351167135
 51
61.82134664686334
  0
ARC
  5
5344B
330
A
100
AcDbEntity
  8
レイヤー 1
 62
     7
370
    50
100
AcDbCircle
 10
4132.023841760949
 20
814.4660755348994
 30
0.0
 40
2.0
100
AcDbArc
 50
118.1800767756593
 51
180.0014340351166
  0
LINE
  5
5344C
330
A
100
AcDbEntity
  8
レイヤー 1
 62
     7
370
    50
100
AcDbLine
 10
4130.023841761576
 20
814.4660254776303
 30
0.0
 11
4130.024595924526
 21
784.334019944766
 31
0.0
  0
LINE
  5
5344D
330
A
100
AcDbEntity
  8
レイヤー 1
 62
     7
370
    50
100
AcDbLine
 10
4151.024241816674
 20
814.4663367661189
 30
0.0
 11
4151.025348525658
 21
780.8502227444977
 31
0.0
  0
LINE
  5
5346D
330
A
100
AcDbEntity
  8
レイヤー 1
 62
     7
370
    50
100
AcDbLine
 10
4131.985540780939
 20
1865.865694030613
 30
0.0
 11
4148.98554078094
 21
1865.865694030613
 31
0.0
  0
LINE
  5
5346E
330
A
100
AcDbEntity
  8
レイヤー 1
 62
     7
370
    50
100
AcDbLine
 10
4131.985540780939
 20
1864.878586002762
 30
0.0
 11
4148.98554078094
 21
1864.878586002762
 31
0.0
  0
LINE
  5
53485
330
A
100
AcDbEntity
  8
レイヤー 1
 62
     7
370
    50
100
AcDbLine
 10
5053.026679463716
 20
1570.378586002763
 30
0.0
 11
5074.02530056655
 21
1570.378586002762
 31
0.0
  0
LINE
  5
53486
330
A
100
AcDbEntity
  8
レイヤー 1
  6
Continuous
 62
     7
370
    50
100
AcDbLine
 10
5051.160054116147
 20
1573.870167573776
 30
0.0
 11
5051.031003214506
 21
1863.079395073873
 31
0.0
  0
ARC
  5
53487
330
A
100
AcDbEntity
  8
レイヤー 1
 62
     7
370
    50
100
AcDbCircle
 10
5053.031003015393
 20
1863.080287513508
 30
0.0
 40
2.0
100
AcDbArc
 50
90.02556651313225
 51
180.0255665131418
  0
LINE
  5
53488
330
A
100
AcDbEntity
  8
レイヤー 1
  6
Continuous
 62
     7
370
    50
100
AcDbLine
 10
5051.02877786807
 20
1868.066502605227
 30
0.0
 11
5050.900935533302
 21
2154.567274082328
 31
0.0
  0
ARC
  5
53489
330
A
100
AcDbEntity
  8
レイヤー 1
 62
     7
370
    50
100
AcDbCircle
 10
5053.028777668958
 20
1868.067395044862
 30
0.0
 40
2.0
100
AcDbArc
 50
180.0255665131416
 51
270.0255665131322
  0
LINE
  5
5348A
330
A
100
AcDbEntity
  8
レイヤー 1
  6
Continuous
 62
     7
370
    50
100
AcDbLine
 10
5072.160181761073
 20
1573.588794511528
 30
0.0
 11
5072.031001123828
 21
1863.088765690046
 31
0.0
  0
ARC
  5
5348B
330
A
100
AcDbEntity
  8
レイヤー 1
 62
     7
370
    50
100
AcDbCircle
 10
5070.031001322941
 20
1863.08787325041
 30
0.0
 40
2.0
100
AcDbArc
 50
0.0255665131416679
 51
90.02556651313225
  0
LINE
  5
5348C
330
A
100
AcDbEntity
  8
レイヤー 1
  6
Continuous
 62
     7
370
    50
100
AcDbLine
 10
5072.028775777393
 20
1868.0758732214
 30
0.0
 11
5071.89959514015
 21
2157.575844399918
 31
0.0
  0
ARC
  5
5348D
330
A
100
AcDbEntity
  8
レイヤー 1
 62
     7
370
    50
100
AcDbCircle
 10
5070.160181960185
 20
1573.587902071892
 30
0.0
 40
2.0
100
AcDbArc
 50
266.1387357297079
 51
0.0255665131416679
  0
ARC
  5
5348E
330
A
100
AcDbEntity
  8
レイヤー 1
 62
     7
370
    50
100
AcDbCircle
 10
5069.899595339262
 20
2157.574951960282
 30
0.0
 40
2.0
100
AcDbArc
 50
0.0255665131416679
 51
90.02556651313225
  0
LINE
  5
53497
330
A
100
AcDbEntity
  8
レイヤー 1
 62
     7
370
    50
100
AcDbLine
 10
5070.030108883305
 20
1865.087873051298
 30
0.0
 11
5053.030110575758
 21
1865.080287314397
 31
0.0
  0
LINE
  5
53498
330
A
100
AcDbEntity
  8
レイヤー 1
 62
     7
370
    50
100
AcDbLine
 10
5070.02966841614
 20
1866.074980980877
 30
0.0
 11
5053.029670108593
 21
1866.067395243975
 31
0.0
  0
ARC
  5
53499
330
A
100
AcDbEntity
  8
レイヤー 1
 62
     7
370
    50
100
AcDbCircle
 10
5070.028775976506
 20
1868.074980781764
 30
0.0
 40
2.0
100
AcDbArc
 50
270.0255665131322
 51
0.0255665131416679
  0
ARC
  5
534B5
330
A
100
AcDbEntity
  8
レイヤー 1
 62
     7
370
    50
100
AcDbCircle
 10
5052.910306307341
 20
2133.567368612727
 30
0.0
 40
2.0
100
AcDbArc
 50
180.0255665131416
 51
270.0255665131322
  0
ARC
  5
534B6
330
A
100
AcDbEntity
  8
レイヤー 1
 62
     7
370
    50
100
AcDbCircle
 10
5069.910304614889
 20
2133.574954349629
 30
0.0
 40
2.0
100
AcDbArc
 50
270.0255665131322
 51
0.0255665131416679
  0
LINE
  5
534B7
330
A
100
AcDbEntity
  8
レイヤー 1
 62
     7
370
    50
100
AcDbLine
 10
5069.911197054524
 20
2131.574954548741
 30
0.0
 11
5052.911198746976
 21
2131.567368811839
 31
0.0
  0
LINE
  5
534DF
330
A
100
AcDbEntity
  8
レイヤー 1
  6
Continuous
 62
     7
100
AcDbLine
 10
5064.028953685403
 20
1868.572703591703
 30
0.0
 11
5062.028553884556
 21
1868.57181097358
 31
0.0
  0
CIRCLE
  5
5351A
330
A
100
AcDbEntity
  8
レイヤー 1
  6
Continuous
 62
     7
370
    30
100
AcDbCircle
 10
5072.030691548365
 20
1865.576273827402
 30
0.0
 40
3.0
  0
LINE
  5
5351B
330
A
100
AcDbEntity
  8
レイヤー 1
  6
Continuous
 62
     7
370
    30
100
AcDbLine
 10
5072.029352888911
 20
1868.576273528734
 30
0.0
 11
5053.028554780554
 21
1868.56779499522
 31
0.0
  0
LINE
  5
5351C
330
A
100
AcDbEntity
  8
レイヤー 1
  6
Continuous
 62
     7
370
    30
100
AcDbLine
 10
5072.032030207817
 20
1862.57627412607
 30
0.0
 11
5053.031232099461
 21
1862.567795592557
 31
0.0
  0
LINE
  5
5351D
330
A
100
AcDbEntity
  8
レイヤー 1
  6
Continuous
 62
     7
370
    30
100
AcDbLine
 10
5053.028554780554
 20
1868.56779499522
 30
0.0
 11
5053.029447398678
 21
1866.567395194375
 31
0.0
  0
LINE
  5
5351E
330
A
100
AcDbEntity
  8
レイヤー 1
  6
Continuous
 62
     7
370
    30
100
AcDbLine
 10
5053.030340016801
 20
1864.56699539353
 30
0.0
 11
5053.031232099461
 21
1862.567795592557
 31
0.0
  0
LINE
  5
5351F
330
A
100
AcDbEntity
  8
レイヤー 1
  6
Continuous
 62
     7
370
    30
100
AcDbLine
 10
5069.200645788741
 20
1866.574611104292
 30
0.0
 11
5053.029447398678
 21
1866.567395194375
 31
0.0
  0
LINE
  5
53520
330
A
100
AcDbEntity
  8
レイヤー 1
  6
Continuous
 62
     7
370
    30
100
AcDbLine
 10
5069.201538406865
 20
1864.574211303447
 30
0.0
 11
5053.030340016801
 21
1864.56699539353
 31
0.0
  0
LINE
  5
53522
330
A
100
AcDbEntity
  8
レイヤー 1
  6
Continuous
 62
     7
100
AcDbLine
 10
5064.031631004309
 20
1862.57270418904
 30
0.0
 11
5062.031231203464
 21
1862.571811570916
 31
0.0
  0
CIRCLE
  5
5355D
330
A
100
AcDbEntity
  8
レイヤー 1
  6
Continuous
 62
     7
370
    30
100
AcDbCircle
 10
5072.030691548365
 20
1865.576273827402
 30
0.0
 40
2.499999599999999
  0
CIRCLE
  5
5359A
330
A
100
AcDbEntity
  8
レイヤー 1
  6
Continuous
 62
     7
370
    30
100
AcDbCircle
 10
5051.02535700395
 20
1570.870107170581
 30
0.0
 40
3.0
  0
LINE
  5
5359B
330
A
100
AcDbEntity
  8
レイヤー 1
  6
Continuous
 62
     7
370
    30
100
AcDbLine
 10
5070.024816452853
 20
1573.878585405426
 30
0.0
 11
5051.024018344499
 21
1573.870106871913
 31
0.0
  0
LINE
  5
5359C
330
A
100
AcDbEntity
  8
レイヤー 1
 62
     7
370
    30
100
AcDbLine
 10
5070.02749377176
 20
1567.878586002763
 30
0.0
 11
5051.026695663404
 21
1567.870107469249
 31
0.0
  0
LINE
  5
5359D
330
A
100
AcDbEntity
  8
レイヤー 1
  6
Continuous
 62
     7
370
    30
100
AcDbLine
 10
5070.024816452853
 20
1573.878585405426
 30
0.0
 11
5070.025709070978
 21
1571.878185604581
 31
0.0
  0
LINE
  5
5359E
330
A
100
AcDbEntity
  8
レイヤー 1
  6
Continuous
 62
     7
370
    30
100
AcDbLine
 10
5070.0266016891
 20
1569.877785803736
 30
0.0
 11
5070.02749377176
 21
1567.878586002763
 31
0.0
  0
LINE
  5
5359F
330
A
100
AcDbEntity
  8
レイヤー 1
  6
Continuous
 62
     7
370
    30
100
AcDbLine
 10
5070.025709070978
 20
1571.878185604581
 30
0.0
 11
5053.853310681041
 21
1571.8709691592
 31
0.0
  0
LINE
  5
535A0
330
A
100
AcDbEntity
  8
レイヤー 1
  6
Continuous
 62
     7
370
    30
100
AcDbLine
 10
5070.0266016891
 20
1569.877785803736
 30
0.0
 11
5053.854203299167
 21
1569.870569358355
 31
0.0
  0
CIRCLE
  5
535DC
330
A
100
AcDbEntity
  8
レイヤー 1
  6
Continuous
 62
     7
370
    30
100
AcDbCircle
 10
5051.02535700395
 20
1570.870107170581
 30
0.0
 40
2.499999599999999
  0
CIRCLE
  5
53619
330
A
100
AcDbEntity
  8
レイヤー 1
  6
Continuous
 62
     7
370
    30
100
AcDbCircle
 10
5050.898796473928
 20
2157.567273426504
 30
0.0
 40
3.0
  0
LINE
  5
5361A
330
A
100
AcDbEntity
  8
レイヤー 1
  6
Continuous
 62
     7
370
    30
100
AcDbLine
 10
5069.898255922832
 20
2160.575751661351
 30
0.0
 11
5050.897457814475
 21
2160.567273127837
 31
0.0
  0
LINE
  5
5361B
330
A
100
AcDbEntity
  8
レイヤー 1
  6
Continuous
 62
     7
370
    30
100
AcDbLine
 10
5069.900933241738
 20
2154.575752258686
 30
0.0
 11
5050.900135133382
 21
2154.567273725172
 31
0.0
  0
LINE
  5
5361C
330
A
100
AcDbEntity
  8
レイヤー 1
  6
Continuous
 62
     7
370
    30
100
AcDbLine
 10
5069.899148540955
 20
2158.575351860505
 30
0.0
 11
5069.898255922832
 21
2160.575751661351
 31
0.0
  0
LINE
  5
5361D
330
A
100
AcDbEntity
  8
レイヤー 1
  6
Continuous
 62
     7
370
    30
100
AcDbLine
 10
5069.900933241738
 20
2154.575752258686
 30
0.0
 11
5069.900041159079
 21
2156.574952059659
 31
0.0
  0
LINE
  5
5361E
330
A
100
AcDbEntity
  8
レイヤー 1
  6
Continuous
 62
     7
370
    30
100
AcDbLine
 10
5069.899148540955
 20
2158.575351860505
 30
0.0
 11
5053.726750151021
 21
2158.568135415125
 31
0.0
  0
LINE
  5
5361F
330
A
100
AcDbEntity
  8
レイヤー 1
  6
Continuous
 62
     7
370
    30
100
AcDbLine
 10
5069.900041159079
 20
2156.574952059659
 30
0.0
 11
5053.727642769143
 21
2156.567735614279
 31
0.0
  0
CIRCLE
  5
5365C
330
A
100
AcDbEntity
  8
レイヤー 1
  6
Continuous
 62
     7
370
    30
100
AcDbCircle
 10
5050.898796473928
 20
2157.567273426504
 30
0.0
 40
2.499999599999999
  0
LINE
  5
5365F
330
A
100
AcDbEntity
  8
レイヤー 1
  6
Hidden
 62
     7
370
    30
100
AcDbLine
 10
5070.025500410721
 20
1571.592442004581
 30
0.0
 11
5070.024816452853
 21
1573.878585405426
 31
0.0
  0
LINE
  5
53660
330
A
100
AcDbEntity
  8
レイヤー 1
  6
Hidden
 62
     7
370
    30
100
AcDbLine
 10
5071.900933442627
 20
2154.576644698501
 30
0.0
 11
5069.900933241738
 21
2154.575752258686
 31
0.0
  0
LINE
  5
53AA7
330
A
100
AcDbEntity
  8
レイヤー 1
 62
     7
370
    50
100
AcDbLine
 10
4150.986341180945
 20
2162.865694030613
 30
0.0
 11
4131.985541180943
 21
2162.865694030613
 31
0.0
  0
LINE
  5
541EC
330
A
100
AcDbEntity
  8
レイヤー 1
 62
     7
370
    40
100
AcDbLine
 10
4131.983756035843
 20
2159.365137228368
 30
0.0
 11
4148.986341180943
 21
2159.365137228368
 31
0.0
  0
ARC
  5
541ED
330
A
100
AcDbEntity
  8
レイヤー 1
 62
     7
370
    40
100
AcDbCircle
 10
4148.986341180943
 20
2157.365137228369
 30
0.0
 40
2.0
100
AcDbArc
 50
0.0
 51
90.0
  0
LINE
  5
541EE
330
A
100
AcDbEntity
  8
レイヤー 1
 62
     7
370
    50
100
AcDbLine
 10
4131.985541180943
 20
2162.865694030613
 30
0.0
 11
4131.985541180943
 21
2160.365694030613
 31
0.0
  0
LINE
  5
541F0
330
A
100
AcDbEntity
  8
レイヤー 1
 62
     7
370
    50
100
AcDbLine
 10
4131.977528045863
 20
1571.378585474635
 30
0.0
 11
4148.984740380938
 21
1571.378585474635
 31
0.0
  0
ARC
  5
541F1
330
A
100
AcDbEntity
  8
レイヤー 1
 62
     7
370
    50
100
AcDbCircle
 10
4148.984740380938
 20
1573.378585474635
 30
0.0
 40
2.0
100
AcDbArc
 50
270.0
 51
0.0
  0
LINE
  5
541F2
330
A
100
AcDbEntity
  8
レイヤー 1
 62
     7
370
    50
100
AcDbLine
 10
4150.985540780939
 20
1567.878586002763
 30
0.0
 11
4131.984740780938
 21
1567.878586002763
 31
0.0
  0
LINE
  5
541F3
330
A
100
AcDbEntity
  8
レイヤー 1
 62
     7
370
    50
100
AcDbLine
 10
4131.984740780938
 20
1567.878586002763
 30
0.0
 11
4131.984740780938
 21
1570.378586002763
 31
0.0
  0
ARC
  5
58F78
330
A
100
AcDbEntity
  8
レイヤー 1
 62
     7
370
    50
100
AcDbCircle
 10
3159.115193698176
 20
808.1181506101133
 30
0.0
 40
10.0
100
AcDbArc
 50
88.77158625371967
 51
180.0000000000007
  0
ARC
  5
58F79
330
A
100
AcDbEntity
  8
レイヤー 1
 62
     7
370
    50
100
AcDbCircle
 10
3138.115193698174
 20
808.1183533176352
 30
0.0
 40
10.0
100
AcDbArc
 50
0.0000000000006514
 51
91.22730762385264
  0
ARC
  5
59B65
330
A
100
AcDbEntity
  8
レイヤー 1
 62
     7
 48
5.0
370
    50
100
AcDbCircle
 10
1282.399966940291
 20
766.2297783244935
 30
0.0
 40
20.0
100
AcDbArc
 50
54.31309769249781
 51
125.6821996153541
  0
ARC
  5
59B66
330
A
100
AcDbEntity
  8
レイヤー 1
 62
     7
 48
5.0
370
    50
100
AcDbCircle
 10
1271.900766940292
 20
780.8505443564101
 30
0.0
 40
2.0
100
AcDbArc
 50
125.682199615356
 51
180.0
  0
ARC
  5
59B67
330
A
100
AcDbEntity
  8
レイヤー 1
 62
     7
 48
5.0
370
    50
100
AcDbCircle
 10
1292.900366940295
 20
780.8496825594708
 30
0.0
 40
2.0
100
AcDbArc
 50
0.0
 51
54.31309769249781
  0
ARC
  5
59B68
330
A
100
AcDbEntity
  8
レイヤー 1
 62
     7
 48
5.0
370
    50
100
AcDbCircle
 10
2207.400257459566
 20
766.230858645507
 30
0.0
 40
20.0
100
AcDbArc
 50
54.31309769249781
 51
125.6821996153541
  0
ARC
  5
59B69
330
A
100
AcDbEntity
  8
レイヤー 1
 62
     7
 48
5.0
370
    50
100
AcDbCircle
 10
2196.901057459568
 20
780.8516246774234
 30
0.0
 40
2.0
100
AcDbArc
 50
125.682199615356
 51
180.0
  0
ARC
  5
59B6A
330
A
100
AcDbEntity
  8
レイヤー 1
 62
     7
 48
5.0
370
    50
100
AcDbCircle
 10
2217.900657459571
 20
780.8507628804843
 30
0.0
 40
2.0
100
AcDbArc
 50
0.0
 51
54.31309769249781
  0
ARC
  5
59B6B
330
A
100
AcDbEntity
  8
レイヤー 1
 62
     7
 48
5.0
370
    50
100
AcDbCircle
 10
4138.524948525653
 20
766.2303185095204
 30
0.0
 40
20.0
100
AcDbArc
 50
54.31309769249781
 51
125.6821996153541
  0
ARC
  5
59B6C
330
A
100
AcDbEntity
  8
レイヤー 1
 62
     7
 48
5.0
370
    50
100
AcDbCircle
 10
4128.025748525653
 20
780.8510845414367
 30
0.0
 40
2.0
100
AcDbArc
 50
125.682199615356
 51
180.0
  0
ARC
  5
59B6D
330
A
100
AcDbEntity
  8
レイヤー 1
 62
     7
 48
5.0
370
    50
100
AcDbCircle
 10
4149.025348525658
 20
780.8502227444977
 30
0.0
 40
2.0
100
AcDbArc
 50
0.0
 51
54.31309769249781
  0
ARC
  5
59B6E
330
A
100
AcDbEntity
  8
レイヤー 1
 62
     7
 48
5.0
370
    50
100
AcDbCircle
 10
5063.525300510228
 20
766.2303185095169
 30
0.0
 40
20.0
100
AcDbArc
 50
54.31309769249781
 51
125.6821996153541
  0
ARC
  5
59B6F
330
A
100
AcDbEntity
  8
レイヤー 1
 62
     7
 48
5.0
370
    50
100
AcDbCircle
 10
5053.02610051023
 20
780.8510845414332
 30
0.0
 40
2.0
100
AcDbArc
 50
125.682199615356
 51
180.0
  0
ARC
  5
59B70
330
A
100
AcDbEntity
  8
レイヤー 1
 62
     7
 48
5.0
370
    50
100
AcDbCircle
 10
5074.025700510234
 20
780.850222744494
 30
0.0
 40
2.0
100
AcDbArc
 50
0.0
 51
54.31309769249781
  0
LINE
  5
5A497
330
A
100
AcDbEntity
  8
レイヤー 1
 62
     7
 48
5.0
370
    50
100
AcDbLine
 10
2856.867854684898
 20
660.6277567886417
 30
0.0
 11
2856.867780928888
 21
728.6277567886421
 31
0.0
  0
LWPOLYLINE
  5
5A498
330
A
100
AcDbEntity
  8
レイヤー 1
  6
Hidden
 62
     7
370
    30
100
AcDbPolyline
 90
        4
 70
     0
 43
0.0
 10
2853.623811278922
 20
678.1866439800912
 10
2851.3741400673
 20
678.1866439884121
 10
2851.374140252233
 20
728.1866439884121
 10
2853.624181171493
 20
728.18664398009
  0
LWPOLYLINE
  5
5A499
330
A
100
AcDbEntity
  8
レイヤー 1
 62
     7
370
    50
100
AcDbPolyline
 90
        4
 70
     0
 43
0.0
 10
2854.124181171507
 20
728.1866439782405
 10
2856.874140252234
 20
728.1866439680693
 10
2856.8741400673
 20
678.1866439680693
 10
2854.123811278936
 20
678.1866439782419
  0
ARC
  5
5A49A
330
A
100
AcDbEntity
  8
レイヤー 1
  6
Hidden
 62
     7
370
    30
100
AcDbCircle
 10
2854.124140231764
 20
722.6526396492476
 30
0.0
 40
5.996004328992998
100
AcDbArc
 50
94.782960867508
 51
112.638960146569
  0
ARC
  5
5A49B
330
A
100
AcDbEntity
  8
レイヤー 1
 62
     7
370
    50
100
AcDbCircle
 10
2854.124140231766
 20
722.6526396492394
 30
0.0
 40
5.996004329001525
100
AcDbArc
 50
90.00042387516577
 51
94.782960867508
  0
ARC
  5
5A49C
330
A
100
AcDbEntity
  8
レイヤー 1
 62
     7
370
    50
100
AcDbCircle
 10
2854.124140231764
 20
722.6526396492369
 30
0.0
 40
5.996004329004027
100
AcDbArc
 50
67.36103942963794
 51
89.99957613431829
  0
ARC
  5
5A49D
330
A
100
AcDbEntity
  8
レイヤー 1
 62
     7
370
    50
100
AcDbCircle
 10
2854.117119620191
 20
666.7303782494565
 30
0.0
 40
5.996004329005005
100
AcDbArc
 50
269.9968253551486
 51
292.638960146569
  0
ARC
  5
5A49E
330
A
100
AcDbEntity
  8
レイヤー 1
 62
     7
370
    50
100
AcDbCircle
 10
2854.117119620191
 20
666.7303782494529
 30
0.0
 40
5.996004329001483
100
AcDbArc
 50
265.2134310022294
 51
269.9968253551486
  0
ARC
  5
5A49F
330
A
100
AcDbEntity
  8
レイヤー 1
 62
     7
370
    50
100
AcDbCircle
 10
2854.117119620193
 20
666.7303782494532
 30
0.0
 40
5.996004329002218
100
AcDbArc
 50
247.3610394296379
 51
265.213431002125
  0
LINE
  5
5A4A0
330
A
100
AcDbEntity
  8
レイヤー 1
 62
     7
370
    50
100
AcDbLine
 10
2854.611502300874
 20
728.6277567886421
 30
0.0
 11
2856.867780928888
 21
728.6277567886421
 31
0.0
  0
LINE
  5
5A4A1
330
A
100
AcDbEntity
  8
レイヤー 1
 62
     7
370
    50
100
AcDbLine
 10
2854.611576056884
 20
660.6277567886413
 30
0.0
 11
2856.867854684898
 21
660.6277567886417
 31
0.0
  0
LINE
  5
5A4A2
330
A
100
AcDbEntity
  8
レイヤー 1
 62
     7
370
    50
100
AcDbLine
 10
2851.367019411858
 20
660.6277974830044
 30
0.0
 11
2851.36790580707
 21
728.6277974759019
 31
0.0
  0
LINE
  5
5A4A3
330
A
100
AcDbEntity
  8
レイヤー 1
 62
     7
370
    50
100
AcDbLine
 10
2853.624184434834
 20
728.6277640926731
 30
0.0
 11
2851.36790580707
 21
728.6277974759019
 31
0.0
  0
LINE
  5
5A4A4
330
A
100
AcDbEntity
  8
レイヤー 1
 62
     7
370
    50
100
AcDbLine
 10
2853.623298039627
 20
660.6277640997753
 30
0.0
 11
2851.367019411858
 21
660.6277974830044
 31
0.0
  0
LINE
  5
5A4A6
330
A
100
AcDbEntity
  8
レイヤー 1
 62
     7
100
AcDbLine
 10
2851.374140252233
 20
728.1866439884121
 30
0.0
 11
2856.86778140734
 21
728.1866439680928
 31
0.0
  0
LINE
  5
5A4A7
330
A
100
AcDbEntity
  8
レイヤー 1
 62
     7
100
AcDbLine
 10
2851.374140193054
 20
712.1866439884121
 30
0.0
 11
2856.867781348161
 21
712.1866439680927
 31
0.0
  0
LINE
  5
5A4A8
330
A
100
AcDbEntity
  8
レイヤー 1
 62
     7
100
AcDbLine
 10
2851.374140130177
 20
695.1866439884121
 30
0.0
 11
2856.867781285283
 21
695.1866439680927
 31
0.0
  0
LINE
  5
5A4A9
330
A
100
AcDbEntity
  8
レイヤー 1
 62
     7
100
AcDbLine
 10
2851.3741400673
 20
678.1866439884121
 30
0.0
 11
2856.867781222406
 21
678.1866439680928
 31
0.0
  0
LINE
  5
5A4AA
330
A
100
AcDbEntity
  8
レイヤー 1
 62
     7
100
AcDbLine
 10
2851.37414000812
 20
661.1963739322351
 30
0.0
 11
2856.867781163227
 21
661.1963739119155
 31
0.0
  0
LINE
  5
5A4AB
330
A
100
AcDbEntity
  8
レイヤー 1
 62
     7
370
    50
100
AcDbLine
 10
2851.367648590982
 20
728.1866439884347
 30
0.0
 11
2856.867768438771
 21
728.1866439680928
 31
0.0
  0
LINE
  5
5A4AC
330
A
100
AcDbEntity
  8
レイヤー 1
 62
     7
370
    50
100
AcDbLine
 10
2851.367648531804
 20
712.1866439884349
 30
0.0
 11
2856.867768379591
 21
712.1866439680927
 31
0.0
  0
LINE
  5
5A4AD
330
A
100
AcDbEntity
  8
レイヤー 1
 62
     7
370
    50
100
AcDbLine
 10
2851.367648468926
 20
695.1866439884347
 30
0.0
 11
2856.867768316714
 21
695.1866439680927
 31
0.0
  0
LINE
  5
5A4AE
330
A
100
AcDbEntity
  8
レイヤー 1
 62
     7
370
    50
100
AcDbLine
 10
2851.367648406048
 20
678.1866439884347
 30
0.0
 11
2856.867768253836
 21
678.1866439680928
 31
0.0
  0
LINE
  5
5A4AF
330
A
100
AcDbEntity
  8
レイヤー 1
 62
     7
370
    50
100
AcDbLine
 10
2851.367648346871
 20
661.1963739322577
 30
0.0
 11
2856.867768194657
 21
661.1963739119155
 31
0.0
  0
LINE
  5
5A4B0
330
A
100
AcDbEntity
  8
レイヤー 1
 62
     7
 48
5.0
370
    50
100
AcDbLine
 10
3151.364035633974
 20
620.6277547157773
 30
0.0
 11
3151.363961877964
 21
688.6277547157777
 31
0.0
  0
LINE
  5
5A4B1
330
A
100
AcDbEntity
  8
レイヤー 1
 62
     7
 48
5.0
370
    50
100
AcDbLine
 10
3150.364035017224
 20
621.1963718427495
 30
0.0
 11
3150.363962356414
 21
688.1866418989273
 31
0.0
  0
LWPOLYLINE
  5
5A4B2
330
A
100
AcDbEntity
  8
レイヤー 1
  6
Hidden
 62
     7
370
    30
100
AcDbPolyline
 90
        4
 70
     0
 43
0.0
 10
3145.873171650458
 20
621.1963718593599
 10
3145.870321016376
 20
638.1866419155477
 10
3145.870321201309
 20
688.1866419155477
 10
3148.120362120569
 20
688.1866419072256
  0
LWPOLYLINE
  5
5A4B3
330
A
100
AcDbEntity
  8
レイヤー 1
 62
     7
370
    50
100
AcDbPolyline
 90
        4
 70
     0
 43
0.0
 10
3148.620362120583
 20
688.1866419053761
 10
3151.370321201309
 20
688.1866418952049
 10
3151.370321016376
 20
638.1866418952049
 10
3151.363949143733
 20
621.1963718390513
  0
ARC
  5
5A4B4
330
A
100
AcDbEntity
  8
レイヤー 1
  6
Hidden
 62
     7
370
    30
100
AcDbCircle
 10
3148.620321180839
 20
682.6526375763833
 30
0.0
 40
5.996004328992998
100
AcDbArc
 50
94.782960867508
 51
112.6389601465689
  0
ARC
  5
5A4B5
330
A
100
AcDbEntity
  8
レイヤー 1
 62
     7
370
    50
100
AcDbCircle
 10
3148.620321180841
 20
682.652637576375
 30
0.0
 40
5.996004329001525
100
AcDbArc
 50
90.00042387516577
 51
94.782960867508
  0
ARC
  5
5A4B6
330
A
100
AcDbEntity
  8
レイヤー 1
 62
     7
370
    50
100
AcDbCircle
 10
3148.62032118084
 20
682.6526375763725
 30
0.0
 40
5.996004329004027
100
AcDbArc
 50
67.36103942963797
 51
89.99957613431829
  0
ARC
  5
5A4B7
330
A
100
AcDbEntity
  8
レイヤー 1
 62
     7
370
    50
100
AcDbCircle
 10
3148.613300569266
 20
626.7303761765921
 30
0.0
 40
5.996004329005005
100
AcDbArc
 50
269.9968253551486
 51
292.638960146569
  0
ARC
  5
5A4B8
330
A
100
AcDbEntity
  8
レイヤー 1
 62
     7
370
    50
100
AcDbCircle
 10
3148.613300569266
 20
626.7303761765885
 30
0.0
 40
5.996004329001483
100
AcDbArc
 50
265.2134310022294
 51
269.9968253551486
  0
ARC
  5
5A4B9
330
A
100
AcDbEntity
  8
レイヤー 1
  6
Hidden
 62
     7
370
    30
100
AcDbCircle
 10
3148.613300569268
 20
626.7303761765889
 30
0.0
 40
5.996004329002218
100
AcDbArc
 50
247.361039429638
 51
265.213431002125
  0
LINE
  5
5A4BA
330
A
100
AcDbEntity
  8
レイヤー 1
 62
     7
370
    50
100
AcDbLine
 10
3149.107683249949
 20
688.6277547157777
 30
0.0
 11
3151.363961877964
 21
688.6277547157777
 31
0.0
  0
LINE
  5
5A4BB
330
A
100
AcDbEntity
  8
レイヤー 1
 62
     7
370
    50
100
AcDbLine
 10
3149.107757005959
 20
620.6277547157769
 30
0.0
 11
3151.364035633974
 21
620.6277547157773
 31
0.0
  0
LINE
  5
5A4BC
330
A
100
AcDbEntity
  8
レイヤー 1
 62
     7
370
    50
100
AcDbLine
 10
3145.863200360934
 20
620.62779541014
 30
0.0
 11
3145.864086756144
 21
688.6277954030376
 31
0.0
  0
LINE
  5
5A4BD
330
A
100
AcDbEntity
  8
レイヤー 1
 62
     7
370
    50
100
AcDbLine
 10
3146.863200360849
 20
621.1963718556984
 30
0.0
 11
3146.864080957207
 21
688.1866419118709
 31
0.0
  0
LINE
  5
5A4BE
330
A
100
AcDbEntity
  8
レイヤー 1
 62
     7
370
    50
100
AcDbLine
 10
3148.12036538391
 20
688.6277620198087
 30
0.0
 11
3145.864086756144
 21
688.6277954030376
 31
0.0
  0
LINE
  5
5A4BF
330
A
100
AcDbEntity
  8
レイヤー 1
 62
     7
370
    50
100
AcDbLine
 10
3148.119478988702
 20
620.6277620269109
 30
0.0
 11
3145.863200360934
 21
620.62779541014
 31
0.0
  0
LINE
  5
5A4C0
330
A
100
AcDbEntity
  8
レイヤー 1
 62
     7
100
AcDbLine
 10
3145.870321201309
 20
688.1866419155477
 30
0.0
 11
3151.363962356415
 21
688.1866418952284
 31
0.0
  0
LINE
  5
5A4C1
330
A
100
AcDbEntity
  8
レイヤー 1
 62
     7
100
AcDbLine
 10
3146.863870634996
 20
672.1866419118728
 30
0.0
 11
3150.36397971077
 21
672.1866418989272
 31
0.0
  0
LINE
  5
5A4C2
330
A
100
AcDbEntity
  8
レイヤー 1
 62
     7
100
AcDbLine
 10
3146.863647167647
 20
655.1866419118736
 30
0.0
 11
3150.363998149772
 21
655.1866418989267
 31
0.0
  0
LINE
  5
5A4C3
330
A
100
AcDbEntity
  8
レイヤー 1
 62
     7
100
AcDbLine
 10
3145.873171650458
 20
621.1963718593599
 30
0.0
 11
3151.366812805565
 21
621.1963718390408
 31
0.0
  0
LINE
  5
5A4C4
330
A
100
AcDbEntity
  8
レイヤー 1
 62
     7
100
AcDbLine
 10
3145.870320957196
 20
621.1963718593707
 30
0.0
 11
3151.363962112303
 21
621.1963718390513
 31
0.0
  0
LINE
  5
5A4C5
330
A
100
AcDbEntity
  8
レイヤー 1
 62
     7
370
    50
100
AcDbLine
 10
3145.863829540058
 20
688.1866419155705
 30
0.0
 11
3151.363949387846
 21
688.1866418952284
 31
0.0
  0
LINE
  5
5A4C6
330
A
100
AcDbEntity
  8
レイヤー 1
 62
     7
370
    50
100
AcDbLine
 10
3146.863870634996
 20
672.1866419118716
 30
0.0
 11
3150.36397971077
 21
672.1866418989267
 31
0.0
  0
LINE
  5
5A4C7
330
A
100
AcDbEntity
  8
レイヤー 1
 62
     7
370
    50
100
AcDbLine
 10
3146.863647167647
 20
655.1866419118725
 30
0.0
 11
3150.363998149773
 21
655.1866418989268
 31
0.0
  0
LINE
  5
5A4C8
330
A
100
AcDbEntity
  8
レイヤー 1
 62
     7
370
    50
100
AcDbLine
 10
3146.863423700297
 20
638.1866419118733
 30
0.0
 11
3150.364016588774
 21
638.1866418989267
 31
0.0
  0
LINE
  5
5A4C9
330
A
100
AcDbEntity
  8
レイヤー 1
 62
     7
370
    50
100
AcDbLine
 10
3145.863829295945
 20
621.1963718593935
 30
0.0
 11
3151.363949143733
 21
621.1963718390513
 31
0.0
  0
LINE
  5
5A4CA
330
A
100
AcDbEntity
  8
レイヤー 1
  6
Hidden
 62
     7
 48
5.0
370
    30
100
AcDbLine
 10
3445.867911087066
 20
660.6277526428584
 30
0.0
 11
3445.867837331056
 21
728.627752642859
 31
0.0
  0
LWPOLYLINE
  5
5A4CB
330
A
100
AcDbEntity
  8
レイヤー 1
  6
Hidden
 62
     7
370
    30
100
AcDbPolyline
 90
        4
 70
     0
 43
0.0
 10
3441.367075813941
 20
661.1963697827786
 10
3440.374196410289
 20
661.196369786452
 10
3440.374196654401
 20
728.1866398426289
 10
3442.62423757366
 20
728.1866398343069
  0
LWPOLYLINE
  5
5A4CC
330
A
100
AcDbEntity
  8
レイヤー 1
  6
Hidden
 62
     7
 48
5.0
370
    30
100
AcDbPolyline
 90
        4
 70
     0
 43
0.0
 10
3443.124237573675
 20
728.1866398324574
 10
3445.874196654401
 20
728.1866398222862
 10
3445.874196469468
 20
661.1963697661325
 10
3443.605540518581
 20
661.1963697745001
  0
ARC
  5
5A4CD
330
A
100
AcDbEntity
  8
レイヤー 1
 62
     7
370
    50
100
AcDbCircle
 10
3443.124196633931
 20
722.6526355034646
 30
0.0
 40
5.996004328992998
100
AcDbArc
 50
94.782960867508
 51
112.638960146569
  0
ARC
  5
5A4CE
330
A
100
AcDbEntity
  8
レイヤー 1
 62
     7
370
    50
100
AcDbCircle
 10
3443.124196633933
 20
722.6526355034563
 30
0.0
 40
5.996004329001525
100
AcDbArc
 50
90.00042387516577
 51
94.782960867508
  0
ARC
  5
5A4CF
330
A
100
AcDbEntity
  8
レイヤー 1
 62
     7
370
    50
100
AcDbCircle
 10
3443.124196633931
 20
722.6526355034536
 30
0.0
 40
5.996004329004027
100
AcDbArc
 50
67.36103942963794
 51
89.99957613431829
  0
ARC
  5
5A4D0
330
A
100
AcDbEntity
  8
レイヤー 1
 62
     7
370
    50
100
AcDbCircle
 10
3443.117176022359
 20
666.7303741036732
 30
0.0
 40
5.996004329005005
100
AcDbArc
 50
269.9968253551486
 51
292.638960146569
  0
ARC
  5
5A4D1
330
A
100
AcDbEntity
  8
レイヤー 1
 62
     7
370
    50
100
AcDbCircle
 10
3443.117176022359
 20
666.7303741036697
 30
0.0
 40
5.996004329001483
100
AcDbArc
 50
265.2134310022294
 51
269.9968253551486
  0
ARC
  5
5A4D2
330
A
100
AcDbEntity
  8
レイヤー 1
 62
     7
370
    50
100
AcDbCircle
 10
3443.117176022362
 20
666.7303741036703
 30
0.0
 40
5.996004329002218
100
AcDbArc
 50
247.3610394296379
 51
265.213431002125
  0
LINE
  5
5A4D4
330
A
100
AcDbEntity
  8
レイヤー 1
  6
Hidden
 62
     7
370
    30
100
AcDbLine
 10
3443.611632459051
 20
660.6277526428582
 30
0.0
 11
3445.867911087066
 21
660.6277526428584
 31
0.0
  0
LINE
  5
5A4D5
330
A
100
AcDbEntity
  8
レイヤー 1
 62
     7
370
    50
100
AcDbLine
 10
3440.367075814026
 20
660.6277933372211
 30
0.0
 11
3440.367962209236
 21
728.6277933301187
 31
0.0
  0
LINE
  5
5A4D6
330
A
100
AcDbEntity
  8
レイヤー 1
 62
     7
370
    50
100
AcDbLine
 10
3442.624240837002
 20
728.6277599468901
 30
0.0
 11
3440.367962209236
 21
728.6277933301187
 31
0.0
  0
LINE
  5
5A4D7
330
A
100
AcDbEntity
  8
レイヤー 1
 62
     7
370
    50
100
AcDbLine
 10
3442.623354441794
 20
660.6277599539922
 30
0.0
 11
3440.367075814026
 21
660.6277933372211
 31
0.0
  0
LINE
  5
5A4D9
330
A
100
AcDbEntity
  8
レイヤー 1
 62
     7
100
AcDbLine
 10
3440.374196654401
 20
728.1866398426289
 30
0.0
 11
3445.867837809507
 21
728.1866398223098
 31
0.0
  0
LINE
  5
5A4DB
330
A
100
AcDbEntity
  8
レイヤー 1
 62
     7
100
AcDbLine
 10
3440.374196532344
 20
695.1866398426289
 30
0.0
 11
3443.605289063614
 21
695.1866398306782
 31
0.0
  0
LINE
  5
5A4DD
330
A
100
AcDbEntity
  8
レイヤー 1
 62
     7
100
AcDbLine
 10
3440.374196410289
 20
661.196369786452
 30
0.0
 11
3445.867837565395
 21
661.1963697661325
 31
0.0
  0
LINE
  5
5A4DE
330
A
100
AcDbEntity
  8
レイヤー 1
 62
     7
370
    50
100
AcDbLine
 10
3440.36770499315
 20
728.1866398426518
 30
0.0
 11
3445.867824840938
 21
728.1866398223098
 31
0.0
  0
LINE
  5
5A4DF
330
A
100
AcDbEntity
  8
レイヤー 1
 62
     7
370
    50
100
AcDbLine
 10
3441.367746088087
 20
712.1866398389529
 30
0.0
 11
3443.605163300138
 21
712.1866398306779
 31
0.0
  0
LINE
  5
5A4E0
330
A
100
AcDbEntity
  8
レイヤー 1
 62
     7
370
    50
100
AcDbLine
 10
3441.367522620738
 20
695.1866398389539
 30
0.0
 11
3443.636669979048
 21
695.1866398305615
 31
0.0
  0
LINE
  5
5A4E1
330
A
100
AcDbEntity
  8
レイヤー 1
 62
     7
370
    50
100
AcDbLine
 10
3441.367299153388
 20
678.1866398389546
 30
0.0
 11
3443.605414827087
 21
678.1866398306771
 31
0.0
  0
LINE
  5
5A4E2
330
A
100
AcDbEntity
  8
レイヤー 1
 62
     7
370
    50
100
AcDbLine
 10
3440.367704749038
 20
661.1963697864747
 30
0.0
 11
3445.867824596825
 21
661.1963697661325
 31
0.0
  0
LINE
  5
5A4E3
330
A
100
AcDbEntity
  8
レイヤー 1
 62
     7
 48
5.0
370
    50
100
AcDbLine
 10
2856.867854585429
 20
81.62711720965365
 30
0.0
 11
2856.867780805973
 21
13.62711720965319
 31
0.0
  0
LWPOLYLINE
  5
5A4E4
330
A
100
AcDbEntity
  8
レイヤー 1
  6
Hidden
 62
     7
370
    30
100
AcDbPolyline
 90
        4
 70
     0
 43
0.0
 10
2853.623811173399
 20
64.06823001932242
 10
2851.374139961776
 20
64.06823001177724
 10
2851.37414012947
 20
14.06823001177724
 10
2853.62418104873
 20
14.06823001932355
  0
LWPOLYLINE
  5
5A4E5
330
A
100
AcDbEntity
  8
レイヤー 1
 62
     7
370
    50
100
AcDbPolyline
 90
        4
 70
     0
 43
0.0
 10
2854.124181048744
 20
14.06823002100066
 10
2856.87414012947
 20
14.06823003022362
 10
2856.874139961776
 20
64.06823003022362
 10
2854.123811173412
 20
64.06823002099952
  0
ARC
  5
5A4E6
330
A
100
AcDbEntity
  8
レイヤー 1
  6
Hidden
 62
     7
370
    30
100
AcDbCircle
 10
2854.124140110909
 20
19.60223434999341
 30
0.0
 40
5.996004328992998
100
AcDbArc
 50
247.3610398336717
 51
265.2170391127256
  0
ARC
  5
5A4E7
330
A
100
AcDbEntity
  8
レイヤー 1
 62
     7
370
    50
100
AcDbCircle
 10
2854.12414011091
 20
19.60223435000182
 30
0.0
 40
5.996004329001525
100
AcDbArc
 50
265.2170391127256
 51
269.9995761050845
  0
ARC
  5
5A4E8
330
A
100
AcDbEntity
  8
レイヤー 1
 62
     7
370
    50
100
AcDbCircle
 10
2854.12414011091
 20
19.60223435000432
 30
0.0
 40
5.996004329004027
100
AcDbArc
 50
270.000423845932
 51
292.6389605506015
  0
ARC
  5
5A4E9
330
A
100
AcDbEntity
  8
レイヤー 1
 62
     7
370
    50
100
AcDbCircle
 10
2854.117119518617
 20
75.5244957497872
 30
0.0
 40
5.996004329005005
100
AcDbArc
 50
67.36103983367172
 51
90.00317462510158
  0
ARC
  5
5A4EA
330
A
100
AcDbEntity
  8
レイヤー 1
 62
     7
370
    50
100
AcDbCircle
 10
2854.117119518617
 20
75.52449574979084
 30
0.0
 40
5.996004329001483
100
AcDbArc
 50
90.00317462510158
 51
94.78656897800378
  0
ARC
  5
5A4EB
330
A
100
AcDbEntity
  8
レイヤー 1
  6
Hidden
 62
     7
370
    30
100
AcDbCircle
 10
2854.117119518619
 20
75.52449574979039
 30
0.0
 40
5.996004329002218
100
AcDbArc
 50
94.78656897810845
 51
112.6389605506015
  0
LINE
  5
5A4EC
330
A
100
AcDbEntity
  8
レイヤー 1
 62
     7
370
    50
100
AcDbLine
 10
2854.611502177959
 20
13.62711721043104
 30
0.0
 11
2856.867780805973
 21
13.62711720965319
 31
0.0
  0
LINE
  5
5A4ED
330
A
100
AcDbEntity
  8
レイヤー 1
 62
     7
370
    50
100
AcDbLine
 10
2854.611575957414
 20
81.62711721043171
 30
0.0
 11
2856.867854585429
 21
81.62711720965365
 31
0.0
  0
LINE
  5
5A4EE
330
A
100
AcDbEntity
  8
レイヤー 1
 62
     7
370
    50
100
AcDbLine
 10
2851.367019312389
 20
81.62707651718745
 30
0.0
 11
2851.367905684154
 21
13.62707652428969
 31
0.0
  0
LINE
  5
5A4EF
330
A
100
AcDbEntity
  8
レイヤー 1
 62
     7
370
    50
100
AcDbLine
 10
2853.624184311919
 20
13.62710990674043
 30
0.0
 11
2851.367905684154
 21
13.62707652428969
 31
0.0
  0
LINE
  5
5A4F2
330
A
100
AcDbEntity
  8
レイヤー 1
 62
     7
100
AcDbLine
 10
2851.37414012947
 20
14.06823001177724
 30
0.0
 11
2856.867781284576
 21
14.06823003020247
 31
0.0
  0
LINE
  5
5A4F3
330
A
100
AcDbEntity
  8
レイヤー 1
 62
     7
100
AcDbLine
 10
2851.374140075807
 20
30.06823001177725
 30
0.0
 11
2856.867781230914
 21
30.06823003020247
 31
0.0
  0
LINE
  5
5A4F4
330
A
100
AcDbEntity
  8
レイヤー 1
 62
     7
100
AcDbLine
 10
2851.374140018791
 20
47.06823001177723
 30
0.0
 11
2856.867781173898
 21
47.06823003020246
 31
0.0
  0
LINE
  5
5A4F5
330
A
100
AcDbEntity
  8
レイヤー 1
 62
     7
100
AcDbLine
 10
2851.374139961775
 20
64.06823001177724
 30
0.0
 11
2856.867781116882
 21
64.06823003020247
 31
0.0
  0
LINE
  5
5A4F6
330
A
100
AcDbEntity
  8
レイヤー 1
 62
     7
100
AcDbLine
 10
2851.374139908454
 20
81.05850006795424
 30
0.0
 11
2856.867781063561
 21
81.0585000863797
 31
0.0
  0
LINE
  5
5A4F7
330
A
100
AcDbEntity
  8
レイヤー 1
 62
     7
370
    50
100
AcDbLine
 10
2851.367648468219
 20
14.06823001175678
 30
0.0
 11
2856.867768316007
 21
14.06823003020247
 31
0.0
  0
LINE
  5
5A4F8
330
A
100
AcDbEntity
  8
レイヤー 1
 62
     7
370
    50
100
AcDbLine
 10
2851.367648414557
 20
30.06823001175678
 30
0.0
 11
2856.867768262345
 21
30.06823003020247
 31
0.0
  0
LINE
  5
5A4F9
330
A
100
AcDbEntity
  8
レイヤー 1
 62
     7
370
    50
100
AcDbLine
 10
2851.367648357541
 20
47.06823001175678
 30
0.0
 11
2856.867768205328
 21
47.06823003020246
 31
0.0
  0
LINE
  5
5A4FA
330
A
100
AcDbEntity
  8
レイヤー 1
 62
     7
370
    50
100
AcDbLine
 10
2851.367648300525
 20
64.06823001175678
 30
0.0
 11
2856.867768148312
 21
64.06823003020247
 31
0.0
  0
LINE
  5
5A4FB
330
A
100
AcDbEntity
  8
レイヤー 1
 62
     7
370
    50
100
AcDbLine
 10
2851.367648247204
 20
81.05850006793378
 30
0.0
 11
2856.867768094991
 21
81.0585000863797
 31
0.0
  0
LINE
  5
5A4FC
330
A
100
AcDbEntity
  8
レイヤー 1
 62
     7
 48
5.0
370
    50
100
AcDbLine
 10
3151.364035534503
 20
121.6271191809809
 30
0.0
 11
3151.363961755049
 21
53.62711918098046
 31
0.0
  0
LINE
  5
5A4FD
330
A
100
AcDbEntity
  8
レイヤー 1
 62
     7
 48
5.0
370
    50
100
AcDbLine
 10
3150.364034917558
 20
121.0585020543534
 30
0.0
 11
3150.363962233651
 21
54.06823199817575
 31
0.0
  0
LWPOLYLINE
  5
5A4FE
330
A
100
AcDbEntity
  8
レイヤー 1
  6
Hidden
 62
     7
370
    30
100
AcDbPolyline
 90
        4
 70
     0
 43
0.0
 10
3145.873171550793
 20
121.0585020392913
 10
3145.870320910852
 20
104.0682319831045
 10
3145.870321078545
 20
54.0682319831045
 10
3148.120361997805
 20
54.06823199065105
  0
LWPOLYLINE
  5
5A4FF
330
A
100
AcDbEntity
  8
レイヤー 1
 62
     7
370
    50
100
AcDbPolyline
 90
        4
 70
     0
 43
0.0
 10
3148.62036199782
 20
54.06823199232793
 10
3151.370321078545
 20
54.06823200155088
 10
3151.370320910852
 20
104.0682320015509
 10
3151.363949044068
 20
121.0585020577069
  0
ARC
  5
5A500
330
A
100
AcDbEntity
  8
レイヤー 1
  6
Hidden
 62
     7
370
    30
100
AcDbCircle
 10
3148.620321059985
 20
59.60223632132066
 30
0.0
 40
5.996004328992998
100
AcDbArc
 50
247.3610398336717
 51
265.2170391127256
  0
ARC
  5
5A501
330
A
100
AcDbEntity
  8
レイヤー 1
 62
     7
370
    50
100
AcDbCircle
 10
3148.620321059986
 20
59.60223632132908
 30
0.0
 40
5.996004329001525
100
AcDbArc
 50
265.2170391127256
 51
269.9995761050845
  0
ARC
  5
5A502
330
A
100
AcDbEntity
  8
レイヤー 1
 62
     7
370
    50
100
AcDbCircle
 10
3148.620321059985
 20
59.6022363213316
 30
0.0
 40
5.996004329004027
100
AcDbArc
 50
270.000423845932
 51
292.6389605506015
  0
ARC
  5
5A503
330
A
100
AcDbEntity
  8
レイヤー 1
 62
     7
370
    50
100
AcDbCircle
 10
3148.613300467693
 20
115.5244977211145
 30
0.0
 40
5.996004329005005
100
AcDbArc
 50
67.36103983367168
 51
90.00317462510158
  0
ARC
  5
5A504
330
A
100
AcDbEntity
  8
レイヤー 1
 62
     7
370
    50
100
AcDbCircle
 10
3148.613300467693
 20
115.5244977211181
 30
0.0
 40
5.996004329001483
100
AcDbArc
 50
90.00317462510158
 51
94.78656897800382
  0
ARC
  5
5A505
330
A
100
AcDbEntity
  8
レイヤー 1
  6
Hidden
 62
     7
370
    30
100
AcDbCircle
 10
3148.613300467694
 20
115.5244977211176
 30
0.0
 40
5.996004329002218
100
AcDbArc
 50
94.78656897810841
 51
112.6389605506015
  0
LINE
  5
5A506
330
A
100
AcDbEntity
  8
レイヤー 1
 62
     7
370
    50
100
AcDbLine
 10
3149.107683127035
 20
53.62711918175829
 30
0.0
 11
3151.363961755049
 21
53.62711918098046
 31
0.0
  0
LINE
  5
5A507
330
A
100
AcDbEntity
  8
レイヤー 1
 62
     7
370
    50
100
AcDbLine
 10
3149.107756906489
 20
121.627119181759
 30
0.0
 11
3151.364035534503
 21
121.6271191809809
 31
0.0
  0
LINE
  5
5A508
330
A
100
AcDbEntity
  8
レイヤー 1
 62
     7
370
    50
100
AcDbLine
 10
3145.863200261465
 20
121.6270784885147
 30
0.0
 11
3145.864086633229
 21
53.62707849561695
 31
0.0
  0
LINE
  5
5A509
330
A
100
AcDbEntity
  8
レイヤー 1
 62
     7
370
    50
100
AcDbLine
 10
3146.863200261183
 20
121.0585020426116
 30
0.0
 11
3146.864080834444
 21
54.06823198643873
 31
0.0
  0
LINE
  5
5A50A
330
A
100
AcDbEntity
  8
レイヤー 1
 62
     7
370
    50
100
AcDbLine
 10
3148.120365260995
 20
53.62711187806792
 30
0.0
 11
3145.864086633229
 21
53.62707849561695
 31
0.0
  0
LINE
  5
5A50B
330
A
100
AcDbEntity
  8
レイヤー 1
 62
     7
370
    50
100
AcDbLine
 10
3148.119478889232
 20
121.6271118709659
 30
0.0
 11
3145.863200261465
 21
121.6270784885147
 31
0.0
  0
LINE
  5
5A50C
330
A
100
AcDbEntity
  8
レイヤー 1
 62
     7
100
AcDbLine
 10
3145.870321078545
 20
54.0682319831045
 30
0.0
 11
3151.363962233653
 21
54.06823200152974
 31
0.0
  0
LINE
  5
5A50D
330
A
100
AcDbEntity
  8
レイヤー 1
 62
     7
100
AcDbLine
 10
3146.863870517749
 20
70.0682319864369
 30
0.0
 11
3150.363979593523
 21
70.06823199817574
 31
0.0
  0
LINE
  5
5A50E
330
A
100
AcDbEntity
  8
レイヤー 1
 62
     7
100
AcDbLine
 10
3146.863647056261
 20
87.06823198643622
 30
0.0
 11
3150.363998038387
 21
87.06823199817621
 31
0.0
  0
LINE
  5
5A50F
330
A
100
AcDbEntity
  8
レイヤー 1
 62
     7
100
AcDbLine
 10
3145.873171550793
 20
121.0585020392913
 30
0.0
 11
3151.366812705899
 21
121.0585020577165
 31
0.0
  0
LINE
  5
5A510
330
A
100
AcDbEntity
  8
レイヤー 1
 62
     7
100
AcDbLine
 10
3145.87032085753
 20
121.0585020392815
 30
0.0
 11
3151.363962012637
 21
121.0585020577069
 31
0.0
  0
LINE
  5
5A511
330
A
100
AcDbEntity
  8
レイヤー 1
 62
     7
370
    50
100
AcDbLine
 10
3145.863829417296
 20
54.06823198308405
 30
0.0
 11
3151.363949265083
 21
54.06823200152974
 31
0.0
  0
LINE
  5
5A512
330
A
100
AcDbEntity
  8
レイヤー 1
 62
     7
370
    50
100
AcDbLine
 10
3146.863870517749
 20
70.06823198643804
 30
0.0
 11
3150.363979593523
 21
70.0682319981762
 31
0.0
  0
LINE
  5
5A513
330
A
100
AcDbEntity
  8
レイヤー 1
 62
     7
370
    50
100
AcDbLine
 10
3146.863647056262
 20
87.06823198643713
 30
0.0
 11
3150.363998038387
 21
87.06823199817597
 31
0.0
  0
LINE
  5
5A514
330
A
100
AcDbEntity
  8
レイヤー 1
 62
     7
370
    50
100
AcDbLine
 10
3146.863423594773
 20
104.0682319864366
 30
0.0
 11
3150.364016483251
 21
104.0682319981762
 31
0.0
  0
LINE
  5
5A515
330
A
100
AcDbEntity
  8
レイヤー 1
 62
     7
370
    50
100
AcDbLine
 10
3145.86382919628
 20
121.058502039261
 30
0.0
 11
3151.363949044068
 21
121.0585020577069
 31
0.0
  0
LINE
  5
5A516
330
A
100
AcDbEntity
  8
レイヤー 1
 62
     7
 48
5.0
370
    50
100
AcDbLine
 10
3445.867910987596
 20
81.62712115235981
 30
0.0
 11
3445.867837208139
 21
13.62712115235934
 31
0.0
  0
LWPOLYLINE
  5
5A517
330
A
100
AcDbEntity
  8
レイヤー 1
  6
Hidden
 62
     7
370
    30
100
AcDbPolyline
 90
        4
 70
     0
 43
0.0
 10
3442.623867575566
 20
64.06823396202856
 10
3440.374196363944
 20
64.06823395448362
 10
3440.374196531638
 20
14.06823395448362
 10
3442.624237450897
 20
14.06823396202992
  0
LWPOLYLINE
  5
5A518
330
A
100
AcDbEntity
  8
レイヤー 1
 62
     7
370
    50
100
AcDbPolyline
 90
        4
 70
     0
 43
0.0
 10
3443.124237450912
 20
14.06823396370703
 10
3445.874196531639
 20
14.06823397292999
 10
3445.874196363944
 20
64.06823397292999
 10
3443.12386757558
 20
64.06823396370565
  0
ARC
  5
5A519
330
A
100
AcDbEntity
  8
レイヤー 1
 62
     7
370
    50
100
AcDbCircle
 10
3443.124196513077
 20
19.60223829269978
 30
0.0
 40
5.996004328992998
100
AcDbArc
 50
247.3610398336717
 51
265.2170391127256
  0
ARC
  5
5A51A
330
A
100
AcDbEntity
  8
レイヤー 1
 62
     7
370
    50
100
AcDbCircle
 10
3443.124285229173
 20
19.60223829270814
 30
0.0
 40
5.996004329001525
100
AcDbArc
 50
265.2170391127256
 51
269.9995761050845
  0
ARC
  5
5A51B
330
A
100
AcDbEntity
  8
レイヤー 1
 62
     7
370
    50
100
AcDbCircle
 10
3443.124196513077
 20
19.60223829271069
 30
0.0
 40
5.996004329004027
100
AcDbArc
 50
270.000423845932
 51
292.6389605506015
  0
ARC
  5
5A51C
330
A
100
AcDbEntity
  8
レイヤー 1
 62
     7
370
    50
100
AcDbCircle
 10
3443.117175920785
 20
75.52449969249335
 30
0.0
 40
5.996004329005005
100
AcDbArc
 50
67.36103983367172
 51
90.00317462510158
  0
ARC
  5
5A51D
330
A
100
AcDbEntity
  8
レイヤー 1
 62
     7
370
    50
100
AcDbCircle
 10
3443.117175920785
 20
75.52449969249699
 30
0.0
 40
5.996004329001483
100
AcDbArc
 50
90.00317462510158
 51
94.78656897800378
  0
ARC
  5
5A51E
330
A
100
AcDbEntity
  8
レイヤー 1
 62
     7
370
    50
100
AcDbCircle
 10
3443.117175920786
 20
75.52449969249654
 30
0.0
 40
5.996004329002218
100
AcDbArc
 50
94.78656897810845
 51
112.6389605506015
  0
LINE
  5
5A51F
330
A
100
AcDbEntity
  8
レイヤー 1
 62
     7
370
    50
100
AcDbLine
 10
3443.611558580126
 20
13.62712115313741
 30
0.0
 11
3445.867837208139
 21
13.62712115235934
 31
0.0
  0
LINE
  5
5A520
330
A
100
AcDbEntity
  8
レイヤー 1
 62
     7
370
    50
100
AcDbLine
 10
3443.611632359582
 20
81.62712115313809
 30
0.0
 11
3445.867910987596
 21
81.62712115235981
 31
0.0
  0
LINE
  5
5A521
330
A
100
AcDbEntity
  8
レイヤー 1
 62
     7
370
    50
100
AcDbLine
 10
3440.367075714557
 20
81.62708045989381
 30
0.0
 11
3440.367962086322
 21
13.62708046699583
 31
0.0
  0
LINE
  5
5A522
330
A
100
AcDbEntity
  8
レイヤー 1
 62
     7
370
    50
100
AcDbLine
 10
3442.624240714087
 20
13.6271138494468
 30
0.0
 11
3440.367962086322
 21
13.62708046699583
 31
0.0
  0
LINE
  5
5A525
330
A
100
AcDbEntity
  8
レイヤー 1
 62
     7
100
AcDbLine
 10
3440.374196531638
 20
14.06823395448362
 30
0.0
 11
3445.867837686745
 21
14.0682339729086
 31
0.0
  0
LINE
  5
5A526
330
A
100
AcDbEntity
  8
レイヤー 1
 62
     7
100
AcDbLine
 10
3440.374196477975
 20
30.06823395448362
 30
0.0
 11
3445.867837633083
 21
30.06823397290862
 31
0.0
  0
LINE
  5
5A527
330
A
100
AcDbEntity
  8
レイヤー 1
 62
     7
100
AcDbLine
 10
3440.374196420959
 20
47.06823395448362
 30
0.0
 11
3445.867837576066
 21
47.0682339729086
 31
0.0
  0
LINE
  5
5A528
330
A
100
AcDbEntity
  8
レイヤー 1
 62
     7
100
AcDbLine
 10
3440.374196363943
 20
64.06823395448362
 30
0.0
 11
3445.867837519049
 21
64.06823397290861
 31
0.0
  0
LINE
  5
5A529
330
A
100
AcDbEntity
  8
レイヤー 1
 62
     7
100
AcDbLine
 10
3440.374196310622
 20
81.05850401066062
 30
0.0
 11
3445.867837465729
 21
81.05850402908584
 31
0.0
  0
LINE
  5
5A52A
330
A
100
AcDbEntity
  8
レイヤー 1
 62
     7
370
    50
100
AcDbLine
 10
3440.367704870387
 20
14.06823395446315
 30
0.0
 11
3445.867824718174
 21
14.0682339729086
 31
0.0
  0
LINE
  5
5A52B
330
A
100
AcDbEntity
  8
レイヤー 1
 62
     7
370
    50
100
AcDbLine
 10
3440.367704816725
 20
30.06823395446315
 30
0.0
 11
3445.867824664512
 21
30.06823397290862
 31
0.0
  0
LINE
  5
5A52C
330
A
100
AcDbEntity
  8
レイヤー 1
 62
     7
370
    50
100
AcDbLine
 10
3440.367704759708
 20
47.06823395446314
 30
0.0
 11
3445.867824607495
 21
47.0682339729086
 31
0.0
  0
LINE
  5
5A52D
330
A
100
AcDbEntity
  8
レイヤー 1
 62
     7
370
    50
100
AcDbLine
 10
3440.367704702693
 20
64.06823395446315
 30
0.0
 11
3445.867824550481
 21
64.06823397290861
 31
0.0
  0
LINE
  5
5A52E
330
A
100
AcDbEntity
  8
レイヤー 1
 62
     7
370
    50
100
AcDbLine
 10
3440.367704649372
 20
81.05850401064015
 30
0.0
 11
3445.86782449716
 21
81.05850402908584
 31
0.0
  0
LINE
  5
5A7E5
330
A
100
AcDbEntity
  8
レイヤー 1
  6
Continuous
 62
     7
 48
5.0
370
    50
100
AcDbLine
 10
3442.624240837003
 20
728.6277599468901
 30
0.0
 11
3442.611374647251
 21
738.6277526657802
 31
0.0
  0
LINE
  5
5A7E6
330
A
100
AcDbEntity
  8
レイヤー 1
  6
Hidden
 62
     7
370
    30
100
AcDbLine
 10
3444.605289063641
 20
695.1866398269792
 30
0.0
 11
3445.867824718881
 21
695.1866398223097
 31
0.0
  0
LINE
  5
5A7E7
330
A
100
AcDbEntity
  8
レイヤー 1
 62
     7
370
    50
100
AcDbLine
 10
3441.367075813941
 20
661.1963697827795
 30
0.0
 11
3441.367956410299
 21
728.1866398389521
 31
0.0
  0
LINE
  5
5A7EA
330
A
100
AcDbEntity
  8
レイヤー 1
  6
Hidden
 62
     7
370
    30
100
AcDbLine
 10
3444.605414827115
 20
678.1866398269787
 30
0.0
 11
3445.867824656004
 21
678.1866398223098
 31
0.0
  0
LINE
  5
5A7EB
330
A
100
AcDbEntity
  8
レイヤー 1
  6
Hidden
 62
     7
370
    30
100
AcDbLine
 10
3444.605289063641
 20
695.1866398269795
 30
0.0
 11
3445.86783768745
 21
695.1866398223097
 31
0.0
  0
LINE
  5
5A7EC
330
A
100
AcDbEntity
  8
レイヤー 1
  6
Hidden
 62
     7
370
    30
100
AcDbLine
 10
3444.605163300167
 20
712.1866398269796
 30
0.0
 11
3445.867824781759
 21
712.1866398223097
 31
0.0
  0
LINE
  5
5E6F3
330
A
100
AcDbEntity
  8
レイヤー 1
  6
Continuous
 62
     7
 48
5.0
370
    25
100
AcDbLine
 10
5045.554762649957
 20
115.9314922984236
 30
0.0
 11
5045.554762649957
 21
128.9314922984199
 31
0.0
  0
LINE
  5
5E6F4
330
A
100
AcDbEntity
  8
レイヤー 1
  6
Continuous
 62
     7
 48
5.0
370
    25
100
AcDbLine
 10
5043.454762649951
 20
117.4314922984199
 30
0.0
 11
5044.254762649955
 21
115.9314922984236
 31
0.0
  0
LINE
  5
5E6F5
330
A
100
AcDbEntity
  8
レイヤー 1
  6
Continuous
 62
     7
 48
5.0
370
    25
100
AcDbLine
 10
5043.454762649951
 20
127.4314922984199
 30
0.0
 11
5044.254762649955
 21
128.9314922984199
 31
0.0
  0
LINE
  5
5E6F6
330
A
100
AcDbEntity
  8
レイヤー 1
  6
Continuous
 62
     7
 48
5.0
370
    25
100
AcDbLine
 10
5044.754762649954
 20
128.9314922984199
 30
0.0
 11
5044.754762649954
 21
115.9314922984236
 31
0.0
  0
LINE
  5
5E6F7
330
A
100
AcDbEntity
  8
レイヤー 1
  6
Continuous
 62
     7
 48
5.0
370
    25
100
AcDbLine
 10
5044.254762649955
 20
128.9314922984199
 30
0.0
 11
5044.254762649955
 21
115.9314922984236
 31
0.0
  0
LINE
  5
5E6F8
330
A
100
AcDbEntity
  8
レイヤー 1
  6
Continuous
 62
     7
 48
5.0
370
    25
100
AcDbLine
 10
5043.454762649951
 20
127.4314922984199
 30
0.0
 11
5043.454762649951
 21
117.4314922984199
 31
0.0
  0
LINE
  5
5E741
330
A
100
AcDbEntity
  8
レイヤー 1
  6
Continuous
 62
     7
 48
5.0
370
    25
100
AcDbLine
 10
5044.254762649955
 20
115.9314922984236
 30
0.0
 11
5045.554762649957
 21
115.9314922984236
 31
0.0
  0
LINE
  5
5E742
330
A
100
AcDbEntity
  8
レイヤー 1
  6
Continuous
 62
     7
 48
5.0
370
    25
100
AcDbLine
 10
5044.254762649955
 20
128.9314922984199
 30
0.0
 11
5045.554762649957
 21
128.9314922984199
 31
0.0
  0
LINE
  5
5E748
330
A
100
AcDbEntity
  8
レイヤー 1
  6
Continuous
 62
     7
 48
5.0
370
    25
100
AcDbLine
 10
5045.554762649957
 20
112.9315922984247
 30
0.0
 11
5051.025762649955
 21
112.4314922984199
 31
0.0
  0
LINE
  5
5E749
330
A
100
AcDbEntity
  8
レイヤー 1
  6
Continuous
 62
     7
 48
5.0
370
    25
100
AcDbLine
 10
5045.554762649957
 20
112.9315922984247
 30
0.0
 11
5045.554762649957
 21
115.9314922984236
 31
0.0
  0
LINE
  5
5E74A
330
A
100
AcDbEntity
  8
レイヤー 1
  6
Continuous
 62
     7
 48
5.0
370
    25
100
AcDbLine
 10
5045.554762649957
 20
131.931592298421
 30
0.0
 11
5051.025762649955
 21
132.4314922984199
 31
0.0
  0
LINE
  5
5E74B
330
A
100
AcDbEntity
  8
レイヤー 1
  6
Continuous
 62
     7
 48
5.0
370
    25
100
AcDbLine
 10
5045.554762649957
 20
131.931592298421
 30
0.0
 11
5045.554762649957
 21
128.9314922984199
 31
0.0
  0
LINE
  5
5E764
330
A
100
AcDbEntity
  8
レイヤー 1
 62
     7
 48
5.0
370
    25
100
AcDbLine
 10
5051.025762649955
 20
132.4314922984199
 30
0.0
 11
5051.025762649955
 21
112.4314922984199
 31
0.0
  0
LINE
  5
5FEB2
330
A
100
AcDbEntity
  8
レイヤー 1
 62
     7
370
    25
100
AcDbLine
 10
4150.983449435479
 20
197.627432751844
 30
0.0
 11
4150.983449435479
 21
197.627432751844
 31
0.0
  0
LINE
  5
5FFC0
330
A
100
AcDbEntity
  8
レイヤー 1
  6
Continuous
 62
     7
 48
5.0
370
    25
100
AcDbLine
 10
4156.496638483124
 20
116.9314922984236
 30
0.0
 11
4156.496638483124
 21
129.9314922984199
 31
0.0
  0
LINE
  5
5FFC1
330
A
100
AcDbEntity
  8
レイヤー 1
  6
Continuous
 62
     7
 48
5.0
370
    25
100
AcDbLine
 10
4158.59663848313
 20
118.4314922984199
 30
0.0
 11
4157.796638483127
 21
116.9314922984236
 31
0.0
  0
LINE
  5
5FFC2
330
A
100
AcDbEntity
  8
レイヤー 1
  6
Continuous
 62
     7
 48
5.0
370
    25
100
AcDbLine
 10
4158.59663848313
 20
128.4314922984199
 30
0.0
 11
4157.796638483127
 21
129.9314922984199
 31
0.0
  0
LINE
  5
5FFC3
330
A
100
AcDbEntity
  8
レイヤー 1
  6
Continuous
 62
     7
 48
5.0
370
    25
100
AcDbLine
 10
4157.296638483127
 20
129.9314922984199
 30
0.0
 11
4157.296638483127
 21
116.9314922984236
 31
0.0
  0
LINE
  5
5FFC4
330
A
100
AcDbEntity
  8
レイヤー 1
  6
Continuous
 62
     7
 48
5.0
370
    25
100
AcDbLine
 10
4157.796638483127
 20
129.9314922984199
 30
0.0
 11
4157.796638483127
 21
116.9314922984236
 31
0.0
  0
LINE
  5
5FFC5
330
A
100
AcDbEntity
  8
レイヤー 1
  6
Continuous
 62
     7
 48
5.0
370
    25
100
AcDbLine
 10
4158.59663848313
 20
128.4314922984199
 30
0.0
 11
4158.59663848313
 21
118.4314922984199
 31
0.0
  0
LINE
  5
6000E
330
A
100
AcDbEntity
  8
レイヤー 1
  6
Continuous
 62
     7
 48
5.0
370
    25
100
AcDbLine
 10
4157.796638483127
 20
116.9314922984236
 30
0.0
 11
4156.496638483124
 21
116.9314922984236
 31
0.0
  0
LINE
  5
6000F
330
A
100
AcDbEntity
  8
レイヤー 1
  6
Continuous
 62
     7
 48
5.0
370
    25
100
AcDbLine
 10
4157.796638483127
 20
129.9314922984199
 30
0.0
 11
4156.496638483124
 21
129.9314922984199
 31
0.0
  0
LINE
  5
60015
330
A
100
AcDbEntity
  8
レイヤー 1
  6
Continuous
 62
     7
 48
5.0
370
    25
100
AcDbLine
 10
4156.496638483124
 20
113.9315922984247
 30
0.0
 11
4151.025638483126
 21
113.4314922984199
 31
0.0
  0
LINE
  5
60016
330
A
100
AcDbEntity
  8
レイヤー 1
  6
Continuous
 62
     7
 48
5.0
370
    25
100
AcDbLine
 10
4156.496638483124
 20
113.9315922984247
 30
0.0
 11
4156.496638483124
 21
116.9314922984236
 31
0.0
  0
LINE
  5
60017
330
A
100
AcDbEntity
  8
レイヤー 1
  6
Continuous
 62
     7
 48
5.0
370
    25
100
AcDbLine
 10
4156.496638483124
 20
132.931592298421
 30
0.0
 11
4151.025638483126
 21
133.4314922984199
 31
0.0
  0
LINE
  5
60018
330
A
100
AcDbEntity
  8
レイヤー 1
  6
Continuous
 62
     7
 48
5.0
370
    25
100
AcDbLine
 10
4156.496638483124
 20
132.931592298421
 30
0.0
 11
4156.496638483124
 21
129.9314922984199
 31
0.0
  0
LINE
  5
60031
330
A
100
AcDbEntity
  8
レイヤー 1
 62
     7
 48
5.0
370
    25
100
AcDbLine
 10
4151.025638483126
 20
133.4314922984199
 30
0.0
 11
4151.025638483126
 21
113.4314922984199
 31
0.0
  0
ARC
  5
61762
330
A
100
AcDbEntity
  8
レイヤー 1
 62
     7
370
    50
100
AcDbCircle
 10
3162.616236793022
 20
395.1237456170723
 30
0.0
 40
4.0
100
AcDbArc
 50
0.0000000000097707
 51
179.9999999999902
  0
ARC
  5
61763
330
A
100
AcDbEntity
  8
レイヤー 1
 62
     7
370
    50
100
AcDbCircle
 10
3162.616236793022
 20
391.1237456170734
 30
0.0
 40
3.999999999999771
100
AcDbArc
 50
180.0000000000065
 51
359.9999999999935
  0
LINE
  5
61764
330
A
100
AcDbEntity
  8
レイヤー 1
 62
     7
370
    50
100
AcDbLine
 10
3158.616236793022
 20
395.123745617073
 30
0.0
 11
3158.616236793022
 21
391.123745617073
 31
0.0
  0
LINE
  5
61765
330
A
100
AcDbEntity
  8
レイヤー 1
 62
     7
370
    50
100
AcDbLine
 10
3166.616236793022
 20
395.123745617073
 30
0.0
 11
3166.616236793022
 21
391.123745617073
 31
0.0
  0
ARC
  5
61766
330
A
100
AcDbEntity
  8
レイヤー 1
 62
     7
370
    50
100
AcDbCircle
 10
3162.615193687698
 20
221.627431984263
 30
0.0
 40
4.0
100
AcDbArc
 50
0.0000000000097707
 51
179.9999999999902
  0
ARC
  5
61767
330
A
100
AcDbEntity
  8
レイヤー 1
 62
     7
370
    50
100
AcDbCircle
 10
3162.615193687698
 20
217.6274319842641
 30
0.0
 40
3.999999999999771
100
AcDbArc
 50
180.0000000000065
 51
359.9999999999935
  0
LINE
  5
61768
330
A
100
AcDbEntity
  8
レイヤー 1
 62
     7
370
    50
100
AcDbLine
 10
3158.615193687698
 20
221.6274319842637
 30
0.0
 11
3158.615193687698
 21
217.6274319842637
 31
0.0
  0
LINE
  5
61769
330
A
100
AcDbEntity
  8
レイヤー 1
 62
     7
370
    50
100
AcDbLine
 10
3166.615193687697
 20
221.6274319842637
 30
0.0
 11
3166.615193687697
 21
217.6274319842637
 31
0.0
  0
ARC
  5
6176A
330
A
100
AcDbEntity
  8
レイヤー 1
 62
     7
370
    50
100
AcDbCircle
 10
3162.616236782545
 20
48.12743203003217
 30
0.0
 40
4.0
100
AcDbArc
 50
0.0000000000097707
 51
179.9999999999902
  0
ARC
  5
6176B
330
A
100
AcDbEntity
  8
レイヤー 1
 62
     7
370
    50
100
AcDbCircle
 10
3162.616236782545
 20
44.12743203003329
 30
0.0
 40
3.999999999999771
100
AcDbArc
 50
180.0000000000065
 51
359.9999999999935
  0
LINE
  5
6176C
330
A
100
AcDbEntity
  8
レイヤー 1
 62
     7
370
    50
100
AcDbLine
 10
3158.616236782546
 20
48.12743203003286
 30
0.0
 11
3158.616236782546
 21
44.12743203003286
 31
0.0
  0
LINE
  5
6176D
330
A
100
AcDbEntity
  8
レイヤー 1
 62
     7
370
    50
100
AcDbLine
 10
3166.616236782545
 20
48.12743203003286
 30
0.0
 11
3166.616236782545
 21
44.12743203003286
 31
0.0
  0
LINE
  5
61F87
330
A
100
AcDbEntity
  8
レイヤー 1
  6
Continuous
 62
     7
370
    50
100
AcDbLine
 10
4154.02570056654
 20
2166.865694030613
 30
0.0
 11
5048.52570056654
 21
2166.865694030613
 31
0.0
  0
LINE
  5
61F88
330
A
100
AcDbEntity
  8
レイヤー 1
  6
Continuous
 62
     7
370
    50
100
AcDbLine
 10
5048.52570056654
 20
1571.865694030612
 30
0.0
 11
5048.52570056654
 21
2166.865694030613
 31
0.0
  0
LINE
  5
61F8A
330
A
100
AcDbEntity
  8
レイヤー 1
  6
Continuous
 62
     7
370
    50
100
AcDbLine
 10
4154.02570056654
 20
1571.865694030612
 30
0.0
 11
5048.52570056654
 21
1571.865694030612
 31
0.0
  0
LINE
  5
61F8C
330
A
100
AcDbEntity
  8
レイヤー 1
  6
Continuous
 62
     7
370
    50
100
AcDbLine
 10
4154.02570056654
 20
2166.865694030613
 30
0.0
 11
4154.02570056654
 21
1571.865694030612
 31
0.0
  0
LINE
  5
61F8F
330
A
100
AcDbEntity
  8
レイヤー 1
  6
Continuous
 62
     7
370
    50
100
AcDbLine
 10
4154.02570056654
 20
2061.865694030613
 30
0.0
 11
5048.52570056654
 21
2061.865694030613
 31
0.0
  0
LINE
  5
61F90
330
A
100
AcDbEntity
  8
レイヤー 1
  6
Continuous
 62
     7
370
    50
100
AcDbLine
 10
4154.02570056654
 20
2044.365694030612
 30
0.0
 11
5048.52570056654
 21
2044.365694030612
 31
0.0
  0
LINE
  5
61F91
330
A
100
AcDbEntity
  8
レイヤー 1
  6
Continuous
 62
     7
370
    50
100
AcDbLine
 10
4154.02570056654
 20
1939.365694030612
 30
0.0
 11
5048.52570056654
 21
1939.365694030612
 31
0.0
  0
LINE
  5
61F92
330
A
100
AcDbEntity
  8
レイヤー 1
  6
Continuous
 62
     7
370
    50
100
AcDbLine
 10
4154.02570056654
 20
1921.865694030612
 30
0.0
 11
5048.52570056654
 21
1921.865694030612
 31
0.0
  0
LINE
  5
61F93
330
A
100
AcDbEntity
  8
レイヤー 1
  6
Continuous
 62
     7
370
    50
100
AcDbLine
 10
4154.02570056654
 20
1816.865694030612
 30
0.0
 11
5048.52570056654
 21
1816.865694030612
 31
0.0
  0
LINE
  5
61F94
330
A
100
AcDbEntity
  8
レイヤー 1
  6
Continuous
 62
     7
370
    50
100
AcDbLine
 10
4154.02570056654
 20
1799.365694030612
 30
0.0
 11
5048.52570056654
 21
1799.365694030612
 31
0.0
  0
LINE
  5
61F95
330
A
100
AcDbEntity
  8
レイヤー 1
  6
Continuous
 62
     7
370
    50
100
AcDbLine
 10
4154.02570056654
 20
1694.365694030612
 30
0.0
 11
5048.52570056654
 21
1694.365694030612
 31
0.0
  0
LINE
  5
61F96
330
A
100
AcDbEntity
  8
レイヤー 1
  6
Continuous
 62
     7
370
    50
100
AcDbLine
 10
4154.02570056654
 20
1676.865694030612
 30
0.0
 11
5048.52570056654
 21
1676.865694030612
 31
0.0
  0
LINE
  5
61FB9
330
A
100
AcDbEntity
  8
レイヤー 1
  6
Continuous
 62
     7
 48
5.0
370
    50
100
AcDbLine
 10
4393.026700566539
 20
2061.865694030613
 30
0.0
 11
4393.026700566539
 21
2044.365694030612
 31
0.0
  0
LINE
  5
61FBA
330
A
100
AcDbEntity
  8
レイヤー 1
  6
Continuous
 62
     7
 48
5.0
370
    50
100
AcDbLine
 10
4372.026700566538
 20
2061.865694030613
 30
0.0
 11
4372.026700566538
 21
2044.365694030612
 31
0.0
  0
LINE
  5
61FBB
330
A
100
AcDbEntity
  8
レイヤー 1
  6
Continuous
 62
     7
 48
5.0
370
    50
100
AcDbLine
 10
4393.026700566539
 20
1921.865694030612
 30
0.0
 11
4393.026700566539
 21
1939.365694030612
 31
0.0
  0
LINE
  5
61FBC
330
A
100
AcDbEntity
  8
レイヤー 1
  6
Continuous
 62
     7
 48
5.0
370
    50
100
AcDbLine
 10
4372.026700566538
 20
1921.865694030612
 30
0.0
 11
4372.026700566538
 21
1939.365694030612
 31
0.0
  0
LINE
  5
61FC1
330
A
100
AcDbEntity
  8
レイヤー 1
  6
Continuous
 62
     7
 48
5.0
370
    50
100
AcDbLine
 10
4393.026700566539
 20
1799.365694030612
 30
0.0
 11
4393.026700566539
 21
1816.865694030612
 31
0.0
  0
LINE
  5
61FC2
330
A
100
AcDbEntity
  8
レイヤー 1
  6
Continuous
 62
     7
 48
5.0
370
    50
100
AcDbLine
 10
4372.026700566538
 20
1799.365694030612
 30
0.0
 11
4372.026700566538
 21
1816.865694030612
 31
0.0
  0
LINE
  5
61FC5
330
A
100
AcDbEntity
  8
レイヤー 1
  6
Continuous
 62
     7
 48
5.0
370
    50
100
AcDbLine
 10
4393.026700566539
 20
1676.865694030612
 30
0.0
 11
4393.026700566539
 21
1694.365694030612
 31
0.0
  0
LINE
  5
61FC6
330
A
100
AcDbEntity
  8
レイヤー 1
  6
Continuous
 62
     7
 48
5.0
370
    50
100
AcDbLine
 10
4372.026700566538
 20
1676.865694030612
 30
0.0
 11
4372.026700566538
 21
1694.365694030612
 31
0.0
  0
LINE
  5
61FC9
330
A
100
AcDbEntity
  8
レイヤー 1
  6
Continuous
 62
     7
 48
5.0
370
    50
100
AcDbLine
 10
4174.525700566539
 20
2044.365694030612
 30
0.0
 11
4174.525700566539
 21
2061.865694030613
 31
0.0
  0
LINE
  5
61FCA
330
A
100
AcDbEntity
  8
レイヤー 1
  6
Continuous
 62
     7
 48
5.0
370
    50
100
AcDbLine
 10
4174.525700566539
 20
1939.365694030612
 30
0.0
 11
4174.525700566539
 21
1921.865694030612
 31
0.0
  0
LINE
  5
61FCD
330
A
100
AcDbEntity
  8
レイヤー 1
  6
Continuous
 62
     7
 48
5.0
370
    50
100
AcDbLine
 10
4174.525700566539
 20
1816.865694030612
 30
0.0
 11
4174.525700566539
 21
1799.365694030612
 31
0.0
  0
LINE
  5
61FCF
330
A
100
AcDbEntity
  8
レイヤー 1
  6
Continuous
 62
     7
 48
5.0
370
    50
100
AcDbLine
 10
4174.525700566539
 20
1694.365694030612
 30
0.0
 11
4174.525700566539
 21
1676.865694030612
 31
0.0
  0
LINE
  5
61FD2
330
A
100
AcDbEntity
  8
レイヤー 1
  6
Continuous
 62
     7
 48
5.0
370
    50
100
AcDbLine
 10
5027.525700566541
 20
2044.365694030612
 30
0.0
 11
5027.525700566541
 21
2061.865694030613
 31
0.0
  0
LINE
  5
61FD3
330
A
100
AcDbEntity
  8
レイヤー 1
  6
Continuous
 62
     7
 48
5.0
370
    50
100
AcDbLine
 10
5027.525700566541
 20
1939.365694030612
 30
0.0
 11
5027.525700566541
 21
1921.865694030612
 31
0.0
  0
LINE
  5
61FD6
330
A
100
AcDbEntity
  8
レイヤー 1
  6
Continuous
 62
     7
 48
5.0
370
    50
100
AcDbLine
 10
5027.525700566541
 20
1816.865694030612
 30
0.0
 11
5027.525700566541
 21
1799.365694030612
 31
0.0
  0
LINE
  5
61FD8
330
A
100
AcDbEntity
  8
レイヤー 1
  6
Continuous
 62
     7
 48
5.0
370
    50
100
AcDbLine
 10
5027.525700566541
 20
1694.365694030612
 30
0.0
 11
5027.525700566541
 21
1676.865694030612
 31
0.0
  0
LINE
  5
61FDD
330
A
100
AcDbEntity
  8
レイヤー 1
  6
Continuous
 62
     7
 48
5.0
370
    50
100
AcDbLine
 10
4830.02570056654
 20
2044.365694030612
 30
0.0
 11
4830.02570056654
 21
2061.865694030613
 31
0.0
  0
LINE
  5
61FDE
330
A
100
AcDbEntity
  8
レイヤー 1
  6
Continuous
 62
     7
 48
5.0
370
    50
100
AcDbLine
 10
4809.025700566539
 20
2044.365694030612
 30
0.0
 11
4809.025700566539
 21
2061.865694030613
 31
0.0
  0
LINE
  5
61FDF
330
A
100
AcDbEntity
  8
レイヤー 1
  6
Continuous
 62
     7
 48
5.0
370
    50
100
AcDbLine
 10
4830.02570056654
 20
1939.365694030612
 30
0.0
 11
4830.02570056654
 21
1921.865694030612
 31
0.0
  0
LINE
  5
61FE0
330
A
100
AcDbEntity
  8
レイヤー 1
  6
Continuous
 62
     7
 48
5.0
370
    50
100
AcDbLine
 10
4809.025700566539
 20
1939.365694030612
 30
0.0
 11
4809.025700566539
 21
1921.865694030612
 31
0.0
  0
LINE
  5
61FE5
330
A
100
AcDbEntity
  8
レイヤー 1
  6
Continuous
 62
     7
 48
5.0
370
    50
100
AcDbLine
 10
4830.02570056654
 20
1816.865694030612
 30
0.0
 11
4830.02570056654
 21
1799.365694030612
 31
0.0
  0
LINE
  5
61FE6
330
A
100
AcDbEntity
  8
レイヤー 1
  6
Continuous
 62
     7
 48
5.0
370
    50
100
AcDbLine
 10
4809.025700566539
 20
1816.865694030612
 30
0.0
 11
4809.025700566539
 21
1799.365694030612
 31
0.0
  0
LINE
  5
61FE9
330
A
100
AcDbEntity
  8
レイヤー 1
  6
Continuous
 62
     7
 48
5.0
370
    50
100
AcDbLine
 10
4830.02570056654
 20
1694.365694030612
 30
0.0
 11
4830.02570056654
 21
1676.865694030612
 31
0.0
  0
LINE
  5
61FEA
330
A
100
AcDbEntity
  8
レイヤー 1
  6
Continuous
 62
     7
 48
5.0
370
    50
100
AcDbLine
 10
4809.025700566539
 20
1694.365694030612
 30
0.0
 11
4809.025700566539
 21
1676.865694030612
 31
0.0
  0
LINE
  5
72949
330
A
100
AcDbEntity
  8
レイヤー 1
  6
Continuous
 62
     7
 48
5.0
370
    30
100
AcDbLine
 10
4179.521081513446
 20
687.5944226507246
 30
0.0
 11
4193.244081513452
 21
687.1444226507202
 31
0.0
  0
LINE
  5
7294A
330
A
100
AcDbEntity
  8
レイヤー 1
  6
Continuous
 62
     7
 48
5.0
370
    30
100
AcDbLine
 10
4179.521081513446
 20
696.5944226507173
 30
0.0
 11
4193.244081513452
 21
697.0454226507219
 31
0.0
  0
ARC
  5
7294B
330
A
100
AcDbEntity
  8
レイヤー 1
  6
Continuous
 62
     7
 48
5.0
370
    30
100
AcDbCircle
 10
4198.755081513451
 20
700.0944226507246
 30
0.0
 40
0.9999995999999999
100
AcDbArc
 50
24.9010699999501
 51
161.0557000000004
  0
ARC
  5
7294C
330
A
100
AcDbEntity
  8
レイヤー 1
  6
Continuous
 62
     7
 48
5.0
370
    30
100
AcDbCircle
 10
4193.080081513448
 20
702.0424226507213
 30
0.0
 40
4.999997999999998
100
AcDbArc
 50
271.8805999999986
 51
341.0557000000005
  0
ARC
  5
7294D
330
A
100
AcDbEntity
  8
レイヤー 1
  6
Continuous
 62
     7
 48
5.0
370
    30
100
AcDbCircle
 10
4198.755081513451
 20
684.0944226507172
 30
0.0
 40
0.9999995999999999
100
AcDbArc
 50
198.9442999999995
 51
335.0989000000051
  0
ARC
  5
7294E
330
A
100
AcDbEntity
  8
レイヤー 1
  6
Continuous
 62
     7
 48
5.0
370
    30
100
AcDbCircle
 10
4193.080081513448
 20
682.1474226507245
 30
0.0
 40
4.999997999999998
100
AcDbArc
 50
18.94426999998037
 51
88.11937999996159
  0
LINE
  5
7299A
330
A
100
AcDbEntity
  8
レイヤー 1
 62
     7
370
    30
100
AcDbLine
 10
4197.809252768358
 20
700.4191792180438
 30
0.0
 11
4197.809247262468
 21
683.7697739641817
 31
0.0
  0
LINE
  5
7299B
330
A
100
AcDbEntity
  8
レイヤー 1
 62
     7
370
    30
100
AcDbLine
 10
4199.662117301915
 20
700.5154752346649
 30
0.0
 11
4199.661791059432
 21
683.6733623155525
 31
0.0
  0
ARC
  5
7299C
330
A
100
AcDbEntity
  8
レイヤー 1
 62
     7
370
    30
100
AcDbCircle
 10
4189.228593662329
 20
692.0946177702636
 30
0.0
 40
12.29247785278417
100
AcDbArc
 50
328.0759190658646
 51
31.92186122244175
  0
LINE
  5
7299E
330
A
100
AcDbEntity
  8
レイヤー 1
 62
     7
370
    30
100
AcDbLine
 10
4179.521081513446
 20
687.5944226507246
 30
0.0
 11
4179.526577344842
 21
696.594603268655
 31
0.0
  0
LINE
  5
72E2E
330
A
100
AcDbEntity
  8
レイヤー 1
  6
Continuous
 62
     7
 48
5.0
370
    30
100
AcDbLine
 10
5022.526656211376
 20
696.7262573279504
 30
0.0
 11
5008.803656211372
 21
697.1762573279549
 31
0.0
  0
LINE
  5
72E2F
330
A
100
AcDbEntity
  8
レイヤー 1
  6
Continuous
 62
     7
 48
5.0
370
    30
100
AcDbLine
 10
5022.526656211376
 20
687.7262573279578
 30
0.0
 11
5008.803656211372
 21
687.2752573279532
 31
0.0
  0
ARC
  5
72E30
330
A
100
AcDbEntity
  8
レイヤー 1
  6
Continuous
 62
     7
 48
5.0
370
    30
100
AcDbCircle
 10
5003.292656211374
 20
684.2262573279505
 30
0.0
 40
0.9999995999999999
100
AcDbArc
 50
204.901069999938
 51
341.0557000000006
  0
ARC
  5
72E31
330
A
100
AcDbEntity
  8
レイヤー 1
  6
Continuous
 62
     7
 48
5.0
370
    30
100
AcDbCircle
 10
5008.967656211376
 20
682.2782573279537
 30
0.0
 40
4.999997999999998
100
AcDbArc
 50
91.88059999999865
 51
161.0557000000006
  0
ARC
  5
72E32
330
A
100
AcDbEntity
  8
レイヤー 1
  6
Continuous
 62
     7
 48
5.0
370
    30
100
AcDbCircle
 10
5003.292656211374
 20
700.2262573279578
 30
0.0
 40
0.9999995999999999
100
AcDbArc
 50
18.94429999999943
 51
155.0989000000055
  0
ARC
  5
72E33
330
A
100
AcDbEntity
  8
レイヤー 1
  6
Continuous
 62
     7
 48
5.0
370
    30
100
AcDbCircle
 10
5008.967656211376
 20
702.1732573279506
 30
0.0
 40
4.999997999999998
100
AcDbArc
 50
198.9442699999762
 51
268.1193799999616
  0
LINE
  5
72E7E
330
A
100
AcDbEntity
  8
レイヤー 1
 62
     7
370
    30
100
AcDbLine
 10
5004.238484956466
 20
683.901500760631
 30
0.0
 11
5004.238490462356
 21
700.5509060144933
 31
0.0
  0
LINE
  5
72E7F
330
A
100
AcDbEntity
  8
レイヤー 1
 62
     7
370
    30
100
AcDbLine
 10
5002.385620422909
 20
683.8052047440101
 30
0.0
 11
5002.385946665392
 21
700.6473176631224
 31
0.0
  0
ARC
  5
72E80
330
A
100
AcDbEntity
  8
レイヤー 1
 62
     7
370
    30
100
AcDbCircle
 10
5012.819144062494
 20
692.2260622084114
 30
0.0
 40
12.29247785278417
100
AcDbArc
 50
148.0759190658538
 51
211.9218612224581
  0
LINE
  5
763F2
330
A
100
AcDbEntity
  8
レイヤー 1
 62
     7
370
    30
100
AcDbLine
 10
5070.02749377176
 20
1567.878586002763
 30
0.0
 11
5051.026693771759
 21
1567.878586002763
 31
0.0
  0
LINE
  5
763F3
330
A
100
AcDbEntity
  8
レイヤー 1
  6
Continuous
 62
     7
370
    30
100
AcDbLine
 10
5070.02749377176
 20
1569.877786002768
 30
0.0
 11
5070.02749377176
 21
1567.878586002763
 31
0.0
  0
LINE
  5
763F4
330
A
100
AcDbEntity
  8
レイヤー 1
 62
     7
370
    50
100
AcDbLine
 10
5051.026693771759
 20
1567.878586002763
 30
0.0
 11
5070.02749377176
 21
1567.878586002763
 31
0.0
  0
LINE
  5
763F5
330
A
100
AcDbEntity
  8
レイヤー 1
 62
     7
370
    50
100
AcDbLine
 10
5070.02749377176
 20
1567.878586002763
 30
0.0
 11
5070.02749377176
 21
1570.378586002763
 31
0.0
  0
LINE
  5
7EE40
330
A
100
AcDbEntity
  8
レイヤー 1
  6
Continuous
 62
     7
 48
5.0
370
    20
100
AcDbLine
 10
3442.101780369944
 20
65.6297529169407
 30
0.0
 11
3442.601780369944
 21
65.1297529169407
 31
0.0
  0
ARC
  5
81933
330
A
100
AcDbEntity
  8
レイヤー 1
  6
Continuous
 62
     7
 48
5.0
370
    50
100
AcDbCircle
 10
4839.529916831851
 20
358.6294604094215
 30
0.0
 40
2.0
100
AcDbArc
 50
270.000195986045
 51
0.0089353551856055
  0
LINE
  5
85228
330
A
100
AcDbEntity
  8
レイヤー 1
  6
Continuous
 62
     7
 48
5.0
370
    50
100
AcDbLine
 10
3149.116236793022
 20
3.627432860792676
 30
0.0
 11
3149.116236806812
 21
53.62711918175535
 31
0.0
  0
LINE
  5
92F70
330
A
100
AcDbEntity
  8
レイヤー 1
  6
Continuous
 62
     7
 48
5.0
370
    50
100
AcDbLine
 10
3148.118542152606
 20
3.627432860792676
 30
0.0
 11
3148.118542166395
 21
53.62711918175535
 31
0.0
  0
LINE
  5
92F71
330
A
100
AcDbEntity
  8
レイヤー 1
  6
Continuous
 62
     7
 48
5.0
370
    50
100
AcDbLine
 10
3149.115193698175
 20
620.6277547157773
 30
0.0
 11
3149.115193698175
 21
121.6271191817564
 31
0.0
  0
LINE
  5
92F72
330
A
100
AcDbEntity
  8
レイヤー 1
  6
Continuous
 62
     7
 48
5.0
370
    50
100
AcDbLine
 10
3148.115193698175
 20
688.6277620963274
 30
0.0
 11
3148.115193698175
 21
738.6277505929156
 31
0.0
  0
LINE
  5
93614
330
A
100
AcDbEntity
  8
レイヤー 1
  6
Continuous
 62
     7
 48
5.0
370
    50
100
AcDbLine
 10
4611.525700566541
 20
2061.865694030613
 30
0.0
 11
4611.525700566541
 21
2044.365694030612
 31
0.0
  0
LINE
  5
93615
330
A
100
AcDbEntity
  8
レイヤー 1
  6
Continuous
 62
     7
 48
5.0
370
    50
100
AcDbLine
 10
4590.525700566541
 20
2061.865694030613
 30
0.0
 11
4590.525700566541
 21
2044.365694030612
 31
0.0
  0
LINE
  5
93616
330
A
100
AcDbEntity
  8
レイヤー 1
  6
Continuous
 62
     7
 48
5.0
370
    50
100
AcDbLine
 10
4611.525700566541
 20
1921.865694030612
 30
0.0
 11
4611.525700566541
 21
1939.365694030612
 31
0.0
  0
LINE
  5
93617
330
A
100
AcDbEntity
  8
レイヤー 1
  6
Continuous
 62
     7
 48
5.0
370
    50
100
AcDbLine
 10
4590.525700566541
 20
1921.865694030612
 30
0.0
 11
4590.525700566541
 21
1939.365694030612
 31
0.0
  0
LINE
  5
9361C
330
A
100
AcDbEntity
  8
レイヤー 1
  6
Continuous
 62
     7
 48
5.0
370
    50
100
AcDbLine
 10
4611.525700566541
 20
1799.365694030612
 30
0.0
 11
4611.525700566541
 21
1816.865694030612
 31
0.0
  0
LINE
  5
9361D
330
A
100
AcDbEntity
  8
レイヤー 1
  6
Continuous
 62
     7
 48
5.0
370
    50
100
AcDbLine
 10
4590.525700566541
 20
1799.365694030612
 30
0.0
 11
4590.525700566541
 21
1816.865694030612
 31
0.0
  0
LINE
  5
93620
330
A
100
AcDbEntity
  8
レイヤー 1
  6
Continuous
 62
     7
 48
5.0
370
    50
100
AcDbLine
 10
4611.525700566541
 20
1676.865694030612
 30
0.0
 11
4611.525700566541
 21
1694.365694030612
 31
0.0
  0
LINE
  5
93621
330
A
100
AcDbEntity
  8
レイヤー 1
  6
Continuous
 62
     7
 48
5.0
370
    50
100
AcDbLine
 10
4590.525700566541
 20
1676.865694030612
 30
0.0
 11
4590.525700566541
 21
1694.365694030612
 31
0.0
  0
LINE
  5
937AB
330
A
100
AcDbEntity
  8
レイヤー 1
  6
Continuous
 62
     7
 48
5.0
370
    50
100
AcDbLine
 10
2889.611433410494
 20
3.627432764080906
 30
0.0
 11
2889.611433410494
 21
738.6276459069174
 31
0.0
  0
LINE
  5
937C3
330
A
100
AcDbEntity
  8
レイヤー 1
  6
Continuous
 62
     7
 48
5.0
370
    50
100
AcDbLine
 10
2854.611433410493
 20
728.6277567886421
 30
0.0
 11
2854.611433410493
 21
738.6277485270362
 31
0.0
  0
LINE
  5
937C6
330
A
100
AcDbEntity
  8
レイヤー 1
  6
Continuous
 62
     7
 48
5.0
370
    50
100
AcDbLine
 10
2853.611315572776
 20
660.6277641001858
 30
0.0
 11
2853.611295736005
 21
81.62710972206172
 31
0.0
  0
LINE
  5
937CD
330
A
100
AcDbEntity
  8
レイヤー 1
 62
     7
370
    50
100
AcDbLine
 10
2853.611295736005
 20
81.62710972206172
 30
0.0
 11
2851.367019312389
 21
81.62707651718745
 31
0.0
  0
LINE
  5
937CE
330
A
100
AcDbEntity
  8
レイヤー 1
  6
Continuous
 62
     7
 48
5.0
370
    50
100
AcDbLine
 10
2854.611433410494
 20
81.62711721043171
 30
0.0
 11
2854.611433410493
 21
660.6277567886413
 31
0.0
  0
LINE
  5
937D0
330
A
100
AcDbEntity
  8
レイヤー 1
  6
Continuous
 62
     7
 48
5.0
370
    50
100
AcDbLine
 10
2853.6112934063
 20
13.62710978357715
 30
0.0
 11
2853.611288300795
 21
-135.3936071819612
 31
0.0
  0
LINE
  5
937D3
330
A
100
AcDbEntity
  8
レイヤー 1
  6
Continuous
 62
     7
 48
5.0
370
    50
100
AcDbLine
 10
3442.611894547086
 20
81.627113672793
 30
0.0
 11
3442.623354441794
 21
660.6277599539922
 31
0.0
  0
LINE
  5
937D4
330
A
100
AcDbEntity
  8
レイヤー 1
 62
     7
370
    50
100
AcDbLine
 10
3442.611894547086
 20
81.62711367279301
 30
0.0
 11
3440.367075714557
 21
81.62708045989381
 31
0.0
  0
LINE
  5
937D5
330
A
100
AcDbEntity
  8
レイヤー 1
  6
Continuous
 62
     7
370
    50
100
AcDbLine
 10
3443.610331148151
 20
13.62597348682925
 30
0.0
 11
3443.61143341532
 21
-135.3723107952008
 31
0.0
  0
LINE
  5
937D7
330
A
100
AcDbEntity
  8
レイヤー 1
 62
     7
370
    50
100
AcDbLine
 10
3443.591933581969
 20
728.6277599433104
 30
0.0
 11
3445.848212209734
 21
728.6277933098463
 31
0.0
  0
LINE
  5
94185
330
A
100
AcDbEntity
  8
レイヤー 1
  6
Continuous
 62
     7
 48
5.0
370
    50
100
AcDbLine
 10
2957.611703432074
 20
412.6239383883243
 30
0.0
 11
2948.608260209055
 21
412.6240195792146
 31
0.0
  0
LINE
  5
94186
330
A
100
AcDbEntity
  8
レイヤー 1
  6
Continuous
 62
     7
 48
5.0
370
    50
100
AcDbLine
 10
2957.611703432074
 20
406.6237471066473
 30
0.0
 11
2889.611433410494
 21
406.6237471066473
 31
0.0
  0
LINE
  5
94187
330
A
100
AcDbEntity
  8
レイヤー 1
  6
Continuous
 62
     7
 48
5.0
370
    50
100
AcDbLine
 10
2985.611700532297
 20
379.6237451414965
 30
0.0
 11
3038.611430510676
 21
379.6237453469275
 31
0.0
  0
LINE
  5
94188
330
A
100
AcDbEntity
  8
レイヤー 1
  6
Continuous
 62
     7
 48
5.0
370
    50
100
AcDbLine
 10
3038.611430510676
 20
406.6237471066473
 30
0.0
 11
2985.611700532297
 21
406.6237471066473
 31
0.0
  0
LINE
  5
94189
330
A
100
AcDbEntity
  8
レイヤー 1
  6
Continuous
 62
     7
 48
5.0
370
    50
100
AcDbLine
 10
3066.611427610899
 20
379.6237454554575
 30
0.0
 11
3121.115193698174
 21
379.6237456667182
 31
0.0
  0
LINE
  5
9418A
330
A
100
AcDbEntity
  8
レイヤー 1
  6
Continuous
 62
     7
 48
5.0
370
    50
100
AcDbLine
 10
3121.115193698175
 20
406.6237471066471
 30
0.0
 11
3066.6114276109
 21
406.6237471066473
 31
0.0
  0
LINE
  5
9418B
330
A
100
AcDbEntity
  8
レイヤー 1
  6
Continuous
 62
     7
 48
5.0
370
    50
100
AcDbLine
 10
3176.115193698175
 20
379.6237458799023
 30
0.0
 11
3230.604506371274
 21
379.623746091107
 31
0.0
  0
LINE
  5
9418C
330
A
100
AcDbEntity
  8
レイヤー 1
  6
Continuous
 62
     7
 48
5.0
370
    50
100
AcDbLine
 10
3230.604506371273
 20
406.6237471066471
 30
0.0
 11
3176.115193698175
 21
406.6237471066471
 31
0.0
  0
LINE
  5
9418D
330
A
100
AcDbEntity
  8
レイヤー 1
  6
Continuous
 62
     7
 48
5.0
370
    50
100
AcDbLine
 10
3258.604503471497
 20
379.6237461996371
 30
0.0
 11
3311.611439214616
 21
379.6237464050959
 31
0.0
  0
LINE
  5
9418E
330
A
100
AcDbEntity
  8
レイヤー 1
  6
Continuous
 62
     7
 48
5.0
370
    50
100
AcDbLine
 10
3311.611439214616
 20
412.6226610377178
 30
0.0
 11
3258.604503471498
 21
412.6231390415431
 31
0.0
  0
LINE
  5
9418F
330
A
100
AcDbEntity
  8
レイヤー 1
  6
Continuous
 62
     7
 48
5.0
370
    50
100
AcDbLine
 10
3311.611439214616
 20
406.6237471066471
 30
0.0
 11
3258.604503471498
 21
406.6237471066471
 31
0.0
  0
LINE
  5
94190
330
A
100
AcDbEntity
  8
レイヤー 1
  6
Continuous
 62
     7
 48
5.0
370
    50
100
AcDbLine
 10
3339.61143631484
 20
379.623746513626
 30
0.0
 11
3415.611433415046
 21
379.6237468082076
 31
0.0
  0
CIRCLE
  5
94193
330
A
100
AcDbEntity
  8
レイヤー 1
  6
Continuous
 62
     7
 48
5.0
370
    25
100
AcDbCircle
 10
3455.160055986997
 20
-10.4422484845157
 30
0.0
 40
7.5
  0
CIRCLE
  5
94194
330
A
100
AcDbEntity
  8
レイヤー 1
  6
Continuous
 62
     7
100
AcDbCircle
 10
3455.160055986997
 20
-10.44224848451569
 30
0.0
 40
6.5
  0
CIRCLE
  5
94195
330
A
100
AcDbEntity
  8
レイヤー 1
  6
Continuous
 62
     7
100
AcDbCircle
 10
3455.160055986997
 20
-10.44224848451569
 30
0.0
 40
5.7
  0
LINE
  5
94196
330
A
100
AcDbEntity
  8
レイヤー 1
  6
Continuous
 62
     7
100
AcDbLine
 10
3454.160055986997
 20
-8.710148484515741
 30
0.0
 11
3456.160055986997
 21
-8.710148484515741
 31
0.0
  0
LINE
  5
94197
330
A
100
AcDbEntity
  8
レイヤー 1
  6
Continuous
 62
     7
100
AcDbLine
 10
3453.160055986997
 20
-10.44224848451569
 30
0.0
 11
3454.160055986997
 21
-8.710148484515741
 31
0.0
  0
LINE
  5
94198
330
A
100
AcDbEntity
  8
レイヤー 1
  6
Continuous
 62
     7
100
AcDbLine
 10
3453.160055986997
 20
-10.44224848451569
 30
0.0
 11
3454.160055986997
 21
-12.17424848451566
 31
0.0
  0
LINE
  5
94199
330
A
100
AcDbEntity
  8
レイヤー 1
  6
Continuous
 62
     7
100
AcDbLine
 10
3454.160055986997
 20
-12.17424848451566
 30
0.0
 11
3456.160055986997
 21
-12.17424848451566
 31
0.0
  0
LINE
  5
9419A
330
A
100
AcDbEntity
  8
レイヤー 1
  6
Continuous
 62
     7
100
AcDbLine
 10
3456.160055986997
 20
-12.17424848451566
 30
0.0
 11
3457.160055986997
 21
-10.44224848451569
 31
0.0
  0
LINE
  5
9419B
330
A
100
AcDbEntity
  8
レイヤー 1
  6
Continuous
 62
     7
100
AcDbLine
 10
3456.160055986997
 20
-8.710148484515741
 30
0.0
 11
3457.160055986997
 21
-10.44224848451569
 31
0.0
  0
LINE
  5
9419C
330
A
100
AcDbEntity
  8
レイヤー 1
  6
Continuous
 62
     7
 48
5.0
370
    50
100
AcDbLine
 10
1398.399781497654
 20
412.6254273752781
 30
0.0
 11
1473.39871950789
 21
412.6254273752783
 31
0.0
  0
LINE
  5
9419D
330
A
100
AcDbEntity
  8
レイヤー 1
  6
Continuous
 62
     7
 48
5.0
370
    50
100
AcDbLine
 10
1398.399753392113
 20
406.6254273752781
 30
0.0
 11
1473.39871950789
 21
406.6254273752781
 31
0.0
  0
LINE
  5
9419E
330
A
100
AcDbEntity
  8
レイヤー 1
  6
Continuous
 62
     7
 48
5.0
370
    50
100
AcDbLine
 10
1398.399626917177
 20
379.6254273752783
 30
0.0
 11
1473.39871950789
 21
379.6254273752783
 31
0.0
  0
LINE
  5
9419F
330
A
100
AcDbEntity
  8
レイヤー 1
  6
Continuous
 62
     7
 48
5.0
370
    50
100
AcDbLine
 10
1501.398719507891
 20
412.6254273752781
 30
0.0
 11
1576.398719507891
 21
412.6254273752783
 31
0.0
  0
LINE
  5
941A0
330
A
100
AcDbEntity
  8
レイヤー 1
  6
Continuous
 62
     7
 48
5.0
370
    50
100
AcDbLine
 10
1501.398719507891
 20
406.6254273752782
 30
0.0
 11
1576.398719507891
 21
406.6254273752781
 31
0.0
  0
LINE
  5
941A1
330
A
100
AcDbEntity
  8
レイヤー 1
  6
Continuous
 62
     7
 48
5.0
370
    50
100
AcDbLine
 10
1501.39871950789
 20
379.6254273752783
 30
0.0
 11
1576.39871950789
 21
379.6254273752783
 31
0.0
  0
LINE
  5
941A2
330
A
100
AcDbEntity
  8
レイヤー 1
  6
Continuous
 62
     7
 48
5.0
370
    50
100
AcDbLine
 10
1604.39871950789
 20
412.6254273752783
 30
0.0
 11
1679.398719507892
 21
412.6254273752783
 31
0.0
  0
LINE
  5
941A3
330
A
100
AcDbEntity
  8
レイヤー 1
  6
Continuous
 62
     7
 48
5.0
370
    50
100
AcDbLine
 10
1604.39871950789
 20
406.6254273752782
 30
0.0
 11
1679.398719507893
 21
406.6254273752783
 31
0.0
  0
LINE
  5
941A4
330
A
100
AcDbEntity
  8
レイヤー 1
  6
Continuous
 62
     7
 48
5.0
370
    50
100
AcDbLine
 10
1604.39871950789
 20
379.6254273752783
 30
0.0
 11
1679.398719507893
 21
379.6254273752783
 31
0.0
  0
LINE
  5
941A5
330
A
100
AcDbEntity
  8
レイヤー 1
  6
Continuous
 62
     7
 48
5.0
370
    50
100
AcDbLine
 10
1707.398719507892
 20
412.6254273752783
 30
0.0
 11
1782.398719507893
 21
412.6254273752783
 31
0.0
  0
LINE
  5
941A6
330
A
100
AcDbEntity
  8
レイヤー 1
  6
Continuous
 62
     7
 48
5.0
370
    50
100
AcDbLine
 10
1707.398719507892
 20
406.6254273752782
 30
0.0
 11
1782.398719507892
 21
406.6254273752781
 31
0.0
  0
LINE
  5
941A7
330
A
100
AcDbEntity
  8
レイヤー 1
  6
Continuous
 62
     7
 48
5.0
370
    50
100
AcDbLine
 10
1707.398719507892
 20
379.6254273752783
 30
0.0
 11
1782.398719507892
 21
379.6254273752783
 31
0.0
  0
LINE
  5
941A8
330
A
100
AcDbEntity
  8
レイヤー 1
  6
Continuous
 62
     7
 48
5.0
370
    50
100
AcDbLine
 10
1810.398719507893
 20
412.6254273752783
 30
0.0
 11
1885.398719507892
 21
412.6254273752781
 31
0.0
  0
LINE
  5
941A9
330
A
100
AcDbEntity
  8
レイヤー 1
  6
Continuous
 62
     7
 48
5.0
370
    50
100
AcDbLine
 10
1810.398719507892
 20
406.6254273752781
 30
0.0
 11
1885.398719507893
 21
406.6254273752782
 31
0.0
  0
LINE
  5
941AA
330
A
100
AcDbEntity
  8
レイヤー 1
  6
Continuous
 62
     7
 48
5.0
370
    50
100
AcDbLine
 10
1810.398719507892
 20
379.6254273752783
 30
0.0
 11
1885.398719507892
 21
379.6254273752783
 31
0.0
  0
LINE
  5
941AB
330
A
100
AcDbEntity
  8
レイヤー 1
  6
Continuous
 62
     7
 48
5.0
370
    50
100
AcDbLine
 10
1913.398719507893
 20
412.6254273752781
 30
0.0
 11
1988.398719507893
 21
412.6254273752783
 31
0.0
  0
LINE
  5
941AC
330
A
100
AcDbEntity
  8
レイヤー 1
  6
Continuous
 62
     7
 48
5.0
370
    50
100
AcDbLine
 10
1913.398719507893
 20
406.6254273752781
 30
0.0
 11
1988.398719507893
 21
406.6254273752781
 31
0.0
  0
LINE
  5
941AD
330
A
100
AcDbEntity
  8
レイヤー 1
  6
Continuous
 62
     7
 48
5.0
370
    50
100
AcDbLine
 10
1913.398719507893
 20
379.6254273752783
 30
0.0
 11
1988.398719507893
 21
379.6254273752783
 31
0.0
  0
LINE
  5
941AE
330
A
100
AcDbEntity
  8
レイヤー 1
  6
Continuous
 62
     7
 48
5.0
370
    50
100
AcDbLine
 10
2016.398719507893
 20
412.6254273752783
 30
0.0
 11
2091.405577898157
 21
412.6254273752783
 31
0.0
  0
LINE
  5
941AF
330
A
100
AcDbEntity
  8
レイヤー 1
  6
Continuous
 62
     7
 48
5.0
370
    50
100
AcDbLine
 10
2016.398719507892
 20
406.6254273752781
 30
0.0
 11
2091.405577898157
 21
406.6254273752781
 31
0.0
  0
LINE
  5
941B0
330
A
100
AcDbEntity
  8
レイヤー 1
  6
Continuous
 62
     7
 48
5.0
370
    50
100
AcDbLine
 10
2016.398719507892
 20
379.6254273752783
 30
0.0
 11
2091.405577898157
 21
379.6254273752784
 31
0.0
  0
LINE
  5
941B1
330
A
100
AcDbEntity
  8
レイヤー 1
  6
Continuous
 62
     7
 48
5.0
370
    50
100
AcDbLine
 10
2118.405577898158
 20
412.6254273752783
 30
0.0
 11
2191.401912457116
 21
412.6254273752783
 31
0.0
  0
LINE
  5
941B2
330
A
100
AcDbEntity
  8
レイヤー 1
  6
Continuous
 62
     7
 48
5.0
370
    50
100
AcDbLine
 10
2118.405577898158
 20
406.6254273752781
 30
0.0
 11
2192.401912457116
 21
406.6254273752781
 31
0.0
  0
LINE
  5
941B3
330
A
100
AcDbEntity
  8
レイヤー 1
  6
Continuous
 62
     7
 48
5.0
370
    50
100
AcDbLine
 10
2118.405577898158
 20
379.6254273752784
 30
0.0
 11
2192.401912457116
 21
379.6254273752783
 31
0.0
  0
VIEWPORT
  5
941EB
330
941E4
100
AcDbEntity
 67
     1
  8
0
 62
     5
100
AcDbViewport
 10
128.5
 20
97.5
 30
0.0
 40
428.26
 41
222.18
 68
     1
 69
     1
 12
128.5
 22
97.5
 13
0.0
 23
0.0
 14
10.0
 24
10.0
 15
10.0
 25
10.0
 16
0.0
 26
0.0
 36
1.0
 17
0.0
 27
0.0
 37
0.0
 42
50.0
 43
0.0
 44
0.0
 45
222.18
 50
0.0
 51
0.0
 72
  2000
 90
   819232
  1

281
     0
 71
     1
 74
     0
110
0.0
120
0.0
130
0.0
111
1.0
121
0.0
131
0.0
112
0.0
122
1.0
132
0.0
 79
     0
146
0.0
170
     0
 61
     5
348
977
292
     1
282
     1
141
0.0
142
0.0
 63
   250
421
  3355443
  0
ENDSEC
  0
SECTION
  2
OBJECTS
  0
DICTIONARY
  5
19
330
0
100
AcDbDictionary
281
     1
  3
ACAD_BGPLOT_KEY
350
1108E
  3
ACAD_COLOR
350
982
  3
ACAD_GROUP
350
1A
  3
ACAD_LAYOUT
350
1E
  3
ACAD_MATERIAL
350
96D
  3
ACAD_MLINESTYLE
350
1B
  3
ACAD_PLOTSETTINGS
350
22
  3
ACAD_PLOTSTYLENAME
350
1F
  3
ACAD_TABLESTYLE
350
983
  3
ACAD_VISUALSTYLE
350
971
  3
ACAD_WIPEOUT_VARS
350
23
  3
AcadDim
350
76A52
  3
AcDbVariableDictionary
350
98E
  3
ASE_INDEX_DICTIONARY
350
94217
  0
DICTIONARY
  5
3A0F
330
7
100
AcDbDictionary
280
     1
281
     1
  0
DICTIONARY
  5
C1E
330
2
100
AcDbDictionary
280
     1
281
     1
  3
ACAD_LAYERFILTERS
360
9420B
  3
ACAD_LAYERSTATES
360
C1F
  3
ACLYDICTIONARY
360
9420A
  0
DICTIONARY
  5
9CE
330
A
100
AcDbDictionary
280
     1
281
     1
  3
ACAD_SORTENTS
360
9CF
  0
DICTIONARY
  5
1108E
102
{ACAD_REACTORS
330
19
102
}
330
19
100
AcDbDictionary
280
     1
281
     1
  0
DICTIONARY
  5
982
102
{ACAD_REACTORS
330
19
102
}
330
19
100
AcDbDictionary
281
     1
  0
DICTIONARY
  5
1A
102
{ACAD_REACTORS
330
19
102
}
330
19
100
AcDbDictionary
281
     1
  0
DICTIONARY
  5
1E
102
{ACAD_REACTORS
330
19
102
}
330
19
100
AcDbDictionary
281
     1
  3
Model
350
20
  3
レイアウト1
350
941E5
  0
DICTIONARY
  5
96D
102
{ACAD_REACTORS
330
19
102
}
330
19
100
AcDbDictionary
281
     1
  3
ByBlock
350
96F
  3
ByLayer
350
96E
  3
Global
350
970
  0
DICTIONARY
  5
1B
102
{ACAD_REACTORS
330
19
102
}
330
19
100
AcDbDictionary
281
     1
  3
Standard
350
1C
  0
DICTIONARY
  5
22
102
{ACAD_REACTORS
330
19
102
}
330
19
100
AcDbDictionary
281
     1
  0
ACDBDICTIONARYWDFLT
  5
1F
102
{ACAD_REACTORS
330
19
102
}
330
19
100
AcDbDictionary
281
     1
  3
Normal
350
1D
100
AcDbDictionaryWithDefault
340
1D
  0
DICTIONARY
  5
983
102
{ACAD_REACTORS
330
19
102
}
330
19
100
AcDbDictionary
281
     1
  3
Standard
350
984
  0
DICTIONARY
  5
971
102
{ACAD_REACTORS
330
19
102
}
330
19
100
AcDbDictionary
281
     1
  3
2dWireframe
350
977
  3
3dWireframe
350
978
  3
Basic
350
976
  3
Brighten
350
97D
  3
ColorChange
350
981
  3
Dim
350
97C
  3
Facepattern
350
980
  3
Flat
350
972
  3
FlatWithEdges
350
973
  3
Gouraud
350
974
  3
GouraudWithEdges
350
975
  3
Linepattern
350
97F
  3
Realistic
350
97B
  3
Thicken
350
97E
  0
WIPEOUTVARIABLES
  5
23
330
19
100
AcDbWipeoutVariables
 70
     0
  0
XRECORD
  5
76A52
102
{ACAD_REACTORS
330
19
102
}
330
19
100
AcDbXrecord
280
     1
 90
   990106
  3

 60
     0
 61
     0
 62
     1
 63
     3
 64
     0
 65
     0
 66
     0
 67
     3
 68
     1
 69
     0
 70
     0
 71
     0
 72
     0
 40
0.0
170
     0
  0
DICTIONARY
  5
98E
102
{ACAD_REACTORS
330
19
102
}
330
19
100
AcDbDictionary
281
     1
  3
CTABLESTYLE
350
98F
  3
FIELDEVAL
350
1108F
  0
DICTIONARY
  5
94217
102
{ACAD_REACTORS
330
19
102
}
330
19
100
AcDbDictionary
281
     1
  3
ASEBlockHierarchyIndexRecord
350
94218
1001
DCO15
1040
1942402745.984
  0
DICTIONARY
  5
9420B
102
{ACAD_REACTORS
330
C1E
102
}
330
C1E
100
AcDbDictionary
281
     1
  0
DICTIONARY
  5
C1F
102
{ACAD_REACTORS
330
C1E
102
}
330
C1E
100
AcDbDictionary
281
     1
  0
DICTIONARY
  5
9420A
102
{ACAD_REACTORS
330
C1E
102
}
330
C1E
100
AcDbDictionary
281
     1
1001
ACAD
1000
<All
  0
SORTENTSTABLE
  5
9CF
102
{ACAD_REACTORS
330
9CE
102
}
330
9CE
100
AcDbSortentsTable
330
A
331
7294C
  5
72DD0
331
5235A
  5
4C0FD
331
51FD4
  5
525DD
331
4C40B
  5
4C550
331
4C20D
  5
4C446
331
4BDF0
  5
4C182
331
4C10E
  5
4C429
331
45F56
  5
46E65
331
61F8F
  5
62015
331
4C509
  5
4C6E4
331
81933
  5
4C42C
331
7294D
  5
72DD1
331
51FD5
  5
525DE
331
4C44B
  5
4C623
331
4C50A
  5
4C6E5
331
4C40C
  5
4C551
331
4C10F
  5
4C42A
331
4BD04
  5
4C0AA
331
4BDF1
  5
4C183
331
45F57
  5
46E66
331
4C20E
  5
4C447
331
7294E
  5
72DD2
331
23AE8
  5
297EC
331
52165
  5
52659
331
4C50B
  5
4C6E6
331
4C44C
  5
4C624
331
4C20F
  5
4C448
331
4C061
  5
4C2B0
331
4BD64
  5
4C0FC
331
4BD05
  5
4C0AB
331
23AE9
  5
297ED
331
2138B
  5
2345C
331
72E7E
  5
755C4
331
241C8
  5
29801
331
52166
  5
5265A
331
4C50C
  5
4C6E7
331
4C062
  5
4C394
331
4BD06
  5
4C0AC
331
4BD65
  5
4C103
331
241C9
  5
29802
331
72E7F
  5
755C5
331
23AEA
  5
297EE
331
52167
  5
5265B
331
4C50D
  5
4C6E8
331
4C182
  5
4C42B
331
23AEB
  5
297EF
331
2138D
  5
23469
331
72E80
  5
755C6
331
241CA
  5
29803
331
4C50E
  5
4C6E9
331
4C183
  5
4C42D
331
32049
  5
32B5F
331
23AEC
  5
297F0
331
241CB
  5
29804
331
7299A
  5
72E1E
331
4C50F
  5
4C6EA
331
3204A
  5
32B60
331
34198
  5
38A34
331
2C480
  5
2DEBA
331
7299B
  5
72E1F
331
23AED
  5
297F1
331
241CC
  5
29805
331
4C2AB
  5
23461
331
34199
  5
38A35
331
2C481
  5
2DEBB
331
2C31B
  5
2347D
331
23AEE
  5
297F2
331
241CD
  5
29806
331
2C498
  5
2F315
331
23047
  5
23447
331
7299C
  5
72E20
331
4C41B
  5
4C560
331
4C186
  5
4C42E
331
4C2AC
  5
23460
331
329BB
  5
32E6A
331
3419A
  5
38A36
331
2C499
  5
2F316
331
241CE
  5
29807
331
23A10
  5
297DE
331
23AEF
  5
297F3
331
2C482
  5
2DEBC
331
4C45B
  5
4C633
331
4C2AD
  5
23433
331
4C187
  5
4C42F
331
4C41C
  5
4C561
331
329BC
  5
32E6B
331
3419B
  5
38A37
331
397A8
  5
2C492
331
2C483
  5
2DEBD
331
23AF0
  5
297F4
331
241CF
  5
29808
331
2C49A
  5
2F317
331
7299E
  5
72E22
331
23A11
  5
297DF
331
4C2AE
  5
23434
331
4C45C
  5
4C634
331
3E308
  5
40C34
331
329BD
  5
32E6C
331
3419C
  5
38A38
331
2C49B
  5
2F31E
331
2E0C8
  5
2F79B
331
241D0
  5
29809
331
23A12
  5
297E0
331
23AF1
  5
297F5
331
2C484
  5
2DEBE
331
3419D
  5
38A39
331
397AA
  5
2C494
331
2E0E0
  5
2F7C2
331
2C6A3
  5
2F4AA
331
2C485
  5
2DEBF
331
23AF2
  5
297F6
331
241D1
  5
2980A
331
2C49C
  5
2F320
331
2E0C9
  5
2F79C
331
3419E
  5
38A3A
331
36274
  5
2F786
331
2E118
  5
2FA26
331
2DBB3
  5
2F513
331
2E0CA
  5
2F79D
331
2C49D
  5
2F321
331
2C6A4
  5
2F4AB
331
2C44F
  5
2DE7C
331
2C486
  5
2DEC0
331
2E0E1
  5
2F7C8
331
241D2
  5
2980B
331
23A14
  5
297E1
331
23AF3
  5
297F7
331
2C338
  5
2347B
331
32B98
  5
340C3
331
3419F
  5
38A3B
331
2E0E2
  5
2F7D5
331
2E119
  5
2FA27
331
2C6A5
  5
2F4AD
331
2DBB4
  5
2F744
331
2C487
  5
2E0DD
331
23AF4
  5
297F8
331
241D3
  5
2A19D
331
2C49E
  5
2F32B
331
2139E
  5
23471
331
23A15
  5
297E2
331
2E0CB
  5
2F79E
331
341A0
  5
38A3C
331
36167
  5
31A20
331
32B99
  5
340C4
331
2E11A
  5
2FA28
331
2DBB5
  5
2F745
331
2E0CC
  5
2F7A2
331
2C49F
  5
2F358
331
2C6A6
  5
2F4AE
331
241D4
  5
2A19E
331
23A16
  5
297E3
331
23AF5
  5
297F9
331
2C488
  5
2EFE8
331
2E0E3
  5
2F7E2
331
763F2
  5
768CD
331
2139F
  5
23472
331
32B9A
  5
340C5
331
341A1
  5
38A3D
331
3F6CC
  5
31A1C
331
2EEBA
  5
2FD2D
331
2E0CD
  5
2F7A3
331
2C6A7
  5
2F4AF
331
2E0E4
  5
2F7EF
331
2C489
  5
2EFE9
331
23AF6
  5
297FA
331
763F3
  5
768CE
331
241D5
  5
2A19F
331
2C4A0
  5
2F359
331
2E11B
  5
2FA29
331
525A0
  5
52660
331
85228
  5
854BF
331
341A2
  5
38A3E
331
3F6CD
  5
40C8C
331
2E11C
  5
2FA2A
331
2EEBB
  5
2FD2E
331
2E0CE
  5
2F7B1
331
2C4A1
  5
2F4A1
331
2C6A8
  5
2F4B0
331
241D6
  5
2A1A0
331
763F4
  5
768CF
331
23A18
  5
297E4
331
2C48A
  5
2EFEB
331
2E0E5
  5
2F82F
331
525A1
  5
52661
331
3616A
  5
3CA61
331
341A3
  5
38A3F
331
3F6CE
  5
40C8E
331
2EEBC
  5
2FD2F
331
3190B
  5
32B45
331
2E0CF
  5
2F7B2
331
2C6A9
  5
2F4B1
331
2E0E6
  5
2F830
331
2C48B
  5
2EFEC
331
241D7
  5
2A1A1
331
2C4A2
  5
2F4A2
331
2E11D
  5
2FA2B
331
2148A
  5
23474
331
72E2E
  5
730EB
331
763F5
  5
768D0
331
23A19
  5
297E5
331
525A2
  5
52662
331
341A4
  5
38A40
331
3280E
  5
32B61
331
3190C
  5
32B46
331
2E0E7
  5
2F831
331
2E11E
  5
2FA2C
331
2E0D0
  5
2F7B3
331
2C4A3
  5
2C4EE
331
2C6AA
  5
2F4B2
331
2EEBD
  5
2FD30
331
241D8
  5
2AD03
331
72E2F
  5
730EC
331
241B9
  5
23443
331
2C48C
  5
2EFEE
331
525A3
  5
52663
331
53498
  5
5352F
331
341A5
  5
38A41
331
3F6D8
  5
31A1D
331
3280F
  5
32B62
331
2EEBE
  5
2FD31
331
3190D
  5
32B48
331
2E0D1
  5
2F7B4
331
2E0E8
  5
2F832
331
2C6AB
  5
2F4E8
331
2C48D
  5
2F2A2
331
2DF9A
  5
2F78A
331
72E30
  5
730ED
331
241D9
  5
2AD04
331
2E11F
  5
2FA2D
331
525A4
  5
52664
331
53499
  5
53530
331
3F6D9
  5
40C8A
331
382CC
  5
2C4ED
331
3F6A2
  5
40C8D
331
2E0E9
  5
2F833
331
2E120
  5
2FD21
331
2DF9B
  5
2F78B
331
2E0D2
  5
2F7B5
331
2C48E
  5
2F2A4
331
7EE40
  5
81782
331
241DA
  5
2AD06
331
2C46F
  5
2DEA7
331
72E31
  5
730EE
331
2C6AC
  5
2F4E9
331
535A0
  5
53637
331
525A5
  5
52665
331
93614
  5
9365E
331
2E121
  5
2FD22
331
2E0D3
  5
2F7B6
331
2C6AD
  5
2F4EA
331
2C470
  5
2DEA8
331
2C2A2
  5
21E55
331
2C48F
  5
2F305
331
72E32
  5
730EF
331
241DB
  5
2AD0E
331
53660
  5
54C5E
331
5351A
  5
535B1
331
93615
  5
9365F
331
525A6
  5
52666
331
2E122
  5
2FD23
331
2E0D4
  5
2F7B7
331
2C490
  5
2F30D
331
2C471
  5
2DEA9
331
72E33
  5
730F0
331
2C6AE
  5
2F4EE
331
58F78
  5
4C44F
331
937D0
  5
2F74C
331
5346D
  5
504D3
331
525A7
  5
52667
331
93616
  5
93660
331
5351B
  5
535B2
331
3E0F6
  5
40C2B
331
4C510
  5
4C6EB
331
2E0D5
  5
2F7B8
331
2C6AF
  5
2F4F0
331
2EF22
  5
31A19
331
2C472
  5
2DEAA
331
2C491
  5
2F30E
331
59B70
  5
5A519
331
94190
  5
4D7B0
331
58F79
  5
4C451
331
5351C
  5
535B3
331
53427
  5
534F7
331
93617
  5
93661
331
5346E
  5
504D2
331
525A8
  5
52668
331
92F70
  5
9364A
331
3E0F7
  5
40C2D
331
4C5A0
  5
4CC02
331
4C511
  5
4C6EC
331
2E0D6
  5
2F7B9
331
2C492
  5
2F30F
331
2C473
  5
2DEAB
331
2C6B0
  5
2F4F2
331
941B0
  5
52638
331
92F71
  5
4C0CA
331
53428
  5
534F8
331
5351D
  5
535B4
331
5A4A8
  5
5A52A
331
3E0F8
  5
40C2C
331
3286D
  5
32B66
331
3626A
  5
3CA62
331
4C512
  5
4C6ED
331
2E0D7
  5
2F7BA
331
2C6B1
  5
2F4F3
331
2C474
  5
2DEAC
331
2C493
  5
2F310
331
4C5A1
  5
4CC04
331
5A4A9
  5
5A52B
331
941B1
  5
52655
331
937D3
  5
4C100
331
5A4C8
  5
5A5B2
331
5351E
  5
535B5
331
53429
  5
534F9
331
92F72
  5
4C0E3
331
35BC4
  5
2F787
331
3E0F9
  5
40C2E
331
4C5A2
  5
4CC05
331
4C513
  5
4C6EE
331
2C6B2
  5
2F4F9
331
2C494
  5
2F311
331
2E0B9
  5
2F78C
331
2C346
  5
2C4EC
331
23AE2
  5
297E6
331
2C475
  5
2DEAD
331
2E0D8
  5
2F7BB
331
5A4AA
  5
5A52C
331
941B2
  5
5264C
331
5A4C9
  5
5A5B3
331
937D4
  5
5E64B
331
94193
  5
941AB
331
5A4E8
  5
5E60F
331
5342A
  5
534FA
331
5351F
  5
535B6
331
3626C
  5
3CA63
331
3418E
  5
38481
331
384DB
  5
2347C
331
4CC09
  5
4D7C7
331
4C514
  5
4C701
331
2E0D9
  5
2F7BD
331
4C5A3
  5
4CC06
331
2C6B3
  5
2F4FA
331
2C476
  5
2DEAE
331
23AE3
  5
297E7
331
241C2
  5
297FB
331
2C495
  5
2F312
331
2E0BA
  5
2F78D
331
4CC20
  5
4D85C
331
5A4E9
  5
5E610
331
5A500
  5
5E628
331
94194
  5
941AC
331
5A4AB
  5
5A52D
331
941B3
  5
52640
331
53520
  5
535B7
331
5342B
  5
534FB
331
937D5
  5
45999
331
5A4CA
  5
5A5B4
331
3F6B2
  5
31A1A
331
3418F
  5
38A1D
331
3E0FB
  5
40C2F
331
4CC0A
  5
4D7C9
331
4C5A4
  5
4CC0D
331
2E109
  5
2F834
331
2E150
  5
2FD25
331
4C515
  5
4C702
331
2C6B4
  5
2F4FB
331
2E0BB
  5
2F78E
331
2C496
  5
2F313
331
2C59D
  5
2F4A3
331
2C2A9
  5
2C4A2
331
241C3
  5
297FC
331
22955
  5
23480
331
23AE4
  5
297E8
331
2C477
  5
2DEAF
331
2E0DA
  5
2F7BE
331
5A501
  5
5E629
331
5A520
  5
5E648
331
5A4AC
  5
5A52E
331
5A4CB
  5
5A5B7
331
94195
  5
941AD
331
9361C
  5
93666
331
5A4EA
  5
5E611
331
3E0FC
  5
40C30
331
34190
  5
38A2B
331
384DD
  5
2347E
331
31A3F
  5
32B56
331
4C516
  5
4C703
331
2EF40
  5
2F952
331
2056D
  5
2056D
331
4C5A5
  5
4CC0E
331
2E0BC
  5
2F78F
331
2E0DB
  5
2F7BF
331
2C59E
  5
2F4A4
331
2C6B5
  5
2F4FC
331
2C478
  5
2DEB2
331
2C497
  5
2F314
331
2E10A
  5
2F835
331
4D870
  5
32B53
331
23AE5
  5
297E9
331
241C4
  5
297FD
331
22956
  5
23481
331
2C349
  5
2C4EF
331
5A521
  5
5E649
331
5A4CC
  5
5A5B8
331
5A4EB
  5
5E612
331
94196
  5
941AE
331
5A4AD
  5
5A547
331
5A502
  5
5E62A
331
53522
  5
535B9
331
9361D
  5
93667
331
937D7
  5
941A0
331
34191
  5
38A2C
331
3E0FD
  5
32B59
331
4D871
  5
32B52
331
51ED0
  5
51F8C
331
4CC0C
  5
4D7E6
331
2056E
  5
2056E
331
2E10B
  5
2F836
331
2C6B6
  5
2F4FD
331
2E0BD
  5
2F790
331
31A40
  5
32B57
331
20BE5
  5
21D1A
331
2C59F
  5
2F4A5
331
241C5
  5
297FE
331
22957
  5
23482
331
23AE6
  5
297EA
331
2C479
  5
2DEB3
331
4D6F2
  5
340C1
331
5A503
  5
5E62B
331
5A522
  5
5E64A
331
5A4AE
  5
5A548
331
5A4CD
  5
5A5B9
331
53485
  5
5351C
331
94197
  5
941AF
331
5A4EC
  5
5E613
331
3F75C
  5
2346A
331
328CB
  5
32B67
331
34192
  5
38A2D
331
3F6B5
  5
31A1B
331
51ED1
  5
51F8D
331
4CABE
  5
31A1E
331
4D6F3
  5
340C2
331
31A41
  5
32B58
331
4C518
  5
4C705
331
4C5A7
  5
4CC10
331
2E0BE
  5
2F791
331
2C5A0
  5
2F4A6
331
2C47A
  5
2DEB4
331
2C6B7
  5
2F4FE
331
23AE7
  5
297EB
331
241C6
  5
297FF
331
2E10C
  5
2F8D9
331
5A4CE
  5
5A5C3
331
5A4ED
  5
5E614
331
94198
  5
941B0
331
5A4AF
  5
5A549
331
534B5
  5
5354C
331
53486
  5
5351D
331
5A504
  5
5E62C
331
34193
  5
38A2E
331
3F75D
  5
23468
331
328CC
  5
32B68
331
4D6F4
  5
32B4F
331
4CC0E
  5
4D7E9
331
4C5A8
  5
4CC11
331
4D873
  5
32B4C
331
51ED2
  5
51F8E
331
2E0DE
  5
2F7C0
331
2E10D
  5
2F8DA
331
2C6B8
  5
2F500
331
2E0BF
  5
2F792
331
241C7
  5
29800
331
2C47B
  5
2DEB5
331
4C519
  5
4C707
331
5E6F3
  5
5F4F6
331
5A4EE
  5
5E615
331
5A505
  5
5E62D
331
5A4B0
  5
5A54A
331
5A4CF
  5
5A5C4
331
937AB
  5
4C120
331
535DC
  5
5374D
331
93620
  5
9366A
331
53487
  5
5351E
331
534B6
  5
5354D
331
94199
  5
941B1
331
35EB3
  5
3CA5F
331
34194
  5
38A2F
331
3F6B7
  5
31A21
331
51ED3
  5
51F8F
331
20BF8
  5
2341C
331
31A43
  5
32B5A
331
4C51A
  5
4C708
331
4D6F5
  5
32B49
331
2E0C0
  5
2F793
331
2E0DF
  5
2F7C1
331
2C47C
  5
2DEB6
331
2C6B9
  5
2F50D
331
2E10E
  5
2F8DB
331
61F90
  5
62016
331
5A525
  5
5E64C
331
5E6F4
  5
5F4F7
331
5A4D0
  5
5A5C5
331
5A4EF
  5
5E616
331
9419A
  5
941B2
331
5A4B1
  5
5A54C
331
534B7
  5
5354E
331
53439
  5
53502
331
93621
  5
9366B
331
53488
  5
5351F
331
5A506
  5
5E62E
331
3F6B8
  5
2F74F
331
34195
  5
38A30
331
35EB4
  5
3CA60
331
4C51B
  5
4C78D
331
4D875
  5
32B4D
331
2C47D
  5
2DEB7
331
2C6BA
  5
2F50E
331
2C34E
  5
2C4F0
331
2E0C1
  5
2F794
331
31A44
  5
32B5B
331
51ED4
  5
51F90
331
45F58
  5
46E67
331
61762
  5
62003
331
5E6F5
  5
5F4F8
331
5E764
  5
5F567
331
5A507
  5
5E62F
331
5A4B2
  5
5A54D
331
5A4D1
  5
5A5C7
331
5A526
  5
5E64D
331
53489
  5
53520
331
5343A
  5
53503
331
9419B
  5
941B3
331
61F91
  5
62017
331
3923B
  5
2F512
331
34196
  5
38A31
331
3F6B9
  5
2F748
331
4D876
  5
32B4B
331
2E110
  5
2FA1E
331
2E0C2
  5
2F795
331
31A45
  5
32B5C
331
51F50
  5
5200B
331
2C47E
  5
2DEB8
331
2C6BB
  5
2F50F
331
45F59
  5
46E68
331
61FD8
  5
6205E
331
61763
  5
62004
331
61F92
  5
62018
331
61FC1
  5
62047
331
5A508
  5
5E630
331
5A4D2
  5
5A5C8
331
5A527
  5
5E64E
331
94185
  5
4D837
331
9419C
  5
5264E
331
5A4B3
  5
5A54E
331
5E6F6
  5
5F4F9
331
5340C
  5
534F2
331
5343B
  5
53504
331
5348A
  5
53521
331
59B65
  5
5A50E
331
40ECC
  5
23442
331
34197
  5
38A33
331
3E303
  5
40C31
331
51F51
  5
5200C
331
4D877
  5
504D4
331
205BC
  5
205BC
331
2E111
  5
2FA1F
331
2C6BC
  5
2F510
331
2E0C3
  5
2F796
331
31A46
  5
32B5D
331
2C47F
  5
2DEB9
331
2C5A5
  5
2F4A8
331
4CB33
  5
31A1F
331
51ED6
  5
51F92
331
61F93
  5
62019
331
61FC2
  5
62048
331
5E6F7
  5
5F4FA
331
61764
  5
62005
331
45F5A
  5
46E69
331
5A4F2
  5
5E618
331
9419D
  5
52644
331
5A4B4
  5
5A54F
331
5A509
  5
5E631
331
53AA7
  5
32B5E
331
59B66
  5
5A50F
331
94186
  5
4D7BC
331
5343C
  5
53505
331
5348B
  5
53522
331
5340D
  5
534F5
331
5A528
  5
5E64F
331
3E304
  5
40C32
331
52168
  5
5265C
331
4D878
  5
32B51
331
51F52
  5
5200D
331
4CC13
  5
4D7F1
331
2E112
  5
2FA20
331
2E0C4
  5
2F797
331
2C5A6
  5
2F4A9
331
205BD
  5
205BD
331
45F5B
  5
46E6A
331
4608A
  5
46E78
331
61765
  5
62006
331
61F94
  5
6201A
331
6000E
  5
6008C
331
5A50A
  5
5E632
331
5A529
  5
5E650
331
5A4D4
  5
5A5C9
331
5A4F3
  5
5E619
331
59B67
  5
5A510
331
94187
  5
4D7AA
331
53619
  5
5378A
331
9419E
  5
52632
331
5A4B5
  5
5A550
331
5E6F8
  5
5F4FB
331
5340E
  5
534F6
331
5343D
  5
53506
331
5348C
  5
53523
331
52370
  5
4C0E4
331
51F53
  5
5200E
331
52012
  5
52628
331
2E113
  5
2FA21
331
2E0C5
  5
2F798
331
4BCD2
  5
4C050
331
61F95
  5
6201B
331
45F5C
  5
46E6B
331
5A52A
  5
5E651
331
6000F
  5
6008D
331
5A4F4
  5
5E61A
331
5A50B
  5
5E633
331
61766
  5
62007
331
9419F
  5
5264F
331
5A4B6
  5
5A551
331
5A4D5
  5
5A5CA
331
59B68
  5
5A511
331
94188
  5
4D7B8
331
5348D
  5
53524
331
5361A
  5
5378B
331
5A497
  5
5A51A
331
4162E
  5
431AD
331
51F11
  5
51FCD
331
51F54
  5
5200F
331
2E114
  5
2FA22
331
2E0C6
  5
2F799
331
4CFA4
  5
4C122
331
4D6FB
  5
2C479
331
52371
  5
4C125
331
4BCD3
  5
4C051
331
61FC5
  5
6204B
331
45F5D
  5
46E6C
331
61767
  5
62008
331
4162F
  5
4327E
331
5A50C
  5
5E634
331
5A52B
  5
5E652
331
61F96
  5
6201C
331
5A4D6
  5
5A5CB
331
5A4F5
  5
5E61B
331
59B69
  5
5A512
331
94189
  5
4D7AC
331
5361B
  5
5378C
331
5A498
  5
5A51B
331
941A0
  5
52646
331
5A4B7
  5
5A552
331
5348E
  5
53525
331
53410
  5
534F4
331
3E307
  5
40C33
331
51F55
  5
52010
331
52372
  5
4C450
331
2E115
  5
2FA23
331
2E0C7
  5
2F79A
331
4CFA5
  5
4C0FE
331
41630
  5
4327F
331
61FC6
  5
6204C
331
61768
  5
62009
331
45F5E
  5
46E6D
331
5A52C
  5
5E653
331
5A4F6
  5
5E61C
331
5A50D
  5
5E635
331
5A499
  5
5A51C
331
941A1
  5
52633
331
5A4B8
  5
5A553
331
937C3
  5
4C124
331
59B6A
  5
5A513
331
9418A
  5
4D7B7
331
5A4D7
  5
5A5CC
331
5355D
  5
535F4
331
5361C
  5
5378D
331
53411
  5
534F3
331
5FEB2
  5
5FF2F
331
61FDD
  5
62063
331
52015
  5
5262C
331
4CFA6
  5
4D85D
331
4D6FD
  5
2C450
331
2E116
  5
2FA24
331
4C592
  5
4C99F
331
4CC17
  5
4D835
331
45F5F
  5
46E6E
331
61FDE
  5
62064
331
41362
  5
23446
331
61769
  5
6200A
331
41631
  5
43280
331
5A50E
  5
5E636
331
5A52D
  5
5E654
331
5A4F7
  5
5E61D
331
59B6B
  5
5A514
331
9418B
  5
4D7AE
331
5A49A
  5
5A51D
331
941A2
  5
52650
331
5361D
  5
53790
331
534DF
  5
53576
331
541EC
  5
5A507
331
53449
  5
53512
331
5A4B9
  5
5A554
331
20C21
  5
23421
331
4C593
  5
4C9A0
331
4CC18
  5
4D836
331
318F5
  5
32B42
331
2E117
  5
2FA25
331
4CFA7
  5
4D861
331
4BD15
  5
4C0BB
331
4BD7C
  5
4C121
331
61FDF
  5
62065
331
41632
  5
43281
331
5A52E
  5
5E655
331
5A4F8
  5
5E61E
331
5A50F
  5
5E637
331
6176A
  5
6200B
331
5A49B
  5
5A51E
331
941A3
  5
52647
331
5A4BA
  5
5A555
331
541ED
  5
5A508
331
59B6C
  5
5A515
331
9418C
  5
4D7B6
331
5A4D9
  5
5A5CD
331
45F60
  5
46E6F
331
5344A
  5
53513
331
5361E
  5
53AE9
331
4BDC3
  5
4C162
331
4CC19
  5
4D838
331
4CFA8
  5
2F758
331
4CBFA
  5
4D7A8
331
318F6
  5
32B43
331
2E167
  5
2FD27
331
4C594
  5
4C9B8
331
4C210
  5
4C449
331
4BDC4
  5
4C163
331
4BD16
  5
4C0BC
331
61FC9
  5
6204F
331
45F61
  5
46E70
331
61FE0
  5
62066
331
5A510
  5
5E638
331
6176B
  5
6200C
331
5A4BB
  5
5A578
331
59B6D
  5
5A516
331
9418D
  5
4D7AF
331
5A49C
  5
5A51F
331
941A4
  5
52634
331
5A4F9
  5
5E61F
331
5361F
  5
53AEA
331
541EE
  5
5A509
331
5344B
  5
53514
331
937C6
  5
2F74A
331
52376
  5
4C102
331
4C595
  5
4C9E3
331
4CC1A
  5
4D839
331
318F7
  5
32B44
331
4C211
  5
4C44A
331
4BD17
  5
4C0BD
331
4C073
  5
4C41F
331
61FCA
  5
62050
331
60015
  5
60093
331
5A4FA
  5
5E621
331
5A511
  5
5E639
331
6176C
  5
6200D
331
5A49D
  5
5A520
331
941A5
  5
52651
331
5A4BC
  5
5A5A4
331
59B6E
  5
5A517
331
5344C
  5
53515
331
9418E
  5
4D7C8
331
5A4DB
  5
5A5D1
331
45F62
  5
46E71
331
52019
  5
52630
331
51F92
  5
52185
331
4CC1B
  5
4D83A
331
4C596
  5
4C9F0
331
4D861
  5
504D1
331
4C074
  5
4C420
331
45F63
  5
46E72
331
6176D
  5
6200E
331
5A512
  5
5E63A
331
5A4BD
  5
5A5A5
331
59B6F
  5
5A518
331
9418F
  5
4D7B5
331
5A49E
  5
5A521
331
941A6
  5
52648
331
5359A
  5
53631
331
541F0
  5
5A50A
331
5344D
  5
53516
331
5A4FB
  5
5E623
331
60016
  5
60094
331
5201A
  5
52631
331
4C597
  5
4CA0C
331
4C5CE
  5
21468
331
4BE06
  5
4C18B
331
4C213
  5
4C44C
331
4BD21
  5
4C0C7
331
45F64
  5
46E73
331
5FFC0
  5
6003E
331
60017
  5
60095
331
5E741
  5
5F544
331
5A4DD
  5
5A5DB
331
5A4FC
  5
5E624
331
5A49F
  5
5A522
331
941A7
  5
52635
331
541F1
  5
5A50B
331
5A4BE
  5
5A5A6
331
5359B
  5
53632
331
5A513
  5
5E63B
331
4BCE2
  5
4C067
331
4CC1D
  5
4D83B
331
5201B
  5
52641
331
5233A
  5
5265D
331
205D7
  5
205D7
331
4CBFE
  5
4D7B2
331
4C598
  5
4CA1B
331
4C214
  5
4C44D
331
4BE07
  5
4C18C
331
4BCE3
  5
4C068
331
4BD22
  5
4C0C8
331
44D56
  5
45997
331
61FCD
  5
62053
331
45F65
  5
46E74
331
60018
  5
60096
331
5E742
  5
5F545
331
5A514
  5
5E63C
331
5FFC1
  5
6003F
331
5A4BF
  5
5A5A7
331
5A4DE
  5
5A5DC
331
5A4A0
  5
5A523
331
941A8
  5
52652
331
5359C
  5
53633
331
541F2
  5
5A50C
331
5A4FD
  5
5E625
331
46B7C
  5
2345A
331
5201C
  5
52642
331
4CC1E
  5
4D83C
331
4C599
  5
4CA55
331
205D8
  5
205D8
331
4C5D0
  5
21D15
331
51E93
  5
51F4E
331
4C1FE
  5
4C437
331
4C42B
  5
4C570
331
4C038
  5
4C194
331
61FE5
  5
6206B
331
5FFC2
  5
60040
331
5A4DF
  5
5A5DD
331
5A4FE
  5
5E626
331
5A4A1
  5
5A524
331
941A9
  5
52649
331
5365C
  5
54C5A
331
541F3
  5
5A50D
331
5A4C0
  5
5A5A8
331
5359D
  5
53634
331
53497
  5
5352E
331
5A515
  5
5E63D
331
4BCE4
  5
4C069
331
4D865
  5
32B4E
331
5201D
  5
52643
331
205D9
  5
205D9
331
4C5D1
  5
21D16
331
20C30
  5
23422
331
4CC00
  5
4D7B4
331
4C59A
  5
4CBFB
331
4C42C
  5
4C571
331
4C48B
  5
4C63C
331
4C2ED
  5
2F750
331
4C039
  5
4C195
331
4C090
  5
2343F
331
4BDA3
  5
4C142
331
4C1FF
  5
4C438
331
46B7E
  5
23441
331
61FCF
  5
62055
331
45F67
  5
46E76
331
61FE6
  5
6206C
331
5FFC3
  5
60041
331
5A4FF
  5
5E627
331
5A516
  5
5E63E
331
5A4C1
  5
5A5A9
331
5A4E0
  5
5A5DF
331
5A7E5
  5
4C101
331
5359E
  5
53635
331
5A4A2
  5
5A525
331
941AA
  5
52636
331
523CC
  5
32B4A
331
4CC01
  5
4D7BD
331
4C59B
  5
4CBFC
331
205DA
  5
205DA
331
5201E
  5
5264D
331
4C48C
  5
4C63D
331
4C2EE
  5
2F759
331
4C091
  5
23449
331
4C200
  5
4C439
331
45F68
  5
46E77
331
5FFC4
  5
60042
331
4319A
  5
43C29
331
5A7E6
  5
5A5E0
331
4BDA4
  5
4C143
331
5A4E1
  5
5A5E1
331
5A4A3
  5
5A526
331
941AB
  5
52653
331
937CD
  5
5E617
331
5A4C2
  5
5A5AC
331
5359F
  5
53636
331
5A517
  5
5E63F
331
4D867
  5
32B55
331
5201F
  5
52656
331
4D660
  5
4C0E2
331
4C59C
  5
4CBFD
331
205DB
  5
205DB
331
4C5D3
  5
21D17
331
4CC02
  5
4D7BF
331
4C092
  5
23444
331
45F69
  5
46049
331
4BDCC
  5
46E79
331
5FFC5
  5
60043
331
4319B
  5
43C2A
331
5A518
  5
5E640
331
5A4C3
  5
5A5AD
331
5A4E2
  5
5A5E3
331
5A7E7
  5
5E656
331
937CE
  5
4C123
331
5365F
  5
54C5D
331
5A4A4
  5
5A527
331
941AC
  5
5264A
331
4C201
  5
4C43A
331
4C59D
  5
4CBFF
331
52020
  5
52657
331
4C2F0
  5
4C44E
331
4C202
  5
4C43B
331
45F6A
  5
4604A
331
61FE9
  5
6206F
331
61FD2
  5
62058
331
5A519
  5
5E641
331
5A4E3
  5
5A5F3
331
941AD
  5
52637
331
5A4C4
  5
5A5AE
331
415C5
  5
43144
331
52021
  5
52658
331
4D869
  5
32B54
331
4C59E
  5
4CC00
331
4CC04
  5
4D7C1
331
51F4F
  5
5200A
331
4C203
  5
4C43C
331
61FD3
  5
62059
331
5E748
  5
5F54B
331
415C6
  5
43145
331
5A51A
  5
5E642
331
941AE
  5
52654
331
5A4C5
  5
5A5AF
331
5A4E4
  5
5A81F
331
61FEA
  5
62070
331
5A4A6
  5
5A528
331
4C59F
  5
4CC01
331
523D0
  5
2C491
331
4C204
  5
4C43D
331
470AB
  5
48914
331
5A51B
  5
5E643
331
5A4E5
  5
5A820
331
5A7EA
  5
5A5E2
331
5A4A7
  5
5A529
331
941AF
  5
5264B
331
5A4C6
  5
5A5B0
331
5E749
  5
5F54C
331
4D86B
  5
32B50
331
4D664
  5
4C0C9
331
4C205
  5
4C43E
331
4BCF3
  5
4C07A
331
4BDE0
  5
4C172
331
5A7EB
  5
5A5D2
331
5E74A
  5
5F54D
331
5A51C
  5
5E644
331
61F87
  5
6200F
331
5A4C7
  5
5A5B1
331
5A4E6
  5
5A821
331
523D2
  5
2C478
331
4C2F4
  5
40C8B
331
4C206
  5
4C43F
331
4C43B
  5
4C580
331
4BDE1
  5
4C173
331
4BCF4
  5
4C07B
331
4BD5B
  5
4C0E6
331
4C048
  5
4C1A4
331
61FD6
  5
6205C
331
61F88
  5
62010
331
60031
  5
600AF
331
45ED7
  5
23440
331
5A51D
  5
5E645
331
5A4E7
  5
5A822
331
5A7EC
  5
5A5DE
331
5E74B
  5
5F54E
331
4C43C
  5
4C581
331
4C503
  5
4C6B4
331
4C207
  5
4C440
331
4C049
  5
4C1A5
331
4BDB3
  5
4C152
331
4BCF5
  5
4C07D
331
5A51E
  5
5E646
331
4C2F5
  5
4C452
331
52355
  5
2F75D
331
51FCF
  5
525D8
331
4C504
  5
4C6B5
331
4C27F
  5
23436
331
4C208
  5
4C441
331
4BDB4
  5
4C153
331
41613
  5
43192
331
5A51F
  5
5E647
331
61F8A
  5
62011
331
61FB9
  5
6203F
331
52356
  5
2F75B
331
51FD0
  5
525D9
331
51ECE
  5
51F8A
331
4C209
  5
4C442
331
4C280
  5
23435
331
4C505
  5
4C6B6
331
61FBA
  5
62040
331
45F52
  5
46E5E
331
41614
  5
43193
331
72949
  5
72DCD
331
51ECF
  5
51F8B
331
51FD1
  5
525DA
331
4C506
  5
4C6B7
331
4C20A
  5
4C443
331
45F53
  5
46E60
331
61F8C
  5
62012
331
61FBB
  5
62041
331
7294A
  5
72DCE
331
52358
  5
2F75C
331
51FD2
  5
525DB
331
4C20B
  5
4C444
331
4C507
  5
4C6E2
331
4BCC2
  5
4C040
331
61FBC
  5
62042
331
45F54
  5
46E62
331
7294B
  5
72DCF
331
52359
  5
2F75A
331
51FD3
  5
525DC
331
4C508
  5
4C6E3
331
4C10D
  5
4C428
331
4C20C
  5
4C445
331
45F55
  5
46E64
331
4BCC3
  5
4C041
  0
LAYOUT
  5
20
102
{ACAD_REACTORS
330
1E
102
}
330
1E
100
AcDbPlotSettings
  1

  2
none_device
  4
ISO_A4_(210.00_x_297.00_MM)
  6

 40
7.5
 41
20.0
 42
7.5
 43
20.0
 44
210.0
 45
297.0
 46
0.0
 47
0.0
 48
0.0
 49
0.0
140
0.0
141
0.0
142
1.0
143
1.0
 70
 11264
 72
     1
 73
     1
 74
     0
  7

 75
     0
147
1.0
 76
     0
 77
     2
 78
   300
148
916.8712341080579
149
627.2450171497188
100
AcDbLayout
  1
Model
 70
     0
 71
     0
 10
0.0
 20
0.0
 11
0.0
 21
0.0
 12
0.0
 22
0.0
 32
0.0
 14
0.0
 24
0.0
 34
0.0
 15
0.0
 25
0.0
 35
0.0
146
0.0
 13
0.0
 23
0.0
 33
0.0
 16
0.0
 26
0.0
 36
0.0
 17
0.0
 27
0.0
 37
0.0
 76
     0
330
A
331
15
1001
ACAD_PSEXT
1000
なし
1000
なし
1000
適切ではありません
1000
新しいプロッタ環境設定名を選択しない限り、レイアウトは印刷されません。
1070
     0
  0
LAYOUT
  5
941E5
102
{ACAD_XDICTIONARY
360
941F2
102
}
102
{ACAD_REACTORS
330
1E
102
}
330
1E
100
AcDbPlotSettings
  1

  2
none_device
  4
ISO_A4_(210.00_x_297.00_MM)
  6

 40
7.5
 41
20.0
 42
7.5
 43
20.0
 44
210.0
 45
297.0
 46
0.0
 47
0.0
 48
0.0
 49
0.0
140
0.0
141
0.0
142
1.0
143
1.0
 70
   688
 72
     1
 73
     1
 74
     5
  7

 75
    16
147
1.0
 76
     0
 77
     2
 78
   300
148
0.0
149
0.0
100
AcDbLayout
  1
レイアウト1
 70
     1
 71
     1
 10
-20.0
 20
-7.5
 11
277.0
 21
202.5
 12
0.0
 22
0.0
 32
0.0
 14
1.000000000000000E+20
 24
1.000000000000000E+20
 34
1.000000000000000E+20
 15
-1.000000000000000E+20
 25
-1.000000000000000E+20
 35
-1.000000000000000E+20
146
0.0
 13
0.0
 23
0.0
 33
0.0
 16
1.0
 26
0.0
 36
0.0
 17
0.0
 27
1.0
 37
0.0
 76
     0
330
941E4
331
941EB
1001
ACAD_PSEXT
1000
なし
1000
なし
1000
適切ではありません
1000
新しいプロッタ環境設定名を選択しない限り、レイアウトは印刷されません。
1070
     0
  0
MATERIAL
  5
96F
102
{ACAD_REACTORS
330
96D
102
}
330
96D
100
AcDbMaterial
  1
ByBlock
  0
MATERIAL
  5
96E
102
{ACAD_REACTORS
330
96D
102
}
330
96D
100
AcDbMaterial
  1
ByLayer
  0
MATERIAL
  5
970
102
{ACAD_REACTORS
330
96D
102
}
330
96D
100
AcDbMaterial
  1
Global
  0
MLINESTYLE
  5
1C
102
{ACAD_REACTORS
330
1B
102
}
330
1B
100
AcDbMlineStyle
  2
STANDARD
 70
     0
  3

 62
     0
 51
90.0
 52
90.0
 71
     2
 49
0.5
 62
   256
  6
BYLAYER
 49
-0.5
 62
   256
  6
BYLAYER
  0
ACDBPLACEHOLDER
  5
1D
102
{ACAD_REACTORS
330
1F
102
}
330
1F
  0
TABLESTYLE
  5
984
102
{ACAD_REACTORS
330
983
102
}
330
983
100
AcDbTableStyle
  3
Standard
 70
     0
 71
     0
 40
1.5
 41
1.5
280
     0
281
     0
  7
Standard
140
4.5
170
     2
 62
     0
 63
     7
283
     0
 90
      512
 91
        0
  1

274
    -2
284
     1
 64
     0
275
    -2
285
     1
 65
     0
276
    -2
286
     1
 66
     0
277
    -2
287
     1
 67
     0
278
    -2
288
     1
 68
     0
279
    -2
289
     1
 69
     0
  7
Standard
140
6.0
170
     5
 62
     0
 63
     7
283
     0
 90
      512
 91
        0
  1

274
    -2
284
     1
 64
     0
275
    -2
285
     1
 65
     0
276
    -2
286
     1
 66
     0
277
    -2
287
     1
 67
     0
278
    -2
288
     1
 68
     0
279
    -2
289
     1
 69
     0
  7
Standard
140
4.5
170
     5
 62
     0
 63
     7
283
     0
 90
      512
 91
        0
  1

274
    -2
284
     1
 64
     0
275
    -2
285
     1
 65
     0
276
    -2
286
     1
 66
     0
277
    -2
287
     1
 67
     0
278
    -2
288
     1
 68
     0
279
    -2
289
     1
 69
     0
  0
VISUALSTYLE
  5
977
102
{ACAD_REACTORS
330
971
102
}
330
971
100
AcDbVisualStyle
  2
2dWireframe
 70
     4
 71
     0
 72
     2
 73
     0
 90
        0
 40
-0.6
 41
-30.0
 62
     5
 63
     7
421
 16777215
 74
     1
 91
        4
 64
     7
 65
   257
 75
     1
175
     1
 42
1.0
 92
        0
 66
   257
 43
1.0
 76
     1
 77
     6
 78
     2
 67
     7
 79
     5
170
     0
171
     0
290
     0
174
     0
 93
        1
 44
0.0
173
     0
291
     0
 45
0.0
  0
VISUALSTYLE
  5
978
102
{ACAD_REACTORS
330
971
102
}
330
971
100
AcDbVisualStyle
  2
3dWireframe
 70
     5
 71
     0
 72
     2
 73
     0
 90
        0
 40
-0.6
 41
-30.0
 62
     5
 63
     7
421
 16777215
 74
     1
 91
        4
 64
     7
 65
   257
 75
     1
175
     1
 42
1.0
 92
        0
 66
   257
 43
1.0
 76
     1
 77
     6
 78
     2
 67
     7
 79
     5
170
     0
171
     0
290
     0
174
     0
 93
        1
 44
0.0
173
     0
291
     0
 45
0.0
  0
VISUALSTYLE
  5
976
102
{ACAD_REACTORS
330
971
102
}
330
971
100
AcDbVisualStyle
  2
Basic
 70
     7
 71
     1
 72
     0
 73
     1
 90
        0
 40
-0.6
 41
-30.0
 62
     5
 63
     7
421
 16777215
 74
     0
 91
        4
 64
     7
 65
   257
 75
     1
175
     1
 42
1.0
 92
        8
 66
     7
 43
1.0
 76
     1
 77
     6
 78
     2
 67
     7
 79
     5
170
     0
171
     0
290
     0
174
     0
 93
        1
 44
0.0
173
     0
291
     1
 45
0.0
  0
VISUALSTYLE
  5
97D
102
{ACAD_REACTORS
330
971
102
}
330
971
100
AcDbVisualStyle
  2
Brighten
 70
    12
 71
     2
 72
     2
 73
     0
 90
        0
 40
-0.6
 41
-30.0
 62
     5
 63
     7
421
 16777215
 74
     1
 91
        4
 64
     7
 65
   257
 75
     1
175
     1
 42
1.0
 92
        8
 66
     7
 43
1.0
 76
     1
 77
     6
 78
     2
 67
     7
 79
     5
170
     0
171
     0
290
     0
174
     0
 93
        1
 44
50.0
173
     0
291
     1
 45
0.0
  0
VISUALSTYLE
  5
981
102
{ACAD_REACTORS
330
971
102
}
330
971
100
AcDbVisualStyle
  2
ColorChange
 70
    16
 71
     2
 72
     2
 73
     3
 90
        0
 40
-0.6
 41
-30.0
 62
     5
 63
     8
421
  8421504
 74
     1
 91
        4
 64
     7
 65
   257
 75
     1
175
     1
 42
1.0
 92
        8
 66
     8
424
  8421504
 43
1.0
 76
     1
 77
     6
 78
     2
 67
     7
 79
     5
170
     0
171
     0
290
     0
174
     0
 93
        1
 44
0.0
173
     0
291
     1
 45
0.0
  0
VISUALSTYLE
  5
97C
102
{ACAD_REACTORS
330
971
102
}
330
971
100
AcDbVisualStyle
  2
Dim
 70
    11
 71
     2
 72
     2
 73
     0
 90
        0
 40
-0.6
 41
-30.0
 62
     5
 63
     7
421
 16777215
 74
     1
 91
        4
 64
     7
 65
   257
 75
     1
175
     1
 42
1.0
 92
        8
 66
     7
 43
1.0
 76
     1
 77
     6
 78
     2
 67
     7
 79
     5
170
     0
171
     0
290
     0
174
     0
 93
        1
 44
-50.0
173
     0
291
     1
 45
0.0
  0
VISUALSTYLE
  5
980
102
{ACAD_REACTORS
330
971
102
}
330
971
100
AcDbVisualStyle
  2
Facepattern
 70
    15
 71
     2
 72
     2
 73
     0
 90
        0
 40
-0.6
 41
-30.0
 62
     5
 63
     7
421
 16777215
 74
     1
 91
        4
 64
     7
 65
   257
 75
     1
175
     1
 42
1.0
 92
        8
 66
     7
 43
1.0
 76
     1
 77
     6
 78
     2
 67
     7
 79
     5
170
     0
171
     0
290
     0
174
     0
 93
        1
 44
0.0
173
     0
291
     1
 45
0.0
  0
VISUALSTYLE
  5
972
102
{ACAD_REACTORS
330
971
102
}
330
971
100
AcDbVisualStyle
  2
Flat
 70
     0
 71
     2
 72
     1
 73
     1
 90
        2
 40
-0.6
 41
30.0
 62
     5
 63
     7
421
 16777215
 74
     0
 91
        4
 64
     7
 65
   257
 75
     1
175
     1
 42
1.0
 92
        8
 66
     7
 43
1.0
 76
     1
 77
     6
 78
     2
 67
     7
 79
     5
170
     0
171
     0
290
     0
174
     0
 93
       13
 44
0.0
173
     0
291
     1
 45
0.0
  0
VISUALSTYLE
  5
973
102
{ACAD_REACTORS
330
971
102
}
330
971
100
AcDbVisualStyle
  2
FlatWithEdges
 70
     1
 71
     2
 72
     1
 73
     1
 90
        2
 40
-0.6
 41
30.0
 62
     5
 63
     7
421
 16777215
 74
     1
 91
        4
 64
     7
 65
   257
 75
     1
175
     1
 42
1.0
 92
        0
 66
   257
 43
1.0
 76
     1
 77
     6
 78
     2
 67
     7
 79
     5
170
     0
171
     0
290
     0
174
     0
 93
       13
 44
0.0
173
     0
291
     1
 45
0.0
  0
VISUALSTYLE
  5
974
102
{ACAD_REACTORS
330
971
102
}
330
971
100
AcDbVisualStyle
  2
Gouraud
 70
     2
 71
     2
 72
     2
 73
     1
 90
        2
 40
-0.6
 41
30.0
 62
     5
 63
     7
421
 16777215
 74
     0
 91
        4
 64
     7
 65
   257
 75
     1
175
     1
 42
1.0
 92
        0
 66
     7
 43
1.0
 76
     1
 77
     6
 78
     2
 67
     7
 79
     5
170
     0
171
     0
290
     0
174
     0
 93
       13
 44
0.0
173
     0
291
     1
 45
0.0
  0
VISUALSTYLE
  5
975
102
{ACAD_REACTORS
330
971
102
}
330
971
100
AcDbVisualStyle
  2
GouraudWithEdges
 70
     3
 71
     2
 72
     2
 73
     1
 90
        2
 40
-0.6
 41
30.0
 62
     5
 63
     7
421
 16777215
 74
     1
 91
        4
 64
     7
 65
   257
 75
     1
175
     1
 42
1.0
 92
        0
 66
   257
 43
1.0
 76
     1
 77
     6
 78
     2
 67
     7
 79
     5
170
     0
171
     0
290
     0
174
     0
 93
       13
 44
0.0
173
     0
291
     1
 45
0.0
  0
VISUALSTYLE
  5
97F
102
{ACAD_REACTORS
330
971
102
}
330
971
100
AcDbVisualStyle
  2
Linepattern
 70
    14
 71
     2
 72
     2
 73
     0
 90
        0
 40
-0.6
 41
-30.0
 62
     5
 63
     7
421
 16777215
 74
     1
 91
        4
 64
     7
 65
   257
 75
     7
175
     7
 42
1.0
 92
        8
 66
     7
 43
1.0
 76
     1
 77
     6
 78
     2
 67
     7
 79
     5
170
     0
171
     0
290
     0
174
     0
 93
        1
 44
0.0
173
     0
291
     1
 45
0.0
  0
VISUALSTYLE
  5
97B
102
{ACAD_REACTORS
330
971
102
}
330
971
100
AcDbVisualStyle
  2
Realistic
 70
     8
 71
     2
 72
     2
 73
     0
 90
        0
 40
-0.6
 41
-30.0
 62
     5
 63
     7
421
 16777215
 74
     1
 91
        0
 64
     7
 65
   257
 75
     1
175
     1
 42
1.0
 92
        8
 66
     8
424
  7895160
 43
1.0
 76
     1
 77
     6
 78
     2
 67
     7
 79
     5
170
     0
171
     0
290
     0
174
     0
 93
       13
 44
0.0
173
     0
291
     0
 45
0.0
  0
VISUALSTYLE
  5
97E
102
{ACAD_REACTORS
330
971
102
}
330
971
100
AcDbVisualStyle
  2
Thicken
 70
    13
 71
     2
 72
     2
 73
     0
 90
        0
 40
-0.6
 41
-30.0
 62
     5
 63
     7
421
 16777215
 74
     1
 91
        4
 64
     7
 65
   257
 75
     1
175
     1
 42
1.0
 92
       12
 66
     7
 43
1.0
 76
     1
 77
     6
 78
     2
 67
     7
 79
     5
170
     0
171
     0
290
     0
174
     0
 93
        1
 44
0.0
173
     0
291
     1
 45
0.0
  0
DICTIONARYVAR
  5
98F
102
{ACAD_REACTORS
330
98E
102
}
330
98E
100
DictionaryVariables
280
     0
  1
STANDARD
  0
DICTIONARYVAR
  5
1108F
102
{ACAD_REACTORS
330
98E
102
}
330
98E
100
DictionaryVariables
280
     0
  1
4
  0
XRECORD
  5
94218
102
{ACAD_REACTORS
330
94217
102
}
330
94217
100
AcDbXrecord
280
     1
  0
DICTIONARY
  5
941F2
330
941E5
100
AcDbDictionary
280
     1
281
     1
  3
ADSK_XREC_LAYOUTTHUMBNAIL
360
941F3
  0
XRECORD
  5
941F3
102
{ACAD_REACTORS
330
941F2
102
}
330
941F2
100
AcDbXrecord
280
     1
310
28000000B40000007F00000001000800000000004C59000000000000000000000001000000000000FFFFFF0000000000FFFFFF000000000000000000000000000000000000000000000000000000000000000000330000006600000099000000CC000000FF00000000330000333300006633000099330000CC330000FF3300
310
0000660000336600006666000099660000CC660000FF66000000990000339900006699000099990000CC990000FF99000000CC000033CC000066CC000099CC0000CCCC0000FFCC000000FF000033FF000066FF000099FF0000CCFF0000FFFF000000003300330033006600330099003300CC003300FF003300003333003333
310
33006633330099333300CC333300FF33330000663300336633006666330099663300CC663300FF66330000993300339933006699330099993300CC993300FF99330000CC330033CC330066CC330099CC3300CCCC3300FFCC330000FF330033FF330066FF330099FF3300CCFF3300FFFF330000006600330066006600660099
310
006600CC006600FF00660000336600333366006633660099336600CC336600FF33660000666600336666006666660099666600CC666600FF66660000996600339966006699660099996600CC996600FF99660000CC660033CC660066CC660099CC6600CCCC6600FFCC660000FF660033FF660066FF660099FF6600CCFF6600
310
FFFF660000009900330099006600990099009900CC009900FF00990000339900333399006633990099339900CC339900FF33990000669900336699006666990099669900CC669900FF66990000999900339999006699990099999900CC999900FF99990000CC990033CC990066CC990099CC9900CCCC9900FFCC990000FF99
310
0033FF990066FF990099FF9900CCFF9900FFFF99000000CC003300CC006600CC009900CC00CC00CC00FF00CC000033CC003333CC006633CC009933CC00CC33CC00FF33CC000066CC003366CC006666CC009966CC00CC66CC00FF66CC000099CC003399CC006699CC009999CC00CC99CC00FF99CC0000CCCC0033CCCC0066CC
310
CC0099CCCC00CCCCCC00FFCCCC0000FFCC0033FFCC0066FFCC0099FFCC00CCFFCC00FFFFCC000000FF003300FF006600FF009900FF00CC00FF00FF00FF000033FF003333FF006633FF009933FF00CC33FF00FF33FF000066FF003366FF006666FF009966FF00CC66FF00FF66FF000099FF003399FF006699FF009999FF00CC
310
99FF00FF99FF0000CCFF0033CCFF0066CCFF0099CCFF00CCCCFF00FFCCFF0000FFFF0033FFFF0066FFFF0099FFFF00CCFFFF00FFFFFF00000000000D0D0D001A1A1A00282828003535350043434300505050005D5D5D006B6B6B00787878008686860093939300A1A1A100AEAEAE00BBBBBB00C9C9C900D6D6D600E4E4E400
310
F1F1F100FFFFFF0000000000000000000000000000000000000000000000000000000000000000000000000000000000E2E2E2E2E2E2E2E2E2E2E2E2E2E2E2E2E2E2E2E2E2E2E2E2E2E2E2E2E2E2E2E2E2E2E2E2E2E2E2E2E2E2E2E2E2E2E2E2E2E2E2E2E2E2E2E2E2E2E2E2E2E2E2E2E2E2E2E2E2E2E2E2E2E2E2E2E2E2E2
310
E2E2E2E2E2E2E2E2E2E2E2E2E2E2E2E2E2E2E2E2E2E2E2E2E2E2E2E2E2E2E2E2E2E2E2E2E2E2E2E2E2E2E2E2E2E2E2E2E2E2E2E2E2E2E2E2E2E2E2E2E2E2E2E2E2E2E2E2E2E2E2E2E2E2E2E2E2E2E2E2E2E2E2E2E2E2E2E2E2E2E2E2E2E2E2E2E2E2E2E2E2E2F5F5F5F5F5F5F5F5F5F5F5F5F5F5F5F5F5F5F5F5F5F5F5F5F5
310
F5F5F5F5F5F5F5F5F5F5F5F5F5F5F5F5F5F5F5F5F5F5F5F5F5F5F5F5F5F5F5F5F5F5F5F5F5F5F5F5F5F5F5F5F5F5F5F5F5F5F5F5F5F5F5F5F5F5F5F5F5F5F5F5F5F5F5F5F5F5F5F5F5F5F5F5F5F5F5F5F5F5F5F5F5F5F5F5F5F5F5F5F5F5F5F5F5F5F5F5F5F5F5F5F5F5F5F5F5F5F5F5F5F5F5F5F5F5F5F5F5F5F5F5F5F5F5
310
F5F5F5F5F5F5F5F5F5F5F5F5F5F5F5F5F5F5F5F5F5F5F5F5F5F5E2E2F5F5F5F5F5F5F5F5F5F5F5F5F5F5F5F5F5F5F5F5F5F5F5F5F5F5F5F5F5F5F5F5F5F5F5F5F5F5F5F5F5F5F5F5F5F5F5F5F5F5F5F5F5F5F5F5F5F5F5F5F5F5F5F5F5F5F5F5F5F5F5F5F5F5F5F5F5F5F5F5F5F5F5F5F5F5F5F5F5F5F5F5F5F5F5F5F5F5F5
310
F5F5F5F5F5F5F5F5F5F5F5F5F5F5F5F5F5F5F5F5F5F5F5F5F5F5F5F5F5F5F5F5F5F5F5F5F5F5F5F5F5F5F5F5F5F5F5F5F5F5F5F5F5F5F5F5F5F5F5F5F5F5F5F5F5F5F5F5F5F5F5F5F5F5F5F5F5F5F5E2E2F5F5F5F5F5F5F5F5F5F5F5F5F5F5F5F5F5F5F5F5F5F5F5F5F5F5F5F5F5F5F5F5F5F5F5F5F5F5F5F5F5F5F5F5F5F5
310
F5F5F5F5F5F5F5F5F5F5F5F5F5F5F5F5F5F5F5F5F5F5F5F5F5F5F5F5F5F5F5F5F5F5F5F5F5F5F5F5F5F5F5F5F5F5F5F5F5F5F5F5F5F5F5F5F5F5F5F5F5F5F5F5F5F5F5F5F5F5F5F5F5F5F5F5F5F5F5F5F5F5F5F5F5F5F5F5F5F5F5F5F5F5F5F5F5F5F5F5F5F5F5F5F5F5F5F5F5F5F5F5F5F5F5F5F5F5F5F5F5F5F5F5F5F5F5
310
F5F5F5F5F5E2E2F5F5F5F5F5F5F5F5F5F5F5F5F5F5F5F5F5F5F5F5F5F5F5F5F5F5F5F5F5F5F5F5F5F5F5F5F5F5F5F5F5F5F5F5F5F5F5F5F5F5F5F5F5F5F5F5F5F5F5F5F5F5F5F5F5F5F5F5F5F5F5F5F5F5F5F5F5F5F5F5F5F5F5F5F5F5F5F5F5F5F5F5F5F5F5F5F5F5F5F5F5F5F5F5F5F5F5F5F5F5F5F5F5F5F5F5F5F5F5F5
310
F5F5F5F5F5F5F5F5F5F5F5F5F5F5F5F5F5F5F5F5F5F5F5F5F5F5F5F5F5F5F5F5F5F5F5F5F5F5F5F5F5F5F5F5F5F5F5F5F5F5F5F5F5F5F5F5F5F5E2E2F5F5F5F5F5F5F5F5F5F5F5E2E2E2E2E2E2E2E2E2F5F5F5F5F5F5F5F5F5E2E2E2E2E2E2E2E2E2E2E2E2E2E2E2E2E2F5F5F5F5F5F5F5F5F5E2E2E2E2E2E2E2E2E2E2E2E2
310
E2E2E2E2F5F5F5F5F5F5F5F5F5F5E2E2E2E2E2E2E2E2E2E2E2E2E2E2E2E2F5F5F5F5F5F5F5F5F5F5E2E2E2E2E2E2E2E2E2E2E2E2E2E2E2E2F5F5F5F5F5F5F5F5F5E2E2E2E2E2E2E2E2E2E2E2E2E2E2E2E2E2F5F5F5F5F5F5F5F5F5E2E2E2E2E2E2E2E2E2F5F5F5F5F5F5F5F5F5F5F5E2E2F5F5F5F5F5F5F5F5F5F5F5E2F5F5
310
F5F5F5F5F5F5F5F5F5F5F5F5F5F5F5F5F5F5F5F5F5F5F5F5F5F5F5F5F5F5F5F5F5F5F5F5F5F5F5F5F5F5F5F5F5F5F5F5F5F5F5F5F5F5F5F5F5F5F5F5F5F5F5F5F5F5F5F5F5F5F5F5F5F5F5F5F5F5F5F5F5F5F5F5F5F5F5F5F5F5F5F5F5F5F5F5F5F5F5F5F5F5F5F5F5F5F5F5F5F5F5F5F5F5F5F5F5F5F5F5F5F5F5F5F5F5F5
310
F5F5F5F5F5F5F5F5F5F5F5F5F5F5F5F5F5F5F5F5F5F5F5F5F5E2F5F5F5F5F5F5F5F5F5F5F5E2E2F5F5F5F5F5F5F5F5F5F5F5E2F5F5F5F5F5F5F5F5F5F5F5F5F5F5F5F5F5F5F5F5F5F5F5F5F5F5F5F5F5F5F5F5F5F5F5F5F5F5F5F5F5F5F5F5F5F5F5F5F5F5F5F5F5F5F5F5F5F5F5F5F5F5F5F5F5F5F5F5F5F5F5F5F5F5F5F5
310
F5F5F5F5F5F5F5F5F5F5F5F5F5F5F5F5F5F5F5F5F5F5F5F5F5F5F5F5F5F5F5F5F5F5F5F5F5F5F5F5F5F5F5F5F5F5F5F5F5F5F5F5F5F5F5F5F5F5F5F5F5F5F5F5F5F5F5F5F5F5F5F5F5F5F5F5F5F5E2F5F5F5F5F5F5F5F5F5F5F5E2E2F5F5F5F5F5F5F5F5F5F5F5E2F5F5F5F5F5F5F5F5F5F5F5F5F5F5F5F5F5F5F5F5F5F5F5
310
F5F5F5F5F5F5F5F5F5F5F5F5F5F5F5F5F5F5F5F5F5F5F5F5F5F5F5F5F5F5F5F5F5F5F5F5F5F5F5F5F5F5F5F5F5F5F5F5F5F5F5F5F5F5F5F5F5F5F5F5F5F5F5F5F5F5F5F5F5F5F5F5F5F5F5F5F5F5F5F5F5F5F5F5F5F5F5F5F5F5F5F5F5F5F5F5F5F5F5F5F5F5F5F5F5F5F5F5F5F5F5F5F5F5F5F5F5F5F5F5F5F5F5F5F5F5F5
310
F5F5F5F5E2F5F5F5F5F5F5F5F5F5F5F5E2E2F5F5F5F5F5F5F5F5F5F5F5E2F5F5F5F5F5F5F5F5F5F5F5F5F5F5F5F5F5F5F5F5F5F5F5F5F5F5F5F5F5F5F5F5F5F5F5F5F5F5F5F5F5F5F5F5F5F5F5F5F5F5F5F5F5F5F5F5F5F5F5F5F5F5F5F5F5F5F5F5F5F5F5F5F5F5F5F5F5F5F5F5F5F5F5F5F5F5F5F5F5F5F5F5F5F5F5F5F5
310
F5F5F5F5F5F5F5F5F5F5F5F5F5F5F5F5F5F5F5F5F5F5F5F5F5F5F5F5F5F5F5F5F5F5F5F5F5F5F5F5F5F5F5F5F5F5F5F5F5F5F5F5F5F5F5F5F5E2F5F5F5F5F5F5F5F5F5F5F5E2E2F5F5F5F5F5F5F5F5F5F5F5E2F5F5F5F5F5F5F5F5F5F5F5F5F5F5F5F5F5F5F5F5F5F5F5F5F5F5F5F5F5F5F5F5F5F5F5F5F5F5F5F5F5F5F5F5
310
F5F5F5F5F5F5F5F5F5F5F5F5F5F5F5F5F5F5F5F5F5F5F5F5F5F5F5F5F5F5F5F5F5F5F5F5F5F5F5F5F5F5F5F5F5F5F5F5F5F5F5F5F5F5F5F5F5F5F5F5F5F5F5F5F5F5F5F5F5F5F5F5F5F5F5F5F5F5F5F5F5F5F5F5F5F5F5F5F5F5F5F5F5F5F5F5F5F5F5F5F5F5F5F5F5F5F5F5F5F5E2F5F5F5F5F5F5F5F5F5F5F5E2E2F5F5F5
310
F5F5F5F5F5F5F5F5E2F5F5F5F5F5F5F5F5F5F5F5F5F5F5F5F5F5F5F5F5F5F5F5F5F5F5F5F5F5F5F5F5F5F5F5F5F5F5F5F5F5F5F5F5F5F5F5F5F5F5F5F5F5F5F5F5F5F5F5F5F5F5F5F5F5F5F5F5F5F5F5F5F5F5F5F5F5F5F5F5F5F5F5F5F5F5F5F5F5F5F5F5F5F5F5F5F5F5F5F5F5F5F5F5F5F5F5F5F5F5F5F5F5F5F5F5F5F5
310
F5F5F5F5F5F5F5F5F5F5F5F5F5F5F5F5F5F5F5F5F5F5F5F5F5F5F5F5F5F5F5F5F5F5F5F5E2F5F5F5F5F5F5F5F5F5F5F5E2E2F5F5F5F5F5F5F5F5F5F5F5E2F5F5F5F5F5F5F5F5F5F5F5F5F5F5F5F5F5F5F5F5F5F5F5F5F5F5F5F5F5F5F5F5F5F5F5F5F5F5F5F5F5F5F5F5F5F5F5F5F5F5F5F5F5F5F5F5F5F5F5F5F5F5F5F5F5
310
F5F5F5F5F5F5F5F5F5F5F5F5F5F5F5F5F5F5F5F5F5F5F5F5F5F5F5F5F5F5F5F5F5F5F5F5F5F5F5F5F5F5F5F5F5F5F5F5F5F5F5F5F5F5F5F5F5F5F5F5F5F5F5F5F5F5F5F5F5F5F5F5F5F5F5F5F5F5F5F5F5F5F5F5F5F5F5F5F5E2F5F5F5F5F5F5F5F5F5F5F5E2E2F5F5F5F5F5F5F5F5F5F5F5F5F5F5F5F5F5F5F5F5F5F5F5F5
310
F5F5F5F5F5F5F5F5F5F5F5F5F5F5F5F5F5F5F5F5F5F5F5F5F5F5F5F5F5F5F5F5F5F5F5F5F5F5F5F5F5F5F5F5F5F5F5F5F5F5F5F5F5F5F5F5F5F5F5F5F5F5F5F5F5F5F5F5F5F5F5F5F5F5F5F5F5F5F5F5F5F5F5F5F5F5F5F5F5F5F5F5F5F5F5F5F5F5F5F5F5F5F5F5F5F5F5F5F5F5F5F5F5F5F5F5F5F5F5F5F5F5F5F5F5F5F5
310
F5F5F5F5F5F5F5F5F5F5F5F5F5F5F5F5F5F5F5F5F5F5F5F5F5F5F5E2E2F5F5F5F5F5F5F5F5F5F5F5F5F5F5F5F5F5F5F5F5F5F5F5F5F5F5F5F5F5F5F5F5F5F5F5F5F5F5F5F5F5F5F5F5F5F5F5F5F5F5F5F5F5F5F5F5F5F5F5F5F5F5F5F5F5F5F5F5F5F5F5F5F5F5F5F5F5F5F5F5F5F5F5F5F5F5F5F5F5F5F5F5F5F5F5F5F5F5
310
F5F5F5F5F5F5F5F5F5F5F5F5F5F5F5F5F5F5F5F5F5F5F5F5F5F5F5F5F5F5F5F5F5F5F5F5F5F5F5F5F5F5F5F5F5F5F5F5F5F5F5F5F5F5F5F5F5F5F5F5F5F5F5F5F5F5F5F5F5F5F5F5F5F5F5F5F5F5F5F5E2E2F5F5F5F5F5F5F5F5F5F5F5F5F5F5F5F5F5F5F5F5F5F5F5F5F5F5F5F5F5F5F5F5F5F5F5F5F5F5F5F5F5F5F5F5F5
310
F5F5F5F5F5F5F5F5F5F5F5F5F5F5F5F5F5F5F5F5F5F5F5F5F5F5F5F5F5F5F5F5F5F5F5F5F5F5F5F5F5F5F5F5F5F5F5F5F5F5F5F5F5F5F5F5F5F5F5F5F5F5F5F5F5F5F5F5F5F5F5F5F5F5F5F5F5F5F5F5F5F5F5F5F5F5F5F5F5F5F5F5F5F5F5F5F5F5F5F5F5F5F5F5F5F5F5F5F5F5F5F5F5F5F5F5F5F5F5F5F5F5F5F5F5F5F5
310
F5F5F5F5F5F5E2E2F5F5F5F5F5F5F5F5F5F5F5F5F5F5F5F5F5F5F5F5F5F5F5F5F5F5F5F5F5F5F5F5F5F5F5F5F5F5F5F5F5F5F5F5F5F5F5F5F5F5F5F5F5F5F5F5F5F5F5F5F5F5F5F5F5F5F5F5F5F5F5F5F5F5F5F5F5F5F5F5F5F5F5F5F5F5F5F5F5F5F5F5F5F5F5F5F5F5F5F5F5F5F5F5F5F5F5F5F5F5F5F5F5F5F5F5F5F5F5
310
F5F5F5F5F5F5F5F5F5F5F5F5F5F5F5F5F5F5F5F5F5F5F5F5F5F5F5F5F5F5F5F5F5F5F5F5F5F5F5F5F5F5F5F5F5F5F5F5F5F5F5F5F5F5F5F5F5F5F5E2E2F5F5F5F5F5F5F5F5F5F5F5F5F5F5F5F5F5F5F5F5F5F5F5F5F5F5F5F5F5F5F5F5F5F5F5F5F5F5F5F5F5F5F5F5F5F5F5F5F5F5F5F5F5F5F5F5F5F5F5F5F5F5F5F5F5F5
310
F5F5F5F5F5F5F5F5F5F5F5F5F5F5F5F5F5F5F5F5F5F5F5F5F5F5F5F5F5F5F5F5F5F5F5F5F5F5F5F5F5F5F5F5F5F5F5F5F5F5F5F5F5F5F5F5F5F5F5F5F5F5F5F5F5F5F5F5F5F5F5F5F5F5F5F5F5F5F5F5F5F5F5F5F5F5F5F5F5F5F5F5F5F5F5F5F5F5F5F5F5F5F5F5F5F5F5F5F5F5F5F5E2E2F5F5F5F5F5F5F5F5F5F5F5F5F5
310
F5F5F5F5F5F5F5F5F5F5F5F5F5F5F5F5F5F5F5F5F5F5F5F5F5F5F5F5F5F5F5F5F5F5F5F5F5F5F5F5F5F5F5F5F5F5F5F5F5F5F5F5F5F5F5F5F5F5F5F5F5F5F5F5F5F5F5F5F5F5F5F5F5F5F5F5F5F5F5F5F5F5F5F5F5F5F5F5F5F5F5F5F5F5F5F5F5F5F5F5F5F5F5F5F5F5F5F5F5F5F5F5F5F5F5F5F5F5F5F5F5F5F5F5F5F5F5
310
F5F5F5F5F5F5F5F5F5F5F5F5F5F5F5F5F5F5F5F5F5F5F5F5F5F5F5F5F5F5F5F5F5F5F5F5F5F5E2E2F5F5F5F5F5F5F5F5F5F5F5F5F5F5F5F5F5F5F5F5F5F5F5F5F5F5F5F5F5F5F5F5F5F5F5F5F5F5F5F5F5F5F5F5F5F5F5F5F5F5F5F5F5F5F5F5F5F5F5F5F5F5F5F5F5F5F5F5F5F5F5F5F5F5F5F5F5F5F5F5F5F5F5F5F5F5F5
310
F5F5F5F5F5F5F5F5F5F5F5F5F5F5F5F5F5F5F5F5F5F5F5F5F5F5F5F5F5F5F5F5F5F5F5F5F5F5F5F5F5F5F5F5F5F5F5F5F5F5F5F5F5F5F5F5F5F5F5F5F5F5F5F5F5F5F5F5F5F5F5F5F5F5F5F5F5F5F5F5F5F5F5F5F5F5F5F5F5F5F5E2E2F5F5F5F5F5F5F5F5F5F5F5F5F5F5F5F5F5F5F5F5F5F5F5F5F5F5F5F5F5F5F5F5F5F5
310
F5F5F5F5F5F5F5F5F5F5F5F5F5F5F5F5F5F5F5F5F5F5F5F5F5F5F5F5F5F5F5F5F5F5F5F5F5F5F5F5F5F5F5F5F5F5F5F5F5F5F5F5F5F5F5F5F5F5F5F5F5F5F5F5F5F5F5F5F5F5F5F5F5F5F5F5F5F5F5F5F5F5F5F5F5F5F5F5F5F5F5F5F5F5F5F5F5F5F5F5F5F5F5F5F5F5F5F5F5F5F5F5F5F5F5F5F5F5F5F5F5F5F5F5F5F5F5
310
F5F5F5F5F5F5F5F5F5F5F5F5F5F5F5F5F5E2E2F5F5F5F5F5F5F5F5F5F5F5E2F5F5F5F5F5F5F5F5F5F5F5F5F5F5F5F5F5F5F5F5F5F5F5F5F5F5F5F5F5F5F5F5F5F5F5F5F5F5F5F5F5F5F5F5F5F5F5F5F5F5F5F5F5F5F5F5F5F5F5F5F5F5F5F5F5F5F5F5F5F5F5F5F5F5F5F5F5F5F5F5F5F5F5F5F5F5F5F5F5F5F5F5F5F5F5F5
310
F5F5F5F5F5F5F5F5F5F5F5F5F5F5F5F5F5F5F5F5F5F5F5F5F5F5F5F5F5F5F5F5F5F5F5F5F5F5F5F5F5F5F5F5F5F5F5F5F5F5F5F5F5F5F5F5F5F5E2F5F5F5F5F5F5F5F5F5F5F5E2E2F5F5F5F5F5F5F5F5F5F5F5E2F5F5F5F5F5F5F5F5F5F5F5F5F5F5F5F5F5F5F5F5F5F5F5F5F5F5F5F5F5F5F5F5F5F5F5F5F5F5F5F5F5F5F5
310
F5F5F5F5F5F5F5F5F5F5F5F5F5F5F5F5F5F5F5F5F5F5F5F5F5F5F5F5F5F5F5F5F5F5F5F5F5F5F5F5F5F5F5F5F5F5F5F5F5F5F5F5F5F5F5F5F5F5F5F5F5F5F5F5F5F5F5F5F5F5F5F5F5F5F5F5F5F5F5F5F5F5F5F5F5F5F5F5F5F5F5F5F5F5F5F5F5F5F5F5F5F5F5F5F5F5F5F5F5F5F5E2F5F5F5F5F5F5F5F5F5F5F5E2E2F5F5
310
F5F5F5F5F5F5F5F5F5E2F5F5F5F5F5F5F5F5F5F5F5F5F5F5F5F5F5F5F5F5F5F5F5F5F5F5F5F5F5F5F5F5F5F5F5F5F5F5F5F5F5F5F5F5F5F5F5F5F5F5F5F5F5F5F5F5F5F5F5F5F5F5F5F5F5F5F5F5F5F5F5F5F5F5F5F5F5F5F5F5F5F5F5F5F5F5F5F5F5F5F5F5F5F5F5F5F5F5F5F5F5F5F5F5F5F5F5F5F5F5F5F5F5F5F5F5F5
310
F5F5F5F5F5F5F5F5F5F5F5F5F5F5F5F5F5F5F5F5F5F5F5F5F5F5F5F5F5F5F5F5F5F5F5F5F5E2F5F5F5F5F5F5F5F5F5F5F5E2E2F5F5F5F5F5F5F5F5F5F5F5E2F5F5F5F5F5F5F5F5F5F5F5F5F5F5F5F5F5F5F5F5F5F5F5F5F5F5F5F5F5F5F5F5F5F5F5F5F5F5F5F5F5F5F5F5F5F5F5F5F5F5F5F5F5F5F5F5F5F5F5F5F5F5F5F5
310
F5F5F5F5F5F5F5F5F5F5F5F5F5F5F5F5F5F5F5F5F5F5F5F5F5F5F5F5F5F5F5F5F5F5F5F5F5F5F5F5F5F5F5F5F5F5F5F5F5F5F5F5F5F5F5F5F5F5F5F5F5F5F5F5F5F5F5F5F5F5F5F5F5F5F5F5F5F5F5F5F5F5F5F5F5F5F5F5F5F5E2F5F5F5F5F5F5F5F5F5F5F5E2E2F5F5F5F5F5F5F5F5F5F5F5E2F5F5F5F5F5F5F5F5F5F5F5
310
F5F5F5F5F5F5F5F5F5F5F5F5F5F5F5F5F5F5F5F5F5F5F5F5F5F5F5F5F5F5F5F5F5F5F5F5F5F5F5F5F5F5F5F5F5F5F5F5F5F5F5F5F5F5F5F5F5F5F5F5F5F5F5F5F5F5F5F5F5F5F5F5F5F5F5F5F5F5F5F5F5F5F5F5F5F5F5F5F5F5F5F5F5F5F5F5F5F5F5F5F5F5F5F5F5F5F5F5F5F5F5F5F5F5F5F5F5F5F5F5F5F5F5F5F5F5F5
310
F5F5F5F5F5F5F5F5F5F5F5F5F5F5F5F5E2F5F5F5F5F5F5F5F5F5F5F5E2E2F5F5F5F5F5F5F5F5F5F5F5E2F5F5F5F5F5F5F5F5F5F5F5F5F5F5F5F5F5F5F5F5F5F5F5F5F5F5F5F5F5F5F5F5F5F5F5F5F5F5F5F5F5F5F5F5F5F5F5F5F5F5F5F5F5F5F5F5F5F5F5F5F5F5F5F5F5F5F5F5F5F5F5F5F5F5F5F5F5F5F5F5F5F5F5F5F5
310
F5F5F5F5F5F5F5F5F5F5F5F5F5F5F5F5F5F5F5F5F5F5F5F5F5F5F5F5F5F5F5F5F5F5F5F5F5F5F5F5F5F5F5F5F5F5F5F5F5F5F5F5F5F5F5F5F5F5F5F5F5F5F5F5F5F5F5F5F5E2F5F5F5F5F5F5F5F5F5F5F5E2E2F5F5F5F5F5F5F5F5F5F5F5E2F5F5F5F5F5F5F5F5F5F5F5F5F5F5F5F5F5F5F5F5F5F5F5F5F5F5F5F5F5F5F5F5
310
F5F5F5F5F5F5F5F5F5F5F5F5F5F5F5F5F5F5F5F5F5F5F5F5F5F5F5F5F5F5F5F5F5F5F5F5F5F5F5F5F5F5F5F5F5F5F5F5F5F5F5F5F5F5F5F5F5F5F5F5F5F5F5F5F5F5F5F5F5F5F5F5F5F5F5F5F5F5F5F5F5F5F5F5F5F5F5F5F5F5F5F5F5F5F5F5F5F5F5F5F5F5F5F5F5F5F5F5F5F5F5F5F5F5F5F5F5F5F5F5F5F5E2F5F5F5F5
310
F5F5F5F5F5F5F5E2E2F5F5F5F5F5F5F5F5F5F5F5E2F5F5F5F5F5F5F5F5F5F5F5F5F5F5F5F5F5F5F5F5F5F5F5F5F5F5F5F5F5F5F5F5F5F5F5F5F5F5F5F5F5F5F5F5F5F5F5F5F5F5F5F5F5F5F5F5F5F5F5F5F5F5F5F5F5F5F5F5F5F5F5F5F5F5F5F5F5F5F5F5F5F5F5F5F5F5F5F5F5F5F5F5F5F5F5F5F5F5F5F5F5F5F5F5F5F5
310
F5F5F5F5F5F5F5F5F5F5F5F5F5F5F5F5F5F5F5F5F5F5F5F5F5F5F5F5F5F5F5F5F5F5F5F5F5F5F5F5F5F5F5F5F5F5F5F5E2F5F5F5F5F5F5F5F5F5F5F5E2E2F5F5F5F5F5F5F5F5F5F5F5E2F5F5F5F5F5F5F5F5F5F5F5F5F5F5F5F5F5F5F5F5F5F5F5F5F5F5F5F5F5F5F5F5F5F5F5F5F5F5F5F5F5F5F5F5F5F5F5F5F5F5F5F5F5
310
F5F5F5F5F5F5F5F5F5F5F5F5F5F5F5F5F5F5F5F5F5F5F5F5F5F5F5F5F5F5F5F5F5F5F5F5F5F5F5F5F5F5F5F5F5F5F5F5F5F5F5F5F5F5F5F5F5F5F5F5F5F5F5F5F5F5F5F5F5F5F5F5F5F5F5F5F5F5F5F5F5F5F5F5F5F5F5F5F5F5F5F5F5F5F5F5F5F5F5F5F5E2F5F5F5F5F5F5F5F5F5F5F5E2E2F5F5F5F5F5F5F5F5F5F5F5E2
310
F5F5F5F5F5F5F5F5F5F5F5F5F5F5F5F5F5F5F5F5F5F5F5F5F5F5F5F5F5F5F5F5F5F5F5F5F5F5F5F5F5F5F5F5F5F5F5F5F5F5F5F5F5F5F5F5F5F5F5F5F5F5F5F5F5F5F5F5F5F5F5F5F5F5F5F5F5F5F5F5F5F5F5F5F5F5F5F5F5F5F5F5F5F5F5F5F5F5F5F5F5F5F5F5F5F5F5F5F5F5F5F5F5F5F5F5F5F5F5F5F5F5F5F5F5F5F5
310
F5F5F5F5F5F5F5F5F5F5F5F5F5F5F5F5F5F5F5F5F5F5F5F5F5F5F5E2F5F5F5F5F5F5F5F5F5F5F5E2E2F5F5F5F5F5F5F5F5F5F5F5E2F5F5F5F5F5F5F5F5F5F5F5F5F5F5F5F5F5F5F5F5F5F5F5F5F5F5F5F5F5F5F5F5F5F5F5F5F5F5F5F5F5F5F5F5F5F5F5F5F5F5F5F5F5F5F5F5F5F5F5F5F5F5F5F5F5F5F5F5F5F5F5F5F5F5
310
F5F5F5F5F5F5F5F5F5F5F5F5F5F5F5F5F5F5F5F5F5F5F5F5F5F5F5F5F5F5F5F5F5F5F5F5F5F5F5F5F5F5F5F5F5F5F5F5F5F5F5F5F5F5F5F5F5F5F5F5F5F5F5F5F5F5F5F5F5F5F5F5F5F5F5F5F5F5F5F5E2F5F5F5F5F5F5F5F5F5F5F5E2E2F5F5F5F5F5F5F5F5F5F5F5E2F5F5F5F5F5F5F5F5F5F5F5F5F5F5F5F5F5F5F5F5F5
310
F5F5F5F5F5F5F5F5F5F5F5F5F5F5F5F5F5F5F5F5F5F5F5F5F5F5F5F5F5F5F5F5F5F5F5F5F5F5F5F5F5F5F5F5F5F5F5F5F5F5F5F5F5F5F5F5F5F5F5F5F5F5F5F5F5F5F5F5F5F5F5F5F5F5F5F5F5F5F5F5F5F5F5F5F5F5F5F5F5F5F5F5F5F5F5F5F5F5F5F5F5F5F5F5F5F5F5F5F5F5F5F5F5F5F5F5F5F5F5F5F5F5F5F5F5F5F5
310
F5F5F5F5F5F5E2F5F5F5F5F5F5F5F5F5F5F5E2E2F5F5F5F5F5F5F5F5F5F5F5E2F5F5F5F5F5F5F5F5F5F5F5F5F5F5F5F5F5F5F5F5F5F5F5F5F5F5F5F5F5F5F5F5F5F5F5F5F5F5F5F5F5F5F5F5F5F5F5F5F5F5F5F5F5F5F5F5F5F5F5F5F5F5F5F5F5F5F5F5F5F5F5F5F5F5F5F5F5F5F5F5F5F5F5F5F5F5F5F5F5F5F5F5F5F5F5
310
F5F5F5F5F5F5F5F5F5F5F5F5F5F5F5F5F5F5F5F5F5F5F5F5F5F5F5F5F5F5F5F5F5F5F5F5F5F5F5F5F5F5F5F5F5F5F5F5F5F5F5F5F5F5F5F5F5F5F5E2F5F5F5F5F5F5F5F5F5F5F5E2E2F5F5F5F5F5F5F5F5F5F5F5E2F5F5F5F5F5F5F5F5F5F5F5F5F5F5F5F5F5F5F5F5F5F5F5F5F5F5F5F5F5F5F5F5F5F5F5F5F5F5F5F5F5F5
310
F5F5F5F5F5F5F5F5F5F5F5F5F5F5F5F5F5F5F5F5F5F5F5F5F5F5F5F5F5F5F5F5F5F5F5F5F5F5F5F5F5F5F5F5F5F5F5F5F5F5F5F5F5F5F5F5F5F5F5F5F5F5F5F5F5F5F5F5F5F5F5F5F5F5F5F5F5F5F5F5F5F5F5F5F5F5F5F5F5F5F5F5F5F5F5F5F5F5F5F5F5F5F5F5F5F5F5F5F5F5F5F5E2F5F5F5F5F5F5F5F5F5F5F5E2E2F5
310
F5F5F5F5F5F5F5F5F5F5E2F5F5F5F5F5F5F5F5F5F5F5F5F5F5F5F5F5F5F5F5F5F5F5F5F5F5F5F5F5F5F5F5F5F5F5F5F5F5F5F5F5F5F5F5F5F5F5F5F5F5F5F5F5F5F5F5F5F5F5F5F5F5F5F5F5F5F5F5F5F5F5F5F5F5F5F5F5F5F5F5F5F5F5F5F5F5F5F5F5F5F5F5F5F5F5F5F5F5F5F5F5F5F5F5F5F5F5F5F5F5F5F5F5F5F5F5
310
F5F5F5F5F5F5F5F5F5F5F5F5F5F5F5F5F5F5F5F5F5F5F5F5F5F5F5F5F5F5F5F5F5F5F5F5F5F5E2F5F5F5F5F5F5F5F5F5F5F5E2E2F5F5F5F5F5F5F5F5F5F5F5F5F5F5F5F5F5F5F5F5F5F5F5F5F5F5F5F5F5F5F5F5F5F5F5F5F5F5F5F5F5F5F5F5F5F5F5F5F5F5F5F5F5F5F5F5F5F5F5F5F5F5F5F5F5F5F5F5F5F5F5F5F5F5F5
310
F5F5F5F5F5F5F5F5F5F5F5F5F5F5F5F5F5F5F5F5F5F5F5F5F5F5F5F5F5F5F5F5F5F5F5F5F5F5F5F5F5F5F5F5F5F5F5F5F5F5F5F5F5F5F5F5F5F5F5F5F5F5F5F5F5F5F5F5F5F5F5F5F5F5F5F5F5F5F5F5F5F5F5F5F5F5F5F5F5F5F5F5F5F5F5F5F5F5F5F5F5F5F5E2E2F5F5F5F5F5F5F5F5F5F5F5F5F5F5F5F5F5F5F5F5F5F5
310
F5F5F5F5F5F5F5F5F5F5F5F5F5F5F5F5F5F5F5F5F5F5F5F5F5F5F5F5F5F5F5F5F5F5F5F5F5F5F5F5F5F5F5F5F5F5F5F5F5F5F5F5F5F5F5F5F5F5F5F5F5F5F5F5F5F5F5F5F5F5F5F5F5F5F5F5F5F5F5F5F5F5F5F5F5F5F5F5F5F5F5F5F5F5F5F5F5F5F5F5F5F5F5F5F5F5F5F5F5F5F5F5F5F5F5F5F5F5F5F5F5F5F5F5F5F5F5
310
F5F5F5F5F5F5F5F5F5F5F5F5F5F5F5F5F5F5F5F5F5F5F5F5F5F5F5F5F5E2E2F5F5F5F5F5F5F5F5F5F5F5F5F5F5F5F5F5F5F5F5F5F5F5F5F5F5F5F5F5F5F5F5F5F5F5F5F5F5F5F5F5F5F5F5F5F5F5F5F5F5F5F5F5F5F5F5F5F5F5F5F5F5F5F5F5F5F5F5F5F5F5F5F5F5F5F5F5F5F5F5F5F5F5F5F5F5F5F5F5F5F5F5F5F5F5F5
310
F5F5F5F5F5F5F5F5F5F5F5F5F5F5F5F5F5F5F5F5F5F5F5F5F5F5F5F5F5F5F5F5F5F5F5F5F5F5F5F5F5F5F5F5F5F5F5F5F5F5F5F5F5F5F5F5F5F5F5F5F5F5F5F5F5F5F5F5F5F5F5F5F5F5F5F5F5F5F5F5F5F5E2E2F5F5F5F5F5F5F5F5F5F5F5F5F5F5F5F5F5F5F5F5F5F5F5F5F5F5F5F5F5F5F5F5F5F5F5F5F5F5F5F5F5F5F5
310
F5F5F5F5F5F5F5F5F5F5F5F5F5F5F5F5F5F5F5F5F5F5F5F5F5F5F5F5F5F5F5F5F5F5F5F5F5F5F5F5F5F5F5F5F5F5F5F5F5F5F5F5F5F5F5F5F5F5F5F5F5F5F5F5F5F5F5F5F5F5F5F5F5F5F5F5F5F5F5F5F5F5F5F5F5F5F5F5F5F5F5F5F5F5F5F5F5F5F5F5F5F5F5F5F5F5F5F5F5F5F5F5F5F5F5F5F5F5F5F5F5F5F5F5F5F5F5
310
F5F5F5F5F5F5F5F5E2E2F5F5F5F5F5F5F5F5F5F5F5F5F5F5F5F5F5F5F5F5F5F5F5F5F5F5F5F5F5F5F5F5F5F5F5F5F5F5F5F5F5F5F5F5F5F5F5F5F5F5F5F5F5F5F5F5F5F5F5F5F5F5F5F5F5F5F5F5F5F5F5F5F5F5F5F5F5F5F5F5F5F5F5F5F5F5F5F5F5F5F5F5F5F5F5F5F5F5F5F5F5F5F5F5F5F5F5F5F5F5F5F5F5F5F5F5F5
310
F5F5F5F5F5F5F5F5F5F5F5F5F5F5F5F5F5F5F5F5F5F5F5F5F5F5F5F5F5F5F5F5F5F5F5F5F5F5F5F5F5F5F5F5F5F5F5F5F5F5F5F5F5F5F5F5F5F5F5F5F5E2E2F5F5F5F5F5F5F5F5F5F5F5F5F5F5F5F5F5F5F5F5F5F5F5F5F5F5F5F5F5F5F5F5F5F5F5F5F5F5F5F5F5F5F5F5F5F5F5F5F5F5F5F5F5F5F5F5F5F5F5F5F5F5F5F5
310
F5F5F5F5F5F5F5F5F5F5F5F5F5F5F5F5F5F5F5F5F5F5F5F5F5F5F5F5F5F5F5F5F5F5F5F5F5F5F5F5F5F5F5F5F5F5F5F5F5F5F5F5F5F5F5F5F5F5F5F5F5F5F5F5F5F5F5F5F5F5F5F5F5F5F5F5F5F5F5F5F5F5F5F5F5F5F5F5F5F5F5F5F5F5F5F5F5F5F5F5F5F5F5F5F5F5F5F5F5F5F5F5F5F5E2E2F5F5F5F5F5F5F5F5F5F5F5
310
F5F5F5F5F5F5F5F5F5F5F5F5F5F5F5F5F5F5F5F5F5F5F5F5F5F5F5F5F5F5F5F5F5F5F5F5F5F5F5F5F5F5F5F5F5F5F5F5F5F5F5F5F5F5F5F5F5F5F5F5F5F5F5F5F5F5F5F5F5F5F5F5F5F5F5F5F5F5F5F5F5F5F5F5F5F5F5F5F5F5F5F5F5F5F5F5F5F5F5F5F5F5F5F5F5F5F5F5F5F5F5F5F5F5F5F5F5F5F5F5F5F5F5F5F5F5F5
310
F5F5F5F5F5F5F5F5F5F5F5F5F5F5F5F5F5F5F5F5F5F5F5F5F5F5F5F5F5F5F5F5F5F5F5F5F5F5F5F5E2E2F5F5F5F5F5F5F5F5F5F5F5F5F5F5F5F5F5F5F5F5F5F5F5F5F5F5F5F5F5F5F5F5F5F5F5F5F5F5F5F5F5F5F5F5F5F5F5F5F5F5F5F5F5F5F5F5F5F5F5F5F5F5F5F5F5F5F5F5F5F5F5F5F5F5F5F5F5F5F5F5F5F5F5F5F5
310
F5F5F5F5F5F5F5F5F5F5F5F5F5F5F5F5F5F5F5F5F5F5F5F5F5F5F5F5F5F5F5F5F5F5F5F5F5F5F5F5F5F5F5F5F5F5F5F5F5F5F5F5F5F5F5F5F5F5F5F5F5F5F5F5F5F5F5F5F5F5F5F5F5F5F5F5F5F5F5F5F5F5F5F5F5F5F5F5F5F5F5F5F5E2E2F5F5F5F5F5F5F5F5F5F5F5E2F5F5F5F5F5F5F5F5F5F5F5F5F5F5F5F5F5F5F5F5
310
F5F5F5F5F5F5F5F5F5F5F5F5F5F5F5F5F5F5F5F5F5F5F5F5F5F5F5F5F5F5F5F5F5F5F5F5F5F5F5F5F5F5F5F5F5F5F5F5F5F5F5F5F5F5F5F5F5F5F5F5F5F5F5F5F5F5F5F5F5F5F5F5F5F5F5F5F5F5F5F5F5F5F5F5F5F5F5F5F5F5F5F5F5F5F5F5F5F5F5F5F5F5F5F5F5F5F5F5F5F5F5F5F5F5F5F5F5F5F5F5F5F5F5F5F5F5F5
310
F5F5F5F5F5F5F5E2F5F5F5F5F5F5F5F5F5F5F5E2E2F5F5F5F5F5F5F5F5F5F5F5E2F5F5F5F5F5F5F5F5F5F5F5F5F5F5F5F5F5F5F5F5F5F5F5F5F5F5F5F5F5F5F5F5F5F5F5F5F5F5F5F5F5F5F5F5F5F5F5F5F5F5F5F5F5F5F5F5F5F5F5F5F5F5F5F5F5F5F5F5F5F5F5F5F5F5F5F5F5F5F5F5F5F5F5F5F5F5F5F5F5F5F5F5F5F5
310
F5F5F5F5F5F5F5F5F5F5F5F5F5F5F5F5F5F5F5F5F5F5F5F5F5F5F5F5F5F5F5F5F5F5F5F5F5F5F5F5F5F5F5F5F5F5F5F5F5F5F5F5F5F5F5F5F5F5F5F5E2F5F5F5F5F5F5F5F5F5F5F5E2E2F5F5F5F5F5F5F5F5F5F5F5E2F5F5F5F5F5F5F5F5F5F5F5F5F5F5F5F5F5F5F5F5F5F5F5F5F5F5F5F5F5F5F5F5F5F5F5F5F5F5F5F5F5
310
F5F5F5F5F5F5F5F5F5F5F5F5F5F5F5F5F5F5F5F5F5F5F5F5F5F5F5F5F5F5F5F5F5F5F5F5F5F5F5F5F5F5F5F5F5F5F5F5F5F5F5F5F5F5F5F5F5F5F5F5F5F5F5F5F5F5F5F5F5F5F5F5F5F5F5F5F5F5F5F5F5F5F5F5F5F5F5F5F5F5F5F5F5F5F5F5F5F5F5F5F5F5F5F5F5F5F5F5F5F5F5F5F5E2F5F5F5F5F5F5F5F5F5F5F5E2E2
310
F5F5F5F5F5F5F5F5F5F5F5E2F5F5F5F5F5F5F5F5F5F5F5F5F5F5F5F5F5F5F5F5F5F5F5F5F5F5F5F5F5F5F5F5F5F5F5F5F5F5F5F5F5F5F5F5F5F5F5F5F5F5F5F5F5F5F5F5F5F5F5F5F5F5F5F5F5F5F5F5F5F5F5F5F5F5F5F5F5F5F5F5F5F5F5F5F5F5F5F5F5F5F5F5F5F5F5F5F5F5F5F5F5F5F5F5F5F5F5F5F5F5F5F5F5F5F5
310
F5F5F5F5F5F5F5F5F5F5F5F5F5F5F5F5F5F5F5F5F5F5F5F5F5F5F5F5F5F5F5F5F5F5F5F5F5F5F5E2F5F5F5F5F5F5F5F5F5F5F5E2E2F5F5F5F5F5F5F5F5F5F5F5E2F5F5F5F5F5F5F5F5F5F5F5F5F5F5F5F5F5F5F5F5F5F5F5F5F5F5F5F5F5F5F5F5F5F5F5F5F5F5F5F5F5F5F5F5F5F5F5F5F5F5F5F5F5F5F5F5F5F5F5F5F5F5
310
F5F5F5F5F5F5F5F5F5F5F5F5F5F5F5F5F5F5F5F5F5F5F5F5F5F5F5F5F5F5F5F5F5F5F5F5F5F5F5F5F5F5F5F5F5F5F5F5F5F5F5F5F5F5F5F5F5F5F5F5F5F5F5F5F5F5F5F5F5F5F5F5F5F5F5F5F5F5F5F5F5F5F5F5F5F5F5F5F5F5F5F5E2F5F5F5F5F5F5F5F5F5F5F5E2E2F5F5F5F5F5F5F5F5F5F5F5E2F5F5F5F5F5F5F5F5F5
310
F5F5F5F5F5F5F5F5F5F5F5F5F5F5F5F5F5F5F5F5F5F5F5F5F5F5F5F5F5F5F5F5F5F5F5F5F5F5F5F5F5F5F5F5F5F5F5F5F5F5F5F5F5F5F5F5F5F5F5F5F5F5F5F5F5F5F5F5F5F5F5F5F5F5F5F5F5F5F5F5F5F5F5F5F5F5F5F5F5F5F5F5F5F5F5F5F5F5F5F5F5F5F5F5F5F5F5F5F5F5F5F5F5F5F5F5F5F5F5F5F5F5F5F5F5F5F5
310
F5F5F5F5F5F5F5F5F5F5F5F5F5F5F5F5F5F5E2F5F5F5F5F5F5F5F5F5F5F5E2E2F5F5F5F5F5F5F5F5F5F5F5E2F5F5F5F5F5F5F5F5F5F5F5F5F5F5F5F5F5F5F5F5F5F5F5F5F5F5F5F5F5F5F5F5F5F5F5F5F5F5F5F5F5F5F5F5F5F5F5F5F5F5F5F5F5F5F5F5F5F5F5F5F5F5F5F5F5F5F5F5F5F5F5F5F5F5F5F5F5F5F5F5F5F5F5
310
F5F5F5F5F5F5F5F5F5F5F5F5F5F5F5F5F5F5F5F5F5F5F5F5F5F5F5F5F5F5F5F5F5F5F5F5F5F5F5F5F5F5F5F5F5F5F5F5F5F5F5F5F5F5F5F5F5F5F5F5F5F5F5F5F5F5F5F5F5F5F5E2F5F5F5F5F5F5F5F5F5F5F5E2E2F5F5F5F5F5F5F5F5F5F5F5E2F5F5F5F5F5F5F5F5F5F5F5F5F5F5F5F5F5F5F5F5F5F5F5F5F5F5F5F5F5F5
310
F5F5F5F5F5F5F5F5F5F5F5F5F5F5F5F5F5F5F5F5F5F5F5F5F5F5F5F5F5F5F5F5F5F5F5F5F5F5F5F5F5F5F5F5F5F5F5F5F5F5F5F5F5F5F5F5F5F5F5F5F5F5F5F5F5F5F5F5F5F5F5F5F5F5F5F5F5F5F5F5F5F5F5F5F5F5F5F5F5F5F5F5F5F5F5F5F5F5F5F5F5F5F5F5F5F5F5F5F5F5F5F5F5F5F5F5F5F5F5F5F5F5F5F5E2F5F5
310
F5F5F5F5F5F5F5F5F5E2E2F5F5F5F5F5F5F5F5F5F5F5E2F5F5F5F5F5F5F5F5F5F5F5F5F5F5F5F5F5F5F5F5F5F5F5F5F5F5F5F5F5F5F5F5F5F5F5F5F5F5F5F5F5F5F5F5F5F5F5F5F5F5F5F5F5F5F5F5F5F5F5F5F5F5F5F5F5F5F5F5F5F5F5F5F5F5F5F5F5F5F5F5F5F5F5F5F5F5F5F5F5F5F5F5F5F5F5F5F5F5F5F5F5F5F5F5
310
F5F5F5F5F5F5F5F5F5F5F5F5F5F5F5F5F5F5F5F5F5F5F5F5F5F5F5F5F5F5F5F5F5F5F5F5F5F5F5F5F5F5F5F5F5F5F5F5F5F5E2F5F5F5F5F5F5F5F5F5F5F5E2E2F5F5F5F5F5F5F5F5F5F5F5E2F5F5F5F5F5F5F5F5F5F5F5F5F5F5F5F5F5F5F5F5F5F5F5F5F5F5F5F5F5F5F5F5F5F5F5F5F5F5F5F5F5F5F5F5F5F5F5F5F5F5F5
310
F5F5F5F5F5F5F5F5F5F5F5F5F5F5F5F5F5F5F5F5F5F5F5F5F5F5F5F5F5F5F5F5F5F5F5F5F5F5F5F5F5F5F5F5F5F5F5F5F5F5F5F5F5F5F5F5F5F5F5F5F5F5F5F5F5F5F5F5F5F5F5F5F5F5F5F5F5F5F5F5F5F5F5F5F5F5F5F5F5F5F5F5F5F5F5F5F5F5F5F5F5F5F5E2F5F5F5F5F5F5F5F5F5F5F5E2E2F5F5F5F5F5F5F5F5F5F5
310
F5E2F5F5F5F5F5F5F5F5F5F5F5F5F5F5F5F5F5F5F5F5F5F5F5F5F5F5F5F5F5F5F5F5F5F5F5F5F5F5F5F5F5F5F5F5F5F5F5F5F5F5F5F5F5F5F5F5F5F5F5F5F5F5F5F5F5F5F5F5F5F5F5F5F5F5F5F5F5F5F5F5F5F5F5F5F5F5F5F5F5F5F5F5F5F5F5F5F5F5F5F5F5F5F5F5F5F5F5F5F5F5F5F5F5F5F5F5F5F5F5F5F5F5F5F5F5
310
F5F5F5F5F5F5F5F5F5F5F5F5F5F5F5F5F5F5F5F5F5F5F5F5F5F5F5F5F5E2F5F5F5F5F5F5F5F5F5F5F5E2E2F5F5F5F5F5F5F5F5F5F5F5E2F5F5F5F5F5F5F5F5F5F5F5F5F5F5F5F5F5F5F5F5F5F5F5F5F5F5F5F5F5F5F5F5F5F5F5F5F5F5F5F5F5F5F5F5F5F5F5F5F5F5F5F5F5F5F5F5F5F5F5F5F5F5F5F5F5F5F5F5F5F5F5F5
310
F5F5F5F5F5F5F5F5F5F5F5F5F5F5F5F5F5F5F5F5F5F5F5F5F5F5F5F5F5F5F5F5F5F5F5F5F5F5F5F5F5F5F5F5F5F5F5F5F5F5F5F5F5F5F5F5F5F5F5F5F5F5F5F5F5F5F5F5F5F5F5F5F5F5F5F5F5F5F5F5F5F5E2F5F5F5F5F5F5F5F5F5F5F5E2E2F5F5F5F5F5F5F5F5F5F5F5E2F5F5F5F5F5F5F5F5F5F5F5F5F5F5F5F5F5F5F5
310
F5F5F5F5F5F5F5F5F5F5F5F5F5F5F5F5F5F5F5F5F5F5F5F5F5F5F5F5F5F5F5F5F5F5F5F5F5F5F5F5F5F5F5F5F5F5F5F5F5F5F5F5F5F5F5F5F5F5F5F5F5F5F5F5F5F5F5F5F5F5F5F5F5F5F5F5F5F5F5F5F5F5F5F5F5F5F5F5F5F5F5F5F5F5F5F5F5F5F5F5F5F5F5F5F5F5F5F5F5F5F5F5F5F5F5F5F5F5F5F5F5F5F5F5F5F5F5
310
F5F5F5F5F5F5F5F5E2F5F5F5F5F5F5F5F5F5F5F5E2E2F5F5F5F5F5F5F5F5F5F5F5E2F5F5F5F5F5F5F5F5F5F5F5F5F5F5F5F5F5F5F5F5F5F5F5F5F5F5F5F5F5F5F5F5F5F5F5F5F5F5F5F5F5F5F5F5F5F5F5F5F5F5F5F5F5F5F5F5F5F5F5F5F5F5F5F5F5F5F5F5F5F5F5F5F5F5F5F5F5F5F5F5F5F5F5F5F5F5F5F5F5F5F5F5F5
310
F5F5F5F5F5F5F5F5F5F5F5F5F5F5F5F5F5F5F5F5F5F5F5F5F5F5F5F5F5F5F5F5F5F5F5F5F5F5F5F5F5F5F5F5F5F5F5F5F5F5F5F5F5F5F5F5F5F5F5F5F5E2F5F5F5F5F5F5F5F5F5F5F5E2E2F5F5F5F5F5F5F5F5F5F5F5E2F5F5F5F5F5F5F5F5F5F5F5F5F5F5F5F5F5F5F5F5F5F5F5F5F5F5F5F5F5F5F5F5F5F5F5F5F5F5F5F5
310
F5F5F5F5F5F5F5F5F5F5F5F5F5F5F5F5F5F5F5F5F5F5F5F5F5F5F5F5F5F5F5F5F5F5F5F5F5F5F5F5F5F5F5F5F5F5F5F5F5F5F5F5F5F5F5F5F5F5F5F5F5F5F5F5F5F5F5F5F5F5F5F5F5F5F5F5F5F5F5F5F5F5F5F5F5F5F5F5F5F5F5F5F5F5F5F5F5F5F5F5F5F5F5F5F5F5F5F5F5F5F5F5F5F5E2F5F5F5F5F5F5F5F5F5F5F5E2
310
E2F5F5F5F5F5F5F5F5F5F5F5F5F5F5F5F5F5F5F5F5F5F5F5F5F5F5F5F5F5F5F5F5F5F5F5F5F5F5F5F5F5F5F5F5F5F5F5F5F5F5F5F5F5F5F5F5F5F5F5F5F5F5F5F5F5F5F5F5F5F5F5F5F5F5F5F5F5F5F5F5F5F5F5F5F5F5F5F5F5F5F5F5F5F5F5F5F5F5F5F5F5F5F5F5F5F5F5F5F5F5F5F5F5F5F5F5F5F5F5F5F5F5F5F5F5F5
310
F5F5F5F5F5F5F5F5F5F5F5F5F5F5F5F5F5F5F5F5F5F5F5F5F5F5F5F5F5F5F5F5F5F5F5F5F5F5F5F5F5F5F5F5F5F5F5F5F5F5F5F5E2E2F5F5F5F5F5F5F5F5F5F5F5F5F5F5F5F5F5F5F5F5F5F5F5F5F5F5F5F5F5F5F5F5F5F5F5F5F5F5F5F5F5F5F5F5F5F5F5F5F5F5F5F5F5F5F5F5F5F5F5F5F5F5F5F5F5F5F5F5F5F5F5F5F5
310
F5F5F5F5F5F5F5F5F5F5F5F5F5F5F5F5F5F5F5F5F5F5F5F5F5F5F5F5F5F5F5F5F5F5F5F5F5F5F5F5F5F5F5F5F5F5F5F5F5F5F5F5F5F5F5F5F5F5F5F5F5F5F5F5F5F5F5F5F5F5F5F5F5F5F5F5F5F5F5F5F5F5F5F5F5F5F5F5F5F5F5F5F5F5F5F5F5F5F5F5F5F5F5F5F5E2E2F5F5F5F5F5F5F5F5F5F5F5F5F5F5F5F5F5F5F5F5
310
F5F5F5F5F5F5F5F5F5F5F5F5F5F5F5F5F5F5F5F5F5F5F5F5F5F5F5F5F5F5F5F5F5F5F5F5F5F5F5F5F5F5F5F5F5F5F5F5F5F5F5F5F5F5F5F5F5F5F5F5F5F5F5F5F5F5F5F5F5F5F5F5F5F5F5F5F5F5F5F5F5F5F5F5F5F5F5F5F5F5F5F5F5F5F5F5F5F5F5F5F5F5F5F5F5F5F5F5F5F5F5F5F5F5F5F5F5F5F5F5F5F5F5F5F5F5F5
310
F5F5F5F5F5F5F5F5F5F5F5F5F5F5F5F5F5F5F5F5F5F5F5F5F5F5F5F5F5F5F5E2E2F5F5F5F5F5F5F5F5F5F5F5F5F5F5F5F5F5F5F5F5F5F5F5F5F5F5F5F5F5F5F5F5F5F5F5F5F5F5F5F5F5F5F5F5F5F5F5F5F5F5F5F5F5F5F5F5F5F5F5F5F5F5F5F5F5F5F5F5F5F5F5F5F5F5F5F5F5F5F5F5F5F5F5F5F5F5F5F5F5F5F5F5F5F5
310
F5F5F5F5F5F5F5F5F5F5F5F5F5F5F5F5F5F5F5F5F5F5F5F5F5F5F5F5F5F5F5F5F5F5F5F5F5F5F5F5F5F5F5F5F5F5F5F5F5F5F5F5F5F5F5F5F5F5F5F5F5F5F5F5F5F5F5F5F5F5F5F5F5F5F5F5F5F5F5F5F5F5F5F5E2E2F5F5F5F5F5F5F5F5F5F5F5F5F5F5F5F5F5F5F5F5F5F5F5F5F5F5F5F5F5F5F5F5F5F5F5F5F5F5F5F5F5
310
F5F5F5F5F5F5F5F5F5F5F5F5F5F5F5F5F5F5F5F5F5F5F5F5F5F5F5F5F5F5F5F5F5F5F5F5F5F5F5F5F5F5F5F5F5F5F5F5F5F5F5F5F5F5F5F5F5F5F5F5F5F5F5F5F5F5F5F5F5F5F5F5F5F5F5F5F5F5F5F5F5F5F5F5F5F5F5F5F5F5F5F5F5F5F5F5F5F5F5F5F5F5F5F5F5F5F5F5F5F5F5F5F5F5F5F5F5F5F5F5F5F5F5F5F5F5F5
310
F5F5F5F5F5F5F5F5F5F5E2E2F5F5F5F5F5F5F5F5F5F5F5F5F5F5F5F5F5F5F5F5F5F5F5F5F5F5F5F5F5F5F5F5F5F5F5F5F5F5F5F5F5F5F5F5F5F5F5F5F5F5F5F5F5F5F5F5F5F5F5F5F5F5F5F5F5F5F5F5F5F5F5F5F5F5F5F5F5F5F5F5F5F5F5F5F5F5F5F5F5F5F5F5F5F5F5F5F5F5F5F5F5F5F5F5F5F5F5F5F5F5F5F5F5F5F5
310
F5F5F5F5F5F5F5F5F5F5F5F5F5F5F5F5F5F5F5F5F5F5F5F5F5F5F5F5F5F5F5F5F5F5F5F5F5F5F5F5F5F5F5F5F5F5F5F5F5F5F5F5F5F5F5F5F5F5F5F5F5F5F5E2E2F5F5F5F5F5F5F5F5F5F5F5F5F5F5F5F5F5F5F5F5F5F5F5F5F5F5F5F5F5F5F5F5F5F5F5F5F5F5F5F5F5F5F5F5F5F5F5F5F5F5F5F5F5F5F5F5F5F5F5F5F5F5
310
F5F5F5F5F5F5F5F5F5F5F5F5F5F5F5F5F5F5F5F5F5F5F5F5F5F5F5F5F5F5F5F5F5F5F5F5F5F5F5F5F5F5F5F5F5F5F5F5F5F5F5F5F5F5F5F5F5F5F5F5F5F5F5F5F5F5F5F5F5F5F5F5F5F5F5F5F5F5F5F5F5F5F5F5F5F5F5F5F5F5F5F5F5F5F5F5F5F5F5F5F5F5F5F5F5F5F5F5F5F5F5F5F5F5F5F5E2E2F5F5F5F5F5F5F5F5F5
310
F5F5F5F5F5F5F5F5F5F5F5F5F5F5F5F5F5F5F5F5F5F5F5F5F5F5F5F5F5F5F5F5F5F5F5F5F5F5F5F5F5F5F5F5F5F5F5F5F5F5F5F5F5F5F5F5F5F5F5F5F5F5F5F5F5F5F5F5F5F5F5F5F5F5F5F5F5F5F5F5F5F5F5F5F5F5F5F5F5F5F5F5F5F5F5F5F5F5F5F5F5F5F5F5F5F5F5F5F5F5F5F5F5F5F5F5F5F5F5F5F5F5F5F5F5F5F5
310
F5F5F5F5F5F5F5F5F5F5F5F5F5F5F5F5F5F5F5F5F5F5F5F5F5F5F5F5F5F5F5F5F5F5F5F5F5F5F5F5F5F5E2E2F5F5F5F5F5F5F5F5F5F5F5F5F5F5F5F5F5F5F5F5F5F5F5F5F5F5F5F5F5F5F5F5F5F5F5F5F5F5F5F5F5F5F5F5F5F5F5F5F5F5F5F5F5F5F5F5F5F5F5F5F5F5F5F5F5F5F5F5F5F5F5F5F5F5F5F5F5F5F5F5F5F5F5
310
F5F5F5F5F5F5F5F5F5F5F5F5F5F5F5F5F5F5F5F5F5F5F5F5F5F5F5F5F5F5F5F5F5F5F5F5F5F5F5F5F5F5F5F5F5F5F5F5F5F5F5F5F5F5F5F5F5F5F5F5F5F5F5F5F5F5F5F5F5F5F5F5F5F5F5F5F5F5F5F5F5F5F5F5F5F5F5F5F5F5F5F5F5F5F5E2E2F5F5F5F5F5F5F5F5F5F5F5E2F5F5F5F5F5F5F5F5F5F5F5F5F5F5F5F5F5F5
310
F5F5F5F5F5F5F5F5F5F5F5F5F5F5F5F5F5F5F5F5F5F5F5F5F5F5F5F5F5F5F5F5F5F5F5F5F5F5F5F5F5F5F5F5F5F5F5F5F5F5F5F5F5F5F5F5F5F5F5F5F5F5F5F5F5F5F5F5F5F5F5F5F5F5F5F5F5F5F5F5F5F5F5F5F5F5F5F5F5F5F5F5F5F5F5F5F5F5F5F5F5F5F5F5F5F5F5F5F5F5F5F5F5F5F5F5F5F5F5F5F5F5F5F5F5F5F5
310
F5F5F5F5F5F5F5F5F5E2F5F5F5F5F5F5F5F5F5F5F5E2E2F5F5F5F5F5F5F5F5F5F5F5E2F5F5F5F5F5F5F5F5F5F5F5F5F5F5F5F5F5F5F5F5F5F5F5F5F5F5F5F5F5F5F5F5F5F5F5F5F5F5F5F5F5F5F5F5F5F5F5F5F5F5F5F5F5F5F5F5F5F5F5F5F5F5F5F5F5F5F5F5F5F5F5F5F5F5F5F5F5F5F5F5F5F5F5F5F5F5F5F5F5F5F5F5
310
F5F5F5F5F5F5F5F5F5F5F5F5F5F5F5F5F5F5F5F5F5F5F5F5F5F5F5F5F5F5F5F5F5F5F5F5F5F5F5F5F5F5F5F5F5F5F5F5F5F5F5F5F5F5F5F5F5F5F5F5F5F5E2F5F5F5F5F5F5F5F5F5F5F5E2E2F5F5F5F5F5F5F5F5F5F5F5E2F5F5F5F5F5F5F5F5F5F5F5F5F5F5F5F5F5F5F5F5F5F5F5F5F5F5F5F5F5F5F5F5F5F5F5F5F5F5F5
310
F5F5F5F5F5F5F5F5F5F5F5F5F5F5F5F5F5F5F5F5F5F5F5F5F5F5F5F5F5F5F5F5F5F5F5F5F5F5F5F5F5F5F5F5F5F5F5F5F5F5F5F5F5F5F5F5F5F5F5F5F5F5F5F5F5F5F5F5F5F5F5F5F5F5F5F5F5F5F5F5F5F5F5F5F5F5F5F5F5F5F5F5F5F5F5F5F5F5F5F5F5F5F5F5F5F5F5F5F5F5F5F5F5F5F5E2F5F5F5F5F5F5F5F5F5F5F5
310
E2E2F5F5F5F5F5F5F5F5F5F5F5E2F5F5F5F5F5F5F5F5F5F5F5F5F5F5F5F5F5F5F5F5F5F5F5F5F5F5F5F5F5F5F5F5F5F5F5F5F5F5F5F5F5F5F5F5F5F5F5F5F5F5F5F5F5F5F5F5F5F5F5F5F5F5F5F5F5F5F5F5F5F5F5F5F5F5F5F5F5F5F5F5F5F5F5F5F5F5F5F5F5F5F5F5F5F5F5F5F5F5F5F5F5F5F5F5F5F5F5F5F5F5F5F5F5
310
F5F5F5F5F5F5F5F5F5F5F5F5F5F5F5F5F5F5F5F5F5F5F5F5F5F5F5F5F5F5F5F5F5F5F5F5F5F5F5F5F5E2F5F5F5F5F5F5F5F5F5F5F5E2E2F5F5F5F5F5F5F5F5F5F5F5E2F5F5F5F5F5F5F5F5F5F5F5F5F5F5F5F5F5F5F5F5F5F5F5F5F5F5F5F5F5F5F5F5F5F5F5F5F5F5F5F5F5F5F5F5F5F5F5F5F5F5F5F5F5F5F5F5F5F5F5F5
310
F5F5F5F5F5F5F5F5F5F5F5F5F5F5F5F5F5F5F5F5F5F5F5F5F5F5F5F5F5F5F5F5F5F5F5F5F5F5F5F5F5F5F5F5F5F5F5F5F5F5F5F5F5F5F5F5F5F5F5F5F5F5F5F5F5F5F5F5F5F5F5F5F5F5F5F5F5F5F5F5F5F5F5F5F5F5F5F5F5F5F5F5F5F5E2F5F5F5F5F5F5F5F5F5F5F5E2E2F5F5F5F5F5F5F5F5F5F5F5E2F5F5F5F5F5F5F5
310
F5F5F5F5F5F5F5F5F5F5F5F5F5F5F5F5F5F5F5F5F5F5F5F5F5F5F5F5F5F5F5F5F5F5F5F5F5F5F5F5F5F5F5F5F5F5F5F5F5F5F5F5F5F5F5F5F5F5F5F5F5F5F5F5F5F5F5F5F5F5F5F5F5F5F5F5F5F5F5F5F5F5F5F5F5F5F5F5F5F5F5F5F5F5F5F5F5F5F5F5F5F5F5F5F5F5F5F5F5F5F5F5F5F5F5F5F5F5F5F5F5F5F5F5F5F5F5
310
F5F5F5F5F5F5F5F5F5F5F5F5F5F5F5F5F5F5F5F5E2F5F5F5F5F5F5F5F5F5F5F5E2E2F5F5F5F5F5F5F5F5F5F5F5E2F5F5F5F5F5F5F5F5F5F5F5F5F5F5F5F5F5F5F5F5F5F5F5F5F5F5F5F5F5F5F5F5F5F5F5F5F5F5F5F5F5F5F5F5F5F5F5F5F5F5F5F5F5F5F5F5F5F5F5F5F5F5F5F5F5F5F5F5F5F5F5F5F5F5F5F5F5F5F5F5F5
310
F5F5F5F5F5F5F5F5F5F5F5F5F5F5F5F5F5F5F5F5F5F5F5F5F5F5F5F5F5F5F5F5F5F5F5F5F5F5F5F5F5F5F5F5F5F5F5F5F5F5F5F5F5F5F5F5F5F5F5F5F5F5F5F5F5F5F5F5F5F5F5F5F5E2F5F5F5F5F5F5F5F5F5F5F5E2E2F5F5F5F5F5F5F5F5F5F5F5E2F5F5F5F5F5F5F5F5F5F5F5F5F5F5F5F5F5F5F5F5F5F5F5F5F5F5F5F5
310
F5F5F5F5F5F5F5F5F5F5F5F5F5F5F5F5F5F5F5F5F5F5F5F5F5F5F5F5F5F5F5F5F5F5F5F5F5F5F5F5F5F5F5F5F5F5F5F5F5F5F5F5F5F5F5F5F5F5F5F5F5F5F5F5F5F5F5F5F5F5F5F5F5F5F5F5F5F5F5F5F5F5F5F5F5F5F5F5F5F5F5F5F5F5F5F5F5F5F5F5F5F5F5F5F5F5F5F5F5F5F5F5F5F5F5F5F5F5F5F5F5F5F5F5F5F5E2
310
F5F5F5F5F5F5F5F5F5F5F5E2E2F5F5F5F5F5F5F5F5F5F5F5E2F5F5F5F5F5F5F5F5F5F5F5F5F5F5F5F5F5F5F5F5F5F5F5F5F5F5F5F5F5F5F5F5F5F5F5F5F5F5F5F5F5F5F5F5F5F5F5F5F5F5F5F5F5F5F5F5F5F5F5F5F5F5F5F5F5F5F5F5F5F5F5F5F5F5F5F5F5F5F5F5F5F5F5F5F5F5F5F5F5F5F5F5F5F5F5F5F5F5F5F5F5F5
310
F5F5F5F5F5F5F5F5F5F5F5F5F5F5F5F5F5F5F5F5F5F5F5F5F5F5F5F5F5F5F5F5F5F5F5F5F5F5F5F5F5F5F5F5F5F5F5F5F5F5F5F5E2F5F5F5F5F5F5F5F5F5F5F5E2E2F5F5F5F5F5F5F5F5F5F5F5E2F5F5F5F5F5F5F5F5F5F5F5F5F5F5F5F5F5F5F5F5F5F5F5F5F5F5F5F5F5F5F5F5F5F5F5F5F5F5F5F5F5F5F5F5F5F5F5F5F5
310
F5F5F5F5F5F5F5F5F5F5F5F5F5F5F5F5F5F5F5F5F5F5F5F5F5F5F5F5F5F5F5F5F5F5F5F5F5F5F5F5F5F5F5F5F5F5F5F5F5F5F5F5F5F5F5F5F5F5F5F5F5F5F5F5F5F5F5F5F5F5F5F5F5F5F5F5F5F5F5F5F5F5F5F5F5F5F5F5F5F5F5F5F5F5F5F5F5F5F5F5F5F5F5F5F5E2F5F5F5F5F5F5F5F5F5F5F5E2E2F5F5F5F5F5F5F5F5
310
F5F5F5E2F5F5F5F5F5F5F5F5F5F5F5F5F5F5F5F5F5F5F5F5F5F5F5F5F5F5F5F5F5F5F5F5F5F5F5F5F5F5F5F5F5F5F5F5F5F5F5F5F5F5F5F5F5F5F5F5F5F5F5F5F5F5F5F5F5F5F5F5F5F5F5F5F5F5F5F5F5F5F5F5F5F5F5F5F5F5F5F5F5F5F5F5F5F5F5F5F5F5F5F5F5F5F5F5F5F5F5F5F5F5F5F5F5F5F5F5F5F5F5F5F5F5F5
310
F5F5F5F5F5F5F5F5F5F5F5F5F5F5F5F5F5F5F5F5F5F5F5F5F5F5F5F5F5F5F5E2F5F5F5F5F5F5F5F5F5F5F5E2E2F5F5F5F5F5F5F5F5F5F5F5E2F5F5F5F5F5F5F5F5F5F5F5F5F5F5F5F5F5F5F5F5F5F5F5F5F5F5F5F5F5F5F5F5F5F5F5F5F5F5F5F5F5F5F5F5F5F5F5F5F5F5F5F5F5F5F5F5F5F5F5F5F5F5F5F5F5F5F5F5F5F5
310
F5F5F5F5F5F5F5F5F5F5F5F5F5F5F5F5F5F5F5F5F5F5F5F5F5F5F5F5F5F5F5F5F5F5F5F5F5F5F5F5F5F5F5F5F5F5F5F5F5F5F5F5F5F5F5F5F5F5F5F5F5F5F5F5F5F5F5F5F5F5F5F5F5F5F5F5F5F5F5F5F5F5F5F5E2F5F5F5F5F5F5F5F5F5F5F5E2E2F5F5F5F5F5F5F5F5F5F5F5E2F5F5F5F5F5F5F5F5F5F5F5F5F5F5F5F5F5
310
F5F5F5F5F5F5F5F5F5F5F5F5F5F5F5F5F5F5F5F5F5F5F5F5F5F5F5F5F5F5F5F5F5F5F5F5F5F5F5F5F5F5F5F5F5F5F5F5F5F5F5F5F5F5F5F5F5F5F5F5F5F5F5F5F5F5F5F5F5F5F5F5F5F5F5F5F5F5F5F5F5F5F5F5F5F5F5F5F5F5F5F5F5F5F5F5F5F5F5F5F5F5F5F5F5F5F5F5F5F5F5F5F5F5F5F5F5F5F5F5F5F5F5F5F5F5F5
310
F5F5F5F5F5F5F5F5F5F5E2F5F5F5F5F5F5F5F5F5F5F5E2E2F5F5F5F5F5F5F5F5F5F5F5E2F5F5F5F5F5F5F5F5F5F5F5F5F5F5F5F5F5F5F5F5F5F5F5F5F5F5F5F5F5F5F5F5F5F5F5F5F5F5F5F5F5F5F5F5F5F5F5F5F5F5F5F5F5F5F5F5F5F5F5F5F5F5F5F5F5F5F5F5F5F5F5F5F5F5F5F5F5F5F5F5F5F5F5F5F5F5F5F5F5F5F5
310
F5F5F5F5F5F5F5F5F5F5F5F5F5F5F5F5F5F5F5F5F5F5F5F5F5F5F5F5F5F5F5F5F5F5F5F5F5F5F5F5F5F5F5F5F5F5F5F5F5F5F5F5F5F5F5F5F5F5F5F5F5F5F5E2F5F5F5F5F5F5F5F5F5F5F5E2E2F5F5F5F5F5F5F5F5F5F5F5E2F5F5F5F5F5F5F5F5F5F5F5F5F5F5F5F5F5F5F5F5F5F5F5F5F5F5F5F5F5F5F5F5F5F5F5F5F5F5
310
F5F5F5F5F5F5F5F5F5F5F5F5F5F5F5F5F5F5F5F5F5F5F5F5F5F5F5F5F5F5F5F5F5F5F5F5F5F5F5F5F5F5F5F5F5F5F5F5F5F5F5F5F5F5F5F5F5F5F5F5F5F5F5F5F5F5F5F5F5F5F5F5F5F5F5F5F5F5F5F5F5F5F5F5F5F5F5F5F5F5F5F5F5F5F5F5F5F5F5F5F5F5F5F5F5F5F5F5F5F5F5F5F5F5F5F5E2F5F5F5F5F5F5F5F5F5F5
310
F5E2E2F5F5F5F5F5F5F5F5F5F5F5F5F5F5F5F5F5F5F5F5F5F5F5F5F5F5F5F5F5F5F5F5F5F5F5F5F5F5F5F5F5F5F5F5F5F5F5F5F5F5F5F5F5F5F5F5F5F5F5F5F5F5F5F5F5F5F5F5F5F5F5F5F5F5F5F5F5F5F5F5F5F5F5F5F5F5F5F5F5F5F5F5F5F5F5F5F5F5F5F5F5F5F5F5F5F5F5F5F5F5F5F5F5F5F5F5F5F5F5F5F5F5F5F5
310
F5F5F5F5F5F5F5F5F5F5F5F5F5F5F5F5F5F5F5F5F5F5F5F5F5F5F5F5F5F5F5F5F5F5F5F5F5F5F5F5F5F5F5F5F5F5F5F5F5F5F5F5F5F5E2E2F5F5F5F5F5F5F5F5F5F5F5F5F5F5F5F5F5F5F5F5F5F5F5F5F5F5F5F5F5F5F5F5F5F5F5F5F5F5F5F5F5F5F5F5F5F5F5F5F5F5F5F5F5F5F5F5F5F5F5F5F5F5F5F5F5F5F5F5F5F5F5
310
F5F5F5F5F5F5F5F5F5F5F5F5F5F5F5F5F5F5F5F5F5F5F5F5F5F5F5F5F5F5F5F5F5F5F5F5F5F5F5F5F5F5F5F5F5F5F5F5F5F5F5F5F5F5F5F5F5F5F5F5F5F5F5F5F5F5F5F5F5F5F5F5F5F5F5F5F5F5F5F5F5F5F5F5F5F5F5F5F5F5F5F5F5F5F5F5F5F5F5F5F5F5F5F5F5F5F5E2E2F5F5F5F5F5F5F5F5F5F5F5F5F5F5F5F5F5F5
310
F5F5F5F5F5F5F5F5F5F5F5F5F5F5F5F5F5F5F5F5F5F5F5F5F5F5F5F5F5F5F5F5F5F5F5F5F5F5F5F5F5F5F5F5F5F5F5F5F5F5F5F5F5F5F5F5F5F5F5F5F5F5F5F5F5F5F5F5F5F5F5F5F5F5F5F5F5F5F5F5F5F5F5F5F5F5F5F5F5F5F5F5F5F5F5F5F5F5F5F5F5F5F5F5F5F5F5F5F5F5F5F5F5F5F5F5F5F5F5F5F5F5F5F5F5F5F5
310
F5F5F5F5F5F5F5F5F5F5F5F5F5F5F5F5F5F5F5F5F5F5F5F5F5F5F5F5F5F5F5F5F5E2E2F5F5F5F5F5F5F5F5F5F5F5F5F5F5F5F5F5F5F5F5F5F5F5F5F5F5F5F5F5F5F5F5F5F5F5F5F5F5F5F5F5F5F5F5F5F5F5F5F5F5F5F5F5F5F5F5F5F5F5F5F5F5F5F5F5F5F5F5F5F5F5F5F5F5F5F5F5F5F5F5F5F5F5F5F5F5F5F5F5F5F5F5
310
F5F5F5F5F5F5F5F5F5F5F5F5F5F5F5F5F5F5F5F5F5F5F5F5F5F5F5F5F5F5F5F5F5F5F5F5F5F5F5F5F5F5F5F5F5F5F5F5F5F5F5F5F5F5F5F5F5F5F5F5F5F5F5F5F5F5F5F5F5F5F5F5F5F5F5F5F5F5F5F5F5F5F5F5F5F5E2E2F5F5F5F5F5F5F5F5F5F5F5F5F5F5F5F5F5F5F5F5F5F5F5F5F5F5F5F5F5F5F5F5F5F5F5F5F5F5F5
310
F5F5F5F5F5F5F5F5F5F5F5F5F5F5F5F5F5F5F5F5F5F5F5F5F5F5F5F5F5F5F5F5F5F5F5F5F5F5F5F5F5F5F5F5F5F5F5F5F5F5F5F5F5F5F5F5F5F5F5F5F5F5F5F5F5F5F5F5F5F5F5F5F5F5F5F5F5F5F5F5F5F5F5F5F5F5F5F5F5F5F5F5F5F5F5F5F5F5F5F5F5F5F5F5F5F5F5F5F5F5F5F5F5F5F5F5F5F5F5F5F5F5F5F5F5F5F5
310
F5F5F5F5F5F5F5F5F5F5F5F5E2E2F5F5F5F5F5F5F5F5F5F5F5F5F5F5F5F5F5F5F5F5F5F5F5F5F5F5F5F5F5F5F5F5F5F5F5F5F5F5F5F5F5F5F5F5F5F5F5F5F5F5F5F5F5F5F5F5F5F5F5F5F5F5F5F5F5F5F5F5F5F5F5F5F5F5F5F5F5F5F5F5F5F5F5F5F5F5F5F5F5F5F5F5F5F5F5F5F5F5F5F5F5F5F5F5F5F5F5F5F5F5F5F5F5
310
F5F5F5F5F5F5F5F5F5F5F5F5F5F5F5F5F5F5F5F5F5F5F5F5F5F5F5F5F5F5F5F5F5F5F5F5F5F5F5F5F5F5F5F5F5F5F5F5F5F5F5F5F5F5F5F5F5F5F5F5F5F5F5F5F5E2E2F5F5F5F5F5F5F5F5F5F5F5F5F5F5F5F5F5F5F5F5F5F5F5F5F5F5F5F5F5F5F5F5F5F5F5F5F5F5F5F5F5F5F5F5F5F5F5F5F5F5F5F5F5F5F5F5F5F5F5F5
310
F5F5F5F5F5F5F5F5F5F5F5F5F5F5F5F5F5F5F5F5F5F5F5F5F5F5F5F5F5F5F5F5F5F5F5F5F5F5F5F5F5F5F5F5F5F5F5F5F5F5F5F5F5F5F5F5F5F5F5F5F5F5F5F5F5F5F5F5F5F5F5F5F5F5F5F5F5F5F5F5F5F5F5F5F5F5F5F5F5F5F5F5F5F5F5F5F5F5F5F5F5F5F5F5F5F5F5F5F5F5F5F5F5F5F5F5F5F5E2E2F5F5F5F5F5F5F5
310
F5F5F5F5F5F5F5F5F5F5F5F5F5F5F5F5F5F5F5F5F5F5F5F5F5F5F5F5F5F5F5F5F5F5F5F5F5F5F5F5F5F5F5F5F5F5F5F5F5F5F5F5F5F5F5F5F5F5F5F5F5F5F5F5F5F5F5F5F5F5F5F5F5F5F5F5F5F5F5F5F5F5F5F5F5F5F5F5F5F5F5F5F5F5F5F5F5F5F5F5F5F5F5F5F5F5F5F5F5F5F5F5F5F5F5F5F5F5F5F5F5F5F5F5F5F5F5
310
F5F5F5F5F5F5F5F5F5F5F5F5F5F5F5F5F5F5F5F5F5F5F5F5F5F5F5F5F5F5F5F5F5F5F5F5F5F5F5F5F5F5F5F5E2E2F5F5F5F5F5F5F5F5F5F5F5E2F5F5F5F5F5F5F5F5F5F5F5F5F5F5F5F5F5F5F5F5F5F5F5F5F5F5F5F5F5F5F5F5F5F5F5F5F5F5F5F5F5F5F5F5F5F5F5F5F5F5F5F5F5F5F5F5F5F5F5F5F5F5F5F5F5F5F5F5F5
310
F5F5F5F5F5F5F5F5F5F5F5F5F5F5F5F5F5F5F5F5F5F5F5F5F5F5F5F5F5F5F5F5F5F5F5F5F5F5F5F5F5F5F5F5F5F5F5F5F5F5F5F5F5F5F5F5F5F5F5F5F5F5F5F5F5F5F5F5F5F5F5F5F5F5F5F5F5F5F5F5F5F5F5F5F5E2F5F5F5F5F5F5F5F5F5F5F5E2E2F5F5F5F5F5F5F5F5F5F5F5E2F5F5F5F5F5F5F5F5F5F5F5F5F5F5F5F5
310
F5F5F5F5F5F5F5F5F5F5F5F5F5F5F5F5F5F5F5F5F5F5F5F5F5F5F5F5F5F5F5F5F5F5F5F5F5F5F5F5F5F5F5F5F5F5F5F5F5F5F5F5F5F5F5F5F5F5F5F5F5F5F5F5F5F5F5F5F5F5F5F5F5F5F5F5F5F5F5F5F5F5F5F5F5F5F5F5F5F5F5F5F5F5F5F5F5F5F5F5F5F5F5F5F5F5F5F5F5F5F5F5F5F5F5F5F5F5F5F5F5F5F5F5F5F5F5
310
F5F5F5F5F5F5F5F5F5F5F5E2F5F5F5F5F5F5F5F5F5F5F5E2E2F5F5F5F5F5F5F5F5F5F5F5E2F5F5F5F5F5F5F5F5F5F5F5F5F5F5F5F5F5F5F5F5F5F5F5F5F5F5F5F5F5F5F5F5F5F5F5F5F5F5F5F5F5F5F5F5F5F5F5F5F5F5F5F5F5F5F5F5F5F5F5F5F5F5F5F5F5F5F5F5F5F5F5F5F5F5F5F5F5F5F5F5F5F5F5F5F5F5F5F5F5F5
310
F5F5F5F5F5F5F5F5F5F5F5F5F5F5F5F5F5F5F5F5F5F5F5F5F5F5F5F5F5F5F5F5F5F5F5F5F5F5F5F5F5F5F5F5F5F5F5F5F5F5F5F5F5F5F5F5F5F5F5F5F5F5F5F5E2F5F5F5F5F5F5F5F5F5F5F5E2E2F5F5F5F5F5F5F5F5F5F5F5E2F5F5F5F5F5F5F5F5F5F5F5F5F5F5F5F5F5F5F5F5F5F5F5F5F5F5F5F5F5F5F5F5F5F5F5F5F5
310
F5F5F5F5F5F5F5F5F5F5F5F5F5F5F5F5F5F5F5F5F5F5F5F5F5F5F5F5F5F5F5F5F5F5F5F5F5F5F5F5F5F5F5F5F5F5F5F5F5F5F5F5F5F5F5F5F5F5F5F5F5F5F5F5F5F5F5F5F5F5F5F5F5F5F5F5F5F5F5F5F5F5F5F5F5F5F5F5F5F5F5F5F5F5F5F5F5F5F5F5F5F5F5F5F5F5F5F5F5F5F5F5F5F5F5F5F5E2F5F5F5F5F5F5F5F5F5
310
F5F5E2E2F5F5F5F5F5F5F5F5F5F5F5E2F5F5F5F5F5F5F5F5F5F5F5F5F5F5F5F5F5F5F5F5F5F5F5F5F5F5F5F5F5F5F5F5F5F5F5F5F5F5F5F5F5F5F5F5F5F5F5F5F5F5F5F5F5F5F5F5F5F5F5F5F5F5F5F5F5F5F5F5F5F5F5F5F5F5F5F5F5F5F5F5F5F5F5F5F5F5F5F5F5F5F5F5F5F5F5F5F5F5F5F5F5F5F5F5F5F5F5F5F5F5F5
310
F5F5F5F5F5F5F5F5F5F5F5F5F5F5F5F5F5F5F5F5F5F5F5F5F5F5F5F5F5F5F5F5F5F5F5F5F5F5F5F5F5F5F5E2F5F5F5F5F5F5F5F5F5F5F5E2E2F5F5F5F5F5F5F5F5F5F5F5E2F5F5F5F5F5F5F5F5F5F5F5F5F5F5F5F5F5F5F5F5F5F5F5F5F5F5F5F5F5F5F5F5F5F5F5F5F5F5F5F5F5F5F5F5F5F5F5F5F5F5F5F5F5F5F5F5F5F5
310
F5F5F5F5F5F5F5F5F5F5F5F5F5F5F5F5F5F5F5F5F5F5F5F5F5F5F5F5F5F5F5F5F5F5F5F5F5F5F5F5F5F5F5F5F5F5F5F5F5F5F5F5F5F5F5F5F5F5F5F5F5F5F5F5F5F5F5F5F5F5F5F5F5F5F5F5F5F5F5F5F5F5F5F5F5F5F5F5F5F5F5F5F5F5F5F5E2F5F5F5F5F5F5F5F5F5F5F5E2E2F5F5F5F5F5F5F5F5F5F5F5E2F5F5F5F5F5
310
F5F5F5F5F5F5F5F5F5F5F5F5F5F5F5F5F5F5F5F5F5F5F5F5F5F5F5F5F5F5F5F5F5F5F5F5F5F5F5F5F5F5F5F5F5F5F5F5F5F5F5F5F5F5F5F5F5F5F5F5F5F5F5F5F5F5F5F5F5F5F5F5F5F5F5F5F5F5F5F5F5F5F5F5F5F5F5F5F5F5F5F5F5F5F5F5F5F5F5F5F5F5F5F5F5F5F5F5F5F5F5F5F5F5F5F5F5F5F5F5F5F5F5F5F5F5F5
310
F5F5F5F5F5F5F5F5F5F5F5F5F5F5F5F5F5F5F5F5F5F5E2F5F5F5F5F5F5F5F5F5F5F5E2E2F5F5F5F5F5F5F5F5F5F5F5E2F5F5F5F5F5F5F5F5F5F5F5F5F5F5F5F5F5F5F5F5F5F5F5F5F5F5F5F5F5F5F5F5F5F5F5F5F5F5F5F5F5F5F5F5F5F5F5F5F5F5F5F5F5F5F5F5F5F5F5F5F5F5F5F5F5F5F5F5F5F5F5F5F5F5F5F5F5F5F5
310
F5F5F5F5F5F5F5F5F5F5F5F5F5F5F5F5F5F5F5F5F5F5F5F5F5F5F5F5F5F5F5F5F5F5F5F5F5F5F5F5F5F5F5F5F5F5F5F5F5F5F5F5F5F5F5F5F5F5F5F5F5F5F5F5F5F5F5F5F5F5F5F5F5F5F5E2F5F5F5F5F5F5F5F5F5F5F5E2E2F5F5F5F5F5F5F5F5F5F5F5E2F5F5F5F5F5F5F5F5F5F5F5F5F5F5F5F5F5F5F5F5F5F5F5F5F5F5
310
F5F5F5F5F5F5F5F5F5F5F5F5F5F5F5F5F5F5F5F5F5F5F5F5F5F5F5F5F5F5F5F5F5F5F5F5F5F5F5F5F5F5F5F5F5F5F5F5F5F5F5F5F5F5F5F5F5F5F5F5F5F5F5F5F5F5F5F5F5F5F5F5F5F5F5F5F5F5F5F5F5F5F5F5F5F5F5F5F5F5F5F5F5F5F5F5F5F5F5F5F5F5F5F5F5F5F5F5F5F5F5F5F5F5F5F5F5F5F5F5F5F5F5F5F5F5F5
310
F5E2F5F5F5F5F5F5F5F5F5F5F5E2E2F5F5F5F5F5F5F5F5F5F5F5E2F5F5F5F5F5F5F5F5F5F5F5F5F5F5F5F5F5F5F5F5F5F5F5F5F5F5F5F5F5F5F5F5F5F5F5F5F5F5F5F5F5F5F5F5F5F5F5F5F5F5F5F5F5F5F5F5F5F5F5F5F5F5F5F5F5F5F5F5F5F5F5F5F5F5F5F5F5F5F5F5F5F5F5F5F5F5F5F5F5F5F5F5F5F5F5F5F5F5F5F5
310
F5F5F5F5F5F5F5F5F5F5F5F5F5F5F5F5F5F5F5F5F5F5F5F5F5F5F5F5F5F5F5F5F5F5F5F5F5F5F5F5F5F5F5F5F5F5F5F5F5F5F5F5F5F5E2F5F5F5F5F5F5F5F5F5F5F5E2E2F5F5F5F5F5F5F5F5F5F5F5E2F5F5F5F5F5F5F5F5F5F5F5F5F5F5F5F5F5F5F5F5F5F5F5F5F5F5F5F5F5F5F5F5F5F5F5F5F5F5F5F5F5F5F5F5F5F5F5
310
F5F5F5F5F5F5F5F5F5F5F5F5F5F5F5F5F5F5F5F5F5F5F5F5F5F5F5F5F5F5F5F5F5F5F5F5F5F5F5F5F5F5F5F5F5F5F5F5F5F5F5F5F5F5F5F5F5F5F5F5F5F5F5F5F5F5F5F5F5F5F5F5F5F5F5F5F5F5F5F5F5F5F5F5F5F5F5F5F5F5F5F5F5F5F5F5F5F5F5F5F5F5F5F5F5F5F5E2F5F5F5F5F5F5F5F5F5F5F5E2E2F5F5F5F5F5F5
310
F5F5F5F5F5E2F5F5F5F5F5F5F5F5F5F5F5F5F5F5F5F5F5F5F5F5F5F5F5F5F5F5F5F5F5F5F5F5F5F5F5F5F5F5F5F5F5F5F5F5F5F5F5F5F5F5F5F5F5F5F5F5F5F5F5F5F5F5F5F5F5F5F5F5F5F5F5F5F5F5F5F5F5F5F5F5F5F5F5F5F5F5F5F5F5F5F5F5F5F5F5F5F5F5F5F5F5F5F5F5F5F5F5F5F5F5F5F5F5F5F5F5F5F5F5F5F5
310
F5F5F5F5F5F5F5F5F5F5F5F5F5F5F5F5F5F5F5F5F5F5F5F5F5F5F5F5F5F5F5F5F5E2F5F5F5F5F5F5F5F5F5F5F5E2E2F5F5F5F5F5F5F5F5F5F5F5E2F5F5F5F5F5F5F5F5F5F5F5F5F5F5F5F5F5F5F5F5F5F5F5F5F5F5F5F5F5F5F5F5F5F5F5F5F5F5F5F5F5F5F5F5F5F5F5F5F5F5F5F5F5F5F5F5F5F5F5F5F5F5F5F5F5F5F5F5
310
F5F5F5F5F5F5F5F5F5F5F5F5F5F5F5F5F5F5F5F5F5F5F5F5F5F5F5F5F5F5F5F5F5F5F5F5F5F5F5F5F5F5F5F5F5F5F5F5F5F5F5F5F5F5F5F5F5F5F5F5F5F5F5F5F5F5F5F5F5F5F5F5F5F5F5F5F5F5F5F5F5F5F5F5F5F5E2F5F5F5F5F5F5F5F5F5F5F5E2E2F5F5F5F5F5F5F5F5F5F5F5E2F5F5F5F5F5F5F5F5F5F5F5F5F5F5F5
310
F5F5F5F5F5F5F5F5F5F5F5F5F5F5F5F5F5F5F5F5F5F5F5F5F5F5F5F5F5F5F5F5F5F5F5F5F5F5F5F5F5F5F5F5F5F5F5F5F5F5F5F5F5F5F5F5F5F5F5F5F5F5F5F5F5F5F5F5F5F5F5F5F5F5F5F5F5F5F5F5F5F5F5F5F5F5F5F5F5F5F5F5F5F5F5F5F5F5F5F5F5F5F5F5F5F5F5F5F5F5F5F5F5F5F5F5F5F5F5F5F5F5F5F5F5F5F5
310
F5F5F5F5F5F5F5F5F5F5F5F5E2F5F5F5F5F5F5F5F5F5F5F5E2E2F5F5F5F5F5F5F5F5F5F5F5E2F5F5F5F5F5F5F5F5F5F5F5F5F5F5F5F5F5F5F5F5F5F5F5F5F5F5F5F5F5F5F5F5F5F5F5F5F5F5F5F5F5F5F5F5F5F5F5F5F5F5F5F5F5F5F5F5F5F5F5F5F5F5F5F5F5F5F5F5F5F5F5F5F5F5F5F5F5F5F5F5F5F5F5F5F5F5F5F5F5
310
F5F5F5F5F5F5F5F5F5F5F5F5F5F5F5F5F5F5F5F5F5F5F5F5F5F5F5F5F5F5F5F5F5F5F5F5F5F5F5F5F5F5F5F5F5F5F5F5F5F5F5F5F5F5F5F5F5F5F5F5F5F5F5F5F5E2F5F5F5F5F5F5F5F5F5F5F5E2E2F5F5F5F5F5F5F5F5F5F5F5F5F5F5F5F5F5F5F5F5F5F5F5F5F5F5F5F5F5F5F5F5F5F5F5F5F5F5F5F5F5F5F5F5F5F5F5F5
310
F5F5F5F5F5F5F5F5F5F5F5F5F5F5F5F5F5F5F5F5F5F5F5F5F5F5F5F5F5F5F5F5F5F5F5F5F5F5F5F5F5F5F5F5F5F5F5F5F5F5F5F5F5F5F5F5F5F5F5F5F5F5F5F5F5F5F5F5F5F5F5F5F5F5F5F5F5F5F5F5F5F5F5F5F5F5F5F5F5F5F5F5F5F5F5F5F5F5F5F5F5F5F5F5F5F5F5F5F5F5F5F5F5F5F5F5F5F5F5F5F5F5F5F5F5F5F5
310
F5F5F5E2E2F5F5F5F5F5F5F5F5F5F5F5F5F5F5F5F5F5F5F5F5F5F5F5F5F5F5F5F5F5F5F5F5F5F5F5F5F5F5F5F5F5F5F5F5F5F5F5F5F5F5F5F5F5F5F5F5F5F5F5F5F5F5F5F5F5F5F5F5F5F5F5F5F5F5F5F5F5F5F5F5F5F5F5F5F5F5F5F5F5F5F5F5F5F5F5F5F5F5F5F5F5F5F5F5F5F5F5F5F5F5F5F5F5F5F5F5F5F5F5F5F5F5
310
F5F5F5F5F5F5F5F5F5F5F5F5F5F5F5F5F5F5F5F5F5F5F5F5F5F5F5F5F5F5F5F5F5F5F5F5F5F5F5F5F5F5F5F5F5F5F5F5F5F5F5F5F5F5F5F5E2E2F5F5F5F5F5F5F5F5F5F5F5F5F5F5F5F5F5F5F5F5F5F5F5F5F5F5F5F5F5F5F5F5F5F5F5F5F5F5F5F5F5F5F5F5F5F5F5F5F5F5F5F5F5F5F5F5F5F5F5F5F5F5F5F5F5F5F5F5F5
310
F5F5F5F5F5F5F5F5F5F5F5F5F5F5F5F5F5F5F5F5F5F5F5F5F5F5F5F5F5F5F5F5F5F5F5F5F5F5F5F5F5F5F5F5F5F5F5F5F5F5F5F5F5F5F5F5F5F5F5F5F5F5F5F5F5F5F5F5F5F5F5F5F5F5F5F5F5F5F5F5F5F5F5F5F5F5F5F5F5F5F5F5F5F5F5F5F5F5F5F5F5F5F5F5F5F5F5F5F5E2E2F5F5F5F5F5F5F5F5F5F5F5F5F5F5F5F5
310
F5F5F5F5F5F5F5F5F5F5F5F5F5F5F5F5F5F5F5F5F5F5F5F5F5F5F5F5F5F5F5F5F5F5F5F5F5F5F5F5F5F5F5F5F5F5F5F5F5F5F5F5F5F5F5F5F5F5F5F5F5F5F5F5F5F5F5F5F5F5F5F5F5F5F5F5F5F5F5F5F5F5F5F5F5F5F5F5F5F5F5F5F5F5F5F5F5F5F5F5F5F5F5F5F5F5F5F5F5F5F5F5F5F5F5F5F5F5F5F5F5F5F5F5F5F5F5
310
F5F5F5F5F5F5F5F5F5F5F5F5F5F5F5F5F5F5F5F5F5F5F5F5F5F5F5F5F5F5F5F5F5F5F5E2E2F5F5F5F5F5F5F5F5F5F5F5F5F5F5F5F5F5F5F5F5F5F5F5F5F5F5F5F5F5F5F5F5F5F5F5F5F5F5F5F5F5F5F5F5F5F5F5F5F5F5F5F5F5F5F5F5F5F5F5F5F5F5F5F5F5F5F5F5F5F5F5F5F5F5F5F5F5F5F5F5F5F5F5F5F5F5F5F5F5F5
310
F5F5F5F5F5F5F5F5F5F5F5F5F5F5F5F5F5F5F5F5F5F5F5F5F5F5F5F5F5F5F5F5F5F5F5F5F5F5F5F5F5F5F5F5F5F5F5F5F5F5F5F5F5F5F5F5F5F5F5F5F5F5F5F5F5F5F5F5F5F5F5F5F5F5F5F5F5F5F5F5F5F5F5F5F5F5F5F5E2E2F5F5F5F5F5F5F5F5F5F5F5F5F5F5F5F5F5F5F5F5F5F5F5F5F5F5F5F5F5F5F5F5F5F5F5F5F5
310
F5F5F5F5F5F5F5F5F5F5F5F5F5F5F5F5F5F5F5F5F5F5F5F5F5F5F5F5F5F5F5F5F5F5F5F5F5F5F5F5F5F5F5F5F5F5F5F5F5F5F5F5F5F5F5F5F5F5F5F5F5F5F5F5F5F5F5F5F5F5F5F5F5F5F5F5F5F5F5F5F5F5F5F5F5F5F5F5F5F5F5F5F5F5F5F5F5F5F5F5F5F5F5F5F5F5F5F5F5F5F5F5F5F5F5F5F5F5F5F5F5F5F5F5F5F5F5
310
F5F5F5F5F5F5F5F5F5F5F5F5F5F5E2E2F5F5F5F5F5F5F5F5F5F5F5F5F5F5F5F5F5F5F5F5F5F5F5F5F5F5F5F5F5F5F5F5F5F5F5F5F5F5F5F5F5F5F5F5F5F5F5F5F5F5F5F5F5F5F5F5F5F5F5F5F5F5F5F5F5F5F5F5F5F5F5F5F5F5F5F5F5F5F5F5F5F5F5F5F5F5F5F5F5F5F5F5F5F5F5F5F5F5F5F5F5F5F5F5F5F5F5F5F5F5F5
310
F5F5F5F5F5F5F5F5F5F5F5F5F5F5F5F5F5F5F5F5F5F5F5F5F5F5F5F5F5F5F5F5F5F5F5F5F5F5F5F5F5F5F5F5F5F5F5F5F5F5F5F5F5F5F5F5F5F5F5F5F5F5F5F5F5F5F5E2E2F5F5F5F5F5F5F5F5F5F5F5F5F5F5F5F5F5F5F5F5F5F5F5F5F5F5F5F5F5F5F5F5F5F5F5F5F5F5F5F5F5F5F5F5F5F5F5F5F5F5F5F5F5F5F5F5F5F5
310
F5F5F5F5F5F5F5F5F5F5F5F5F5F5F5F5F5F5F5F5F5F5F5F5F5F5F5F5F5F5F5F5F5F5F5F5F5F5F5F5F5F5F5F5F5F5F5F5F5F5F5F5F5F5F5F5F5F5F5F5F5F5F5F5F5F5F5F5F5F5F5F5F5F5F5F5F5F5F5F5F5F5F5F5F5F5F5F5F5F5F5F5F5F5F5F5F5F5F5F5F5F5F5F5F5F5F5F5F5F5F5F5F5F5F5F5F5F5F5F5E2E2F5F5F5F5F5
310
F5F5F5F5F5F5E2F5F5F5F5F5F5F5F5F5F5F5F5F5F5F5F5F5F5F5F5F5F5F5F5F5F5F5F5F5F5F5F5F5F5F5F5F5F5F5F5F5F5F5F5F5F5F5F5F5F5F5F5F5F5F5F5F5F5F5F5F5F5F5F5F5F5F5F5F5F5F5F5F5F5F5F5F5F5F5F5F5F5F5F5F5F5F5F5F5F5F5F5F5F5F5F5F5F5F5F5F5F5F5F5F5F5F5F5F5F5F5F5F5F5F5F5F5F5F5F5
310
F5F5F5F5F5F5F5F5F5F5F5F5F5F5F5F5F5F5F5F5F5F5F5F5F5F5F5F5F5F5F5F5F5F5E2F5F5F5F5F5F5F5F5F5F5F5E2E2F5F5F5F5F5F5F5F5F5F5F5E2F5F5F5F5F5F5F5F5F5F5F5F5F5F5F5F5F5F5F5F5F5F5F5F5F5F5F5F5F5F5F5F5F5F5F5F5F5F5F5F5F5F5F5F5F5F5F5F5F5F5F5F5F5F5F5F5F5F5F5F5F5F5F5F5F5F5F5
310
F5F5F5F5F5F5F5F5F5F5F5F5F5F5F5F5F5F5F5F5F5F5F5F5F5F5F5F5F5F5F5F5F5F5F5F5F5F5F5F5F5F5F5F5F5F5F5F5F5F5F5F5F5F5F5F5F5F5F5F5F5F5F5F5F5F5F5F5F5F5F5F5F5F5F5F5F5F5F5F5F5F5F5F5F5F5F5E2F5F5F5F5F5F5F5F5F5F5F5E2E2F5F5F5F5F5F5F5F5F5F5F5E2F5F5F5F5F5F5F5F5F5F5F5F5F5F5
310
F5F5F5F5F5F5F5F5F5F5F5F5F5F5F5F5F5F5F5F5F5F5F5F5F5F5F5F5F5F5F5F5F5F5F5F5F5F5F5F5F5F5F5F5F5F5F5F5F5F5F5F5F5F5F5F5F5F5F5F5F5F5F5F5F5F5F5F5F5F5F5F5F5F5F5F5F5F5F5F5F5F5F5F5F5F5F5F5F5F5F5F5F5F5F5F5F5F5F5F5F5F5F5F5F5F5F5F5F5F5F5F5F5F5F5F5F5F5F5F5F5F5F5F5F5F5F5
310
F5F5F5F5F5F5F5F5F5F5F5F5F5E2F5F5F5F5F5F5F5F5F5F5F5E2E2F5F5F5F5F5F5F5F5F5F5F5E2F5F5F5F5F5F5F5F5F5F5F5F5F5F5F5F5F5F5F5F5F5F5F5F5F5F5F5F5F5F5F5F5F5F5F5F5F5F5F5F5F5F5F5F5F5F5F5F5F5F5F5F5F5F5F5F5F5F5F5F5F5F5F5F5F5F5F5F5F5F5F5F5F5F5F5F5F5F5F5F5F5F5F5F5F5F5F5F5
310
F5F5F5F5F5F5F5F5F5F5F5F5F5F5F5F5F5F5F5F5F5F5F5F5F5F5F5F5F5F5F5F5F5F5F5F5F5F5F5F5F5F5F5F5F5F5F5F5F5F5F5F5F5F5F5F5F5F5F5F5F5F5F5F5F5F5E2F5F5F5F5F5F5F5F5F5F5F5E2E2F5F5F5F5F5F5F5F5F5F5F5E2F5F5F5F5F5F5F5F5F5F5F5F5F5F5F5F5F5F5F5F5F5F5F5F5F5F5F5F5F5F5F5F5F5F5F5
310
F5F5F5F5F5F5F5F5F5F5F5F5F5F5F5F5F5F5F5F5F5F5F5F5F5F5F5F5F5F5F5F5F5F5F5F5F5F5F5F5F5F5F5F5F5F5F5F5F5F5F5F5F5F5F5F5F5F5F5F5F5F5F5F5F5F5F5F5F5F5F5F5F5F5F5F5F5F5F5F5F5F5F5F5F5F5F5F5F5F5F5F5F5F5F5F5F5F5F5F5F5F5F5F5F5F5F5F5F5F5F5F5F5F5F5F5F5F5F5E2F5F5F5F5F5F5F5
310
F5F5F5F5E2E2F5F5F5F5F5F5F5F5F5F5F5E2F5F5F5F5F5F5F5F5F5F5F5F5F5F5F5F5F5F5F5F5F5F5F5F5F5F5F5F5F5F5F5F5F5F5F5F5F5F5F5F5F5F5F5F5F5F5F5F5F5F5F5F5F5F5F5F5F5F5F5F5F5F5F5F5F5F5F5F5F5F5F5F5F5F5F5F5F5F5F5F5F5F5F5F5F5F5F5F5F5F5F5F5F5F5F5F5F5F5F5F5F5F5F5F5F5F5F5F5F5
310
F5F5F5F5F5F5F5F5F5F5F5F5F5F5F5F5F5F5F5F5F5F5F5F5F5F5F5F5F5F5F5F5F5F5F5F5F5F5F5F5F5F5F5F5F5E2F5F5F5F5F5F5F5F5F5F5F5E2E2F5F5F5F5F5F5F5F5F5F5F5E2F5F5F5F5F5F5F5F5F5F5F5F5F5F5F5F5F5F5F5F5F5F5F5F5F5F5F5F5F5F5F5F5F5F5F5F5F5F5F5F5F5F5F5F5F5F5F5F5F5F5F5F5F5F5F5F5
310
F5F5F5F5F5F5F5F5F5F5F5F5F5F5F5F5F5F5F5F5F5F5F5F5F5F5F5F5F5F5F5F5F5F5F5F5F5F5F5F5F5F5F5F5F5F5F5F5F5F5F5F5F5F5F5F5F5F5F5F5F5F5F5F5F5F5F5F5F5F5F5F5F5F5F5F5F5F5F5F5F5F5F5F5F5F5F5F5F5F5F5F5F5F5F5F5F5F5E2F5F5F5F5F5F5F5F5F5F5F5E2E2F5F5F5F5F5F5F5F5F5F5F5E2E2E2E2
310
E2E2E2E2E2F5F5F5F5F5F5F5F5F5E2E2E2E2E2E2E2E2E2E2E2E2E2E2E2E2E2F5F5F5F5F5F5F5F5F5E2E2E2E2E2E2E2E2E2E2E2E2E2E2E2E2F5F5F5F5F5F5F5F5F5F5E2E2E2E2E2E2E2E2E2E2E2E2E2E2E2E2F5F5F5F5F5F5F5F5F5F5E2E2E2E2E2E2E2E2E2E2E2E2E2E2E2E2F5F5F5F5F5F5F5F5F5E2E2E2E2E2E2E2E2E2E2
310
E2E2E2E2E2E2E2F5F5F5F5F5F5F5F5F5E2E2E2E2E2E2E2E2E2F5F5F5F5F5F5F5F5F5F5F5E2E2F5F5F5F5F5F5F5F5F5F5F5F5F5F5F5F5F5F5F5F5F5F5F5F5F5F5F5F5F5F5F5F5F5F5F5F5F5F5F5F5F5F5F5F5F5F5F5F5F5F5F5F5F5F5F5F5F5F5F5F5F5F5F5F5F5F5F5F5F5F5F5F5F5F5F5F5F5F5F5F5F5F5F5F5F5F5F5F5F5
310
F5F5F5F5F5F5F5F5F5F5F5F5F5F5F5F5F5F5F5F5F5F5F5F5F5F5F5F5F5F5F5F5F5F5F5F5F5F5F5F5F5F5F5F5F5F5F5F5F5F5F5F5F5F5F5F5F5F5F5F5F5F5F5F5F5F5F5F5F5F5F5F5F5F5F5F5F5F5F5F5F5F5F5F5F5F5F5F5F5E2E2F5F5F5F5F5F5F5F5F5F5F5F5F5F5F5F5F5F5F5F5F5F5F5F5F5F5F5F5F5F5F5F5F5F5F5F5
310
F5F5F5F5F5F5F5F5F5F5F5F5F5F5F5F5F5F5F5F5F5F5F5F5F5F5F5F5F5F5F5F5F5F5F5F5F5F5F5F5F5F5F5F5F5F5F5F5F5F5F5F5F5F5F5F5F5F5F5F5F5F5F5F5F5F5F5F5F5F5F5F5F5F5F5F5F5F5F5F5F5F5F5F5F5F5F5F5F5F5F5F5F5F5F5F5F5F5F5F5F5F5F5F5F5F5F5F5F5F5F5F5F5F5F5F5F5F5F5F5F5F5F5F5F5F5F5
310
F5F5F5F5F5F5F5F5F5F5F5F5F5F5F5E2E2F5F5F5F5F5F5F5F5F5F5F5F5F5F5F5F5F5F5F5F5F5F5F5F5F5F5F5F5F5F5F5F5F5F5F5F5F5F5F5F5F5F5F5F5F5F5F5F5F5F5F5F5F5F5F5F5F5F5F5F5F5F5F5F5F5F5F5F5F5F5F5F5F5F5F5F5F5F5F5F5F5F5F5F5F5F5F5F5F5F5F5F5F5F5F5F5F5F5F5F5F5F5F5F5F5F5F5F5F5F5
310
F5F5F5F5F5F5F5F5F5F5F5F5F5F5F5F5F5F5F5F5F5F5F5F5F5F5F5F5F5F5F5F5F5F5F5F5F5F5F5F5F5F5F5F5F5F5F5F5F5F5F5F5F5F5F5F5F5F5F5F5F5F5F5F5F5F5F5F5E2E2F5F5F5F5F5F5F5F5F5F5F5F5F5F5F5F5F5F5F5F5F5F5F5F5F5F5F5F5F5F5F5F5F5F5F5F5F5F5F5F5F5F5F5F5F5F5F5F5F5F5F5F5F5F5F5F5F5
310
F5F5F5F5F5F5F5F5F5F5F5F5F5F5F5F5F5F5F5F5F5F5F5F5F5F5F5F5F5F5F5F5F5F5F5F5F5F5F5F5F5F5F5F5F5F5F5F5F5F5F5F5F5F5F5F5F5F5F5F5F5F5F5F5F5F5F5F5F5F5F5F5F5F5F5F5F5F5F5F5F5F5F5F5F5F5F5F5F5F5F5F5F5F5F5F5F5F5F5F5F5F5F5F5F5F5F5F5F5F5F5F5F5F5F5F5F5F5F5F5F5E2E2E2E2E2E2
310
E2E2E2E2E2E2E2E2E2E2E2E2E2E2E2E2E2E2E2E2E2E2E2E2E2E2E2E2E2E2E2E2E2E2E2E2E2E2E2E2E2E2E2E2E2E2E2E2E2E2E2E2E2E2E2E2E2E2E2E2E2E2E2E2E2E2E2E2E2E2E2E2E2E2E2E2E2E2E2E2E2E2E2E2E2E2E2E2E2E2E2E2E2E2E2E2E2E2E2E2E2E2E2E2E2E2E2E2E2E2E2E2E2E2E2E2E2E2E2E2E2E2E2E2E2E2E2
310
E2E2E2E2E2E2E2E2E2E2E2E2E2E2E2E2E2E2E2E2E2E2E2E2E2E2E2E2E2E2E2E2E2E2E2E2E2E2E2E2E2E2E2E2E2E2E2E2
  0
ENDSEC
  0
EOF
