  0
SECTION
  2
HEADER
  9
$ACADVER
  1
AC1021
  9
$ACADMAINTVER
 70
     1
  9
$DWGCODEPAGE
  3
ANSI_932
  9
$LASTSAVEDBY
  1
damet
  9
$INSBASE
 10
0.0
 20
0.0
 30
0.0
  9
$EXTMIN
 10
-11898.49056540184
 20
1373.960180906918
 30
0.0
  9
$EXTMAX
 10
-4110.015158914468
 20
6167.317596784858
 30
0.0
  9
$LIMMIN
 10
0.0
 20
0.0
  9
$LIMMAX
 10
0.0
 20
0.0
  9
$ORTHOMODE
 70
     1
  9
$REGENMODE
 70
     1
  9
$FILLMODE
 70
     1
  9
$QTEXTMODE
 70
     0
  9
$MIRRTEXT
 70
     1
  9
$LTSCALE
 40
5.08
  9
$ATTMODE
 70
     1
  9
$TEXTSIZE
 40
0.2
  9
$TRACEWID
 40
1.0
  9
$TEXTSTYLE
  7
Standard
  9
$CLAYER
  8
寸法
  9
$CELTYPE
  6
Continuous
  9
$CECOLOR
 62
   256
  9
$CELTSCALE
 40
1.0
  9
$DISPSILH
 70
     0
  9
$DIMSCALE
 40
1.0
  9
$DIMASZ
 40
1.500683593749999
  9
$DIMEXO
 40
8.0
  9
$DIMDLI
 40
10.16
  9
$DIMRND
 40
0.0
  9
$DIMDLE
 40
1.59
  9
$DIMEXE
 40
3.18
  9
$DIMTP
 40
0.0
  9
$DIMTM
 40
0.0
  9
$DIMTXT
 40
15.0
  9
$DIMCEN
 40
0.0
  9
$DIMTSZ
 40
0.0
  9
$DIMTOL
 70
     0
  9
$DIMLIM
 70
     0
  9
$DIMTIH
 70
     0
  9
$DIMTOH
 70
     0
  9
$DIMSE1
 70
     0
  9
$DIMSE2
 70
     0
  9
$DIMTAD
 70
     1
  9
$DIMZIN
 70
    11
  9
$DIMBLK
  1
DOT
  9
$DIMASO
 70
     1
  9
$DIMSHO
 70
     1
  9
$DIMPOST
  1
<>
  9
$DIMAPOST
  1
[]
  9
$DIMALT
 70
     0
  9
$DIMALTD
 70
     3
  9
$DIMALTF
 40
0.0393700787401575
  9
$DIMLFAC
 40
1.0
  9
$DIMTOFL
 70
     1
  9
$DIMTVP
 40
0.0
  9
$DIMTIX
 70
     1
  9
$DIMSOXD
 70
     0
  9
$DIMSAH
 70
     0
  9
$DIMBLK1
  1

  9
$DIMBLK2
  1

  9
$DIMSTYLE
  2
Yamatoya
  9
$DIMCLRD
 70
     0
  9
$DIMCLRE
 70
     0
  9
$DIMCLRT
 70
     0
  9
$DIMTFAC
 40
1.0
  9
$DIMGAP
 40
1.587499999999999
  9
$DIMJUST
 70
     0
  9
$DIMSD1
 70
     0
  9
$DIMSD2
 70
     0
  9
$DIMTOLJ
 70
     1
  9
$DIMTZIN
 70
    11
  9
$DIMALTZ
 70
    15
  9
$DIMALTTZ
 70
    15
  9
$DIMUPT
 70
     0
  9
$DIMDEC
 70
     0
  9
$DIMTDEC
 70
     0
  9
$DIMALTU
 70
     4
  9
$DIMALTTD
 70
     3
  9
$DIMTXSTY
  7
ヒラギノ角ゴ Pro W3
  9
$DIMAUNIT
 70
     0
  9
$DIMADEC
 70
     2
  9
$DIMALTRND
 40
0.0
  9
$DIMAZIN
 70
     0
  9
$DIMDSEP
 70
    46
  9
$DIMATFIT
 70
     0
  9
$DIMFRAC
 70
     2
  9
$DIMLDRBLK
  1
DOT
  9
$DIMLUNIT
 70
     2
  9
$DIMLWD
 70
    -2
  9
$DIMLWE
 70
    -2
  9
$DIMTMOVE
 70
     0
  9
$DIMFXL
 40
1.0
  9
$DIMFXLON
 70
     0
  9
$DIMJOGANG
 40
0.7853981633974483
  9
$DIMTFILL
 70
     0
  9
$DIMTFILLCLR
 70
     0
  9
$DIMARCSYM
 70
     0
  9
$DIMLTYPE
  6

  9
$DIMLTEX1
  6

  9
$DIMLTEX2
  6

  9
$LUNITS
 70
     2
  9
$LUPREC
 70
     4
  9
$SKETCHINC
 40
0.1
  9
$FILLETRAD
 40
2.0
  9
$AUNITS
 70
     0
  9
$AUPREC
 70
     0
  9
$MENU
  1
acad
  9
$ELEVATION
 40
0.0
  9
$PELEVATION
 40
0.0
  9
$THICKNESS
 40
0.0
  9
$LIMCHECK
 70
     0
  9
$CHAMFERA
 40
1.0
  9
$CHAMFERB
 40
1.0
  9
$CHAMFERC
 40
0.0
  9
$CHAMFERD
 40
0.0
  9
$SKPOLY
 70
     0
  9
$TDCREATE
 40
2455276.758078704
  9
$TDUCREATE
 40
2455276.383078704
  9
$TDUPDATE
 40
2458284.723540706
  9
$TDUUPDATE
 40
2458284.348540706
  9
$TDINDWG
 40
5.1475367824
  9
$TDUSRTIMER
 40
5.1475367824
  9
$USRTIMER
 70
     1
  9
$ANGBASE
 50
0.0
  9
$ANGDIR
 70
     0
  9
$PDMODE
 70
     1
  9
$PDSIZE
 40
-2.0
  9
$PLINEWID
 40
0.0
  9
$SPLFRAME
 70
     0
  9
$SPLINETYPE
 70
     6
  9
$SPLINESEGS
 70
     8
  9
$HANDSEED
  5
31E30
  9
$SURFTAB1
 70
     6
  9
$SURFTAB2
 70
     6
  9
$SURFTYPE
 70
     6
  9
$SURFU
 70
     6
  9
$SURFV
 70
     6
  9
$UCSBASE
  2

  9
$UCSNAME
  2

  9
$UCSORG
 10
0.0
 20
0.0
 30
0.0
  9
$UCSXDIR
 10
1.0
 20
0.0
 30
0.0
  9
$UCSYDIR
 10
0.0
 20
1.0
 30
0.0
  9
$UCSORTHOREF
  2

  9
$UCSORTHOVIEW
 70
     0
  9
$UCSORGTOP
 10
0.0
 20
0.0
 30
0.0
  9
$UCSORGBOTTOM
 10
0.0
 20
0.0
 30
0.0
  9
$UCSORGLEFT
 10
0.0
 20
0.0
 30
0.0
  9
$UCSORGRIGHT
 10
0.0
 20
0.0
 30
0.0
  9
$UCSORGFRONT
 10
0.0
 20
0.0
 30
0.0
  9
$UCSORGBACK
 10
0.0
 20
0.0
 30
0.0
  9
$PUCSBASE
  2

  9
$PUCSNAME
  2

  9
$PUCSORG
 10
0.0
 20
0.0
 30
0.0
  9
$PUCSXDIR
 10
1.0
 20
0.0
 30
0.0
  9
$PUCSYDIR
 10
0.0
 20
1.0
 30
0.0
  9
$PUCSORTHOREF
  2

  9
$PUCSORTHOVIEW
 70
     0
  9
$PUCSORGTOP
 10
0.0
 20
0.0
 30
0.0
  9
$PUCSORGBOTTOM
 10
0.0
 20
0.0
 30
0.0
  9
$PUCSORGLEFT
 10
0.0
 20
0.0
 30
0.0
  9
$PUCSORGRIGHT
 10
0.0
 20
0.0
 30
0.0
  9
$PUCSORGFRONT
 10
0.0
 20
0.0
 30
0.0
  9
$PUCSORGBACK
 10
0.0
 20
0.0
 30
0.0
  9
$USERI1
 70
     0
  9
$USERI2
 70
     0
  9
$USERI3
 70
     0
  9
$USERI4
 70
     0
  9
$USERI5
 70
     0
  9
$USERR1
 40
0.0
  9
$USERR2
 40
0.0
  9
$USERR3
 40
0.0
  9
$USERR4
 40
0.0
  9
$USERR5
 40
0.0
  9
$WORLDVIEW
 70
     1
  9
$SHADEDGE
 70
     3
  9
$SHADEDIF
 70
    70
  9
$TILEMODE
 70
     1
  9
$MAXACTVP
 70
    64
  9
$PINSBASE
 10
0.0
 20
0.0
 30
0.0
  9
$PLIMCHECK
 70
     0
  9
$PEXTMIN
 10
25.69999999999999
 20
19.5
 30
0.0
  9
$PEXTMAX
 10
231.3
 20
175.5
 30
0.0
  9
$PLIMMIN
 10
-20.0
 20
-7.5
  9
$PLIMMAX
 10
277.0
 20
202.5
  9
$UNITMODE
 70
     0
  9
$VISRETAIN
 70
     0
  9
$PLINEGEN
 70
     1
  9
$PSLTSCALE
 70
     1
  9
$TREEDEPTH
 70
  3020
  9
$CMLSTYLE
  2
Standard
  9
$CMLJUST
 70
     0
  9
$CMLSCALE
 40
1.0
  9
$PROXYGRAPHICS
 70
     0
  9
$MEASUREMENT
 70
     1
  9
$CELWEIGHT
370
    -1
  9
$ENDCAPS
280
     0
  9
$JOINSTYLE
280
     0
  9
$LWDISPLAY
290
     1
  9
$INSUNITS
 70
     4
  9
$HYPERLINKBASE
  1

  9
$STYLESHEET
  1

  9
$XEDIT
290
     1
  9
$CEPSNTYPE
380
     0
  9
$PSTYLEMODE
290
     1
  9
$FINGERPRINTGUID
  2

  9
$VERSIONGUID
  2
{F148B67D-5EB7-4C88-992C-1F2BC43DBA00}
  9
$EXTNAMES
290
     1
  9
$PSVPSCALE
 40
0.0
  9
$OLESTARTUP
290
     0
  9
$SORTENTS
280
   127
  9
$INDEXCTL
280
     0
  9
$HIDETEXT
280
     0
  9
$XCLIPFRAME
290
     0
  9
$HALOGAP
280
     0
  9
$OBSCOLOR
 70
   257
  9
$OBSLTYPE
280
     0
  9
$INTERSECTIONDISPLAY
280
     0
  9
$INTERSECTIONCOLOR
 70
   257
  9
$DIMASSOC
280
     1
  9
$PROJECTNAME
  1

  9
$CAMERADISPLAY
290
     0
  9
$LENSLENGTH
 40
50.0
  9
$CAMERAHEIGHT
 40
0.0
  9
$STEPSPERSEC
 40
2.0
  9
$STEPSIZE
 40
6.0
  9
$3DDWFPREC
 40
2.0
  9
$PSOLWIDTH
 40
0.25
  9
$PSOLHEIGHT
 40
4.0
  9
$LOFTANG1
 40
1.570796326794896
  9
$LOFTANG2
 40
1.570796326794896
  9
$LOFTMAG1
 40
0.0
  9
$LOFTMAG2
 40
0.0
  9
$LOFTPARAM
 70
     7
  9
$LOFTNORMALS
280
     1
  9
$LATITUDE
 40
37.795
  9
$LONGITUDE
 40
-122.394
  9
$NORTHDIRECTION
 40
0.0
  9
$TIMEZONE
 70
 -8000
  9
$LIGHTGLYPHDISPLAY
280
     1
  9
$TILEMODELIGHTSYNCH
280
     1
  9
$CMATERIAL
347
96E
  9
$SOLIDHIST
280
     1
  9
$SHOWHIST
280
     1
  9
$DWFFRAME
280
     2
  9
$DGNFRAME
280
     0
  9
$REALWORLDSCALE
290
     1
  9
$INTERFERECOLOR
 62
     1
  9
$INTERFEREOBJVS
345
97B
  9
$INTERFEREVPVS
346
978
  9
$CSHADOW
280
     0
  9
$SHADOWPLANELOCATION
 40
0.0
  0
ENDSEC
  0
SECTION
  2
CLASSES
  0
CLASS
  1
IMAGE
  2
AcDbRasterImage
  3
ISM
 90
     2175
 91
        0
280
     0
281
     1
  0
CLASS
  1
DICTIONARYVAR
  2
AcDbDictionaryVar
  3
ObjectDBX Classes
 90
        0
 91
        2
280
     0
281
     0
  0
CLASS
  1
RASTERVARIABLES
  2
AcDbRasterVariables
  3
ISM
 90
        0
 91
        0
280
     0
281
     0
  0
CLASS
  1
IMAGEDEF
  2
AcDbRasterImageDef
  3
ISM
 90
        0
 91
        0
280
     0
281
     0
  0
CLASS
  1
IMAGEDEF_REACTOR
  2
AcDbRasterImageDefReactor
  3
ISM
 90
        1
 91
        0
280
     0
281
     0
  0
CLASS
  1
IDBUFFER
  2
AcDbIdBuffer
  3
ObjectDBX Classes
 90
        0
 91
        0
280
     0
281
     0
  0
CLASS
  1
SPATIAL_FILTER
  2
AcDbSpatialFilter
  3
ObjectDBX Classes
 90
        0
 91
        0
280
     0
281
     0
  0
CLASS
  1
SORTENTSTABLE
  2
AcDbSortentsTable
  3
ObjectDBX Classes
 90
        0
 91
        9
280
     0
281
     0
  0
CLASS
  1
LAYER_INDEX
  2
AcDbLayerIndex
  3
ObjectDBX Classes
 90
        0
 91
        0
280
     0
281
     0
  0
CLASS
  1
SPATIAL_INDEX
  2
AcDbSpatialIndex
  3
ObjectDBX Classes
 90
        0
 91
        0
280
     0
281
     0
  0
CLASS
  1
OBJECT_PTR
  2
CAseDLPNTableRecord
  3
ASE-LPNTableRecord
 90
        1
 91
        0
280
     0
281
     0
  0
CLASS
  1
PLOTSETTINGS
  2
AcDbPlotSettings
  3
ObjectDBX Classes
 90
        0
 91
        0
280
     0
281
     0
  0
CLASS
  1
ACDBDICTIONARYWDFLT
  2
AcDbDictionaryWithDefault
  3
ObjectDBX Classes
 90
        0
 91
        1
280
     0
281
     0
  0
CLASS
  1
WIPEOUT
  2
AcDbWipeout
  3
"WipeOut|Product Desc: Object Enabler for WipeOut entity                        |Company: Autodesk, Inc.                        |WEB Address: www.autodesk.com"
 90
     2175
 91
        0
280
     0
281
     1
  0
CLASS
  1
WIPEOUTVARIABLES
  2
AcDbWipeoutVariables
  3
"WipeOut|Product Desc:     WipeOut Dbx Application|Company:          Autodesk, Inc.|WEB Address:      www.autodesk.com"
 90
        0
 91
        1
280
     0
281
     0
  0
CLASS
  1
RTEXT
  2
RText
  3
RText|AutoCAD Express Tool|expresstools@autodesk.com
 90
        0
 91
        0
280
     0
281
     1
  0
CLASS
  1
ARCALIGNEDTEXT
  2
AcDbArcAlignedText
  3
ATEXT|AutoCAD Express Tool|expresstools@autodesk.com
 90
        0
 91
        0
280
     0
281
     1
  0
CLASS
  1
MATERIAL
  2
AcDbMaterial
  3
ObjectDBX Classes
 90
     1024
 91
        3
280
     0
281
     0
  0
CLASS
  1
VISUALSTYLE
  2
AcDbVisualStyle
  3
ObjectDBX Classes
 90
     4095
 91
       16
280
     0
281
     0
  0
CLASS
  1
TABLESTYLE
  2
AcDbTableStyle
  3
ObjectDBX Classes
 90
     4095
 91
        1
280
     0
281
     0
  0
CLASS
  1
LARGE_RADIAL_DIMENSION
  2
AcDbRadialDimensionLarge
  3
ObjectDBX Classes
 90
     1025
 91
        0
280
     0
281
     1
  0
ENDSEC
  0
SECTION
  2
TABLES
  0
TABLE
  2
VPORT
  5
7
102
{ACAD_XDICTIONARY
360
3A0F
102
}
330
0
100
AcDbSymbolTable
 70
     1
  0
VPORT
  5
15
330
7
100
AcDbSymbolTableRecord
100
AcDbViewportTableRecord
  2
*ACTIVE
 70
     0
 10
0.0
 20
0.0
 11
1.0
 21
1.0
 12
-6422.95388879955
 22
5463.167095483697
 13
0.0
 23
0.0
 14
1.0
 24
1.0
 15
0.0
 25
0.0
 16
0.0
 26
0.0
 36
1.0
 17
0.0
 27
0.0
 37
0.0
 40
1295.248071747053
 41
1.927536231884058
 42
50.0
 43
0.0
 44
0.0
 50
0.0
 51
0.0
 71
     0
 72
  2000
 73
     1
 74
     1
 75
     0
 76
     0
 77
     0
 78
     1
281
     0
 65
     0
110
0.0
120
0.0
130
0.0
111
1.0
121
0.0
131
0.0
112
0.0
122
1.0
132
0.0
 79
     0
146
0.0
348
977
 60
     3
 61
     5
292
     1
282
     1
141
0.0
142
0.0
 63
   250
421
  3355443
  0
ENDTAB
  0
TABLE
  2
LTYPE
  5
4
330
0
100
AcDbSymbolTable
 70
    16
  0
LTYPE
  5
11
330
4
100
AcDbSymbolTableRecord
100
AcDbLinetypeTableRecord
  2
ByBlock
 70
     0
  3

 72
    65
 73
     0
 40
0.0
  0
LTYPE
  5
12
330
4
100
AcDbSymbolTableRecord
100
AcDbLinetypeTableRecord
  2
ByLayer
 70
     0
  3

 72
    65
 73
     0
 40
0.0
  0
LTYPE
  5
13
330
4
100
AcDbSymbolTableRecord
100
AcDbLinetypeTableRecord
  2
Continuous
 70
     0
  3
Solid line
 72
    65
 73
     0
 40
0.0
  0
LTYPE
  5
83
330
4
100
AcDbSymbolTableRecord
100
AcDbLinetypeTableRecord
  2
STYLE_02
 70
     0
  3

 72
    65
 73
     2
 40
0.6944250000000001
 49
0.48607
 74
     0
 49
-0.2083550000000001
 74
     0
  0
LTYPE
  5
89
330
4
100
AcDbSymbolTableRecord
100
AcDbLinetypeTableRecord
  2
STYLE_08
 70
     0
  3

 72
    65
 73
     6
 40
1.25
 49
0.625
 74
     0
 49
-0.20828
 74
     0
 49
0.0694300000000001
 74
     0
 49
-0.13893
 74
     0
 49
0.0694299999999999
 74
     0
 49
-0.13893
 74
     0
  0
LTYPE
  5
246AD
330
4
100
AcDbSymbolTableRecord
100
AcDbLinetypeTableRecord
  2
STYLE_06
 70
     0
  3

 72
    65
 73
     4
 40
1.04164
 49
0.625
 74
     0
 49
-0.20828
 74
     0
 49
0.0694300000000001
 74
     0
 49
-0.13893
 74
     0
  0
ENDTAB
  0
TABLE
  2
LAYER
  5
2
102
{ACAD_XDICTIONARY
360
C1E
102
}
330
0
100
AcDbSymbolTable
 70
    19
  0
LAYER
  5
14
330
2
100
AcDbSymbolTableRecord
100
AcDbLayerTableRecord
  2
0
 70
     0
 62
     7
  6
Continuous
370
    -3
390
1D
347
970
  0
LAYER
  5
8D
330
2
100
AcDbSymbolTableRecord
100
AcDbLayerTableRecord
  2
寸法
 70
     0
 62
     7
  6
Continuous
370
    13
390
1D
347
970
  0
LAYER
  5
1102B
330
2
100
AcDbSymbolTableRecord
100
AcDbLayerTableRecord
  2
レイヤー 1
 70
     0
 62
     7
  6
Continuous
370
    -3
390
1D
347
970
  0
ENDTAB
  0
TABLE
  2
STYLE
  5
3
330
0
100
AcDbSymbolTable
 70
     4
  0
STYLE
  5
17
330
3
100
AcDbSymbolTableRecord
100
AcDbTextStyleTableRecord
  2
Standard
 70
     0
 40
0.0
 41
1.0
 50
0.0
 71
     0
 42
0.2
  3

  4

1001
ACAD
1000
MS Gothic
1071
    32817
  0
STYLE
  5
81
330
3
100
AcDbSymbolTableRecord
100
AcDbTextStyleTableRecord
  2
ヒラギノ角ゴ Pro W3
 70
     0
 40
0.0
 41
1.0
 50
0.0
 71
     0
 42
0.0
  3

  4

1001
ACAD
1000
MS Gothic
1071
    32817
  0
ENDTAB
  0
TABLE
  2
VIEW
  5
5
330
0
100
AcDbSymbolTable
 70
     2
  0
ENDTAB
  0
TABLE
  2
UCS
  5
6
330
0
100
AcDbSymbolTable
 70
     0
  0
ENDTAB
  0
TABLE
  2
APPID
  5
8
330
0
100
AcDbSymbolTable
 70
    10
  0
APPID
  5
16
330
8
100
AcDbSymbolTableRecord
100
AcDbRegAppTableRecord
  2
ACAD
 70
     0
  0
APPID
  5
98C
330
8
100
AcDbSymbolTableRecord
100
AcDbRegAppTableRecord
  2
DCO15
 70
     0
  0
APPID
  5
991
330
8
100
AcDbSymbolTableRecord
100
AcDbRegAppTableRecord
  2
ACAD_EXEMPT_FROM_CAD_STANDARDS
 70
     0
  0
APPID
  5
C1D
330
8
100
AcDbSymbolTableRecord
100
AcDbRegAppTableRecord
  2
ACAD_PSEXT
 70
     0
  0
APPID
  5
93A3
330
8
100
AcDbSymbolTableRecord
100
AcDbRegAppTableRecord
  2
ACAD_DSTYLE_DIMJOGGED_JOGANGLE_SYMBOL
 70
     0
  0
APPID
  5
93A4
330
8
100
AcDbSymbolTableRecord
100
AcDbRegAppTableRecord
  2
AcAecLayerStandard
 70
     0
  0
APPID
  5
D99E
330
8
100
AcDbSymbolTableRecord
100
AcDbRegAppTableRecord
  2
ACAD_DSTYLE_DIMEXT_ENABLED
 70
     0
  0
APPID
  5
D99F
330
8
100
AcDbSymbolTableRecord
100
AcDbRegAppTableRecord
  2
ACAD_DSTYLE_DIMEXT_LENGTH
 70
     0
  0
APPID
  5
1102C
330
8
100
AcDbSymbolTableRecord
100
AcDbRegAppTableRecord
  2
AcDbDynamicBlockGUID
 70
     0
  0
APPID
  5
1102D
330
8
100
AcDbSymbolTableRecord
100
AcDbRegAppTableRecord
  2
AcDbBlockRepETag
 70
     0
  0
ENDTAB
  0
TABLE
  2
DIMSTYLE
  5
9
330
0
100
AcDbSymbolTable
 70
     6
100
AcDbDimStyleTable
 71
     1
340
CD7E
  0
DIMSTYLE
105
CD7E
330
9
100
AcDbSymbolTableRecord
100
AcDbDimStyleTableRecord
  2
Yamatoya
 70
     0
  3
<>
  4
[]
 41
1.500683593749999
 42
8.0
 43
10.16
 44
3.18
 46
1.59
 73
     0
 74
     0
 77
     1
 78
    11
140
15.0
141
0.0
143
0.0393700787401575
147
1.587499999999999
171
     3
172
     1
174
     1
179
     2
271
     0
272
     0
273
     4
274
     3
276
     2
284
    11
285
    15
286
    15
289
     0
340
81
341
8F
342
8F
  0
ENDTAB
  0
TABLE
  2
BLOCK_RECORD
  5
1
330
0
100
AcDbSymbolTable
 70
   103
  0
BLOCK_RECORD
  5
A
102
{ACAD_XDICTIONARY
360
9CE
102
}
330
1
100
AcDbSymbolTableRecord
100
AcDbBlockTableRecord
  2
*MODEL_SPACE
340
20
 70
     0
280
     1
281
     0
  0
BLOCK_RECORD
  5
31DD1
330
1
100
AcDbSymbolTableRecord
100
AcDbBlockTableRecord
  2
*Paper_Space
340
31DD2
 70
     0
280
     1
281
     0
  0
BLOCK_RECORD
  5
8F
330
1
100
AcDbSymbolTableRecord
100
AcDbBlockTableRecord
  2
_DOT
340
0
102
{BLKREFS
331
27302
331
27303
331
2730B
331
2730C
331
27314
331
27315
331
2731D
331
2731E
331
27326
331
27327
331
2732F
331
27330
331
27469
331
2746A
331
27470
331
27471
331
2747B
331
2747C
331
27484
331
27485
331
2748D
331
2748E
331
27496
331
27497
331
274A1
331
274A2
331
274AC
331
274AD
331
274B7
331
274B8
331
2783E
331
2783F
331
27BF7
331
27BF8
331
27C09
331
27C0A
331
27C1D
331
27C1E
331
2814E
331
2814F
331
28157
331
28158
331
28160
331
28161
331
2816B
331
2816C
331
28181
331
28182
331
2818A
331
2818B
331
28193
331
28194
331
281A5
331
281A6
331
2824A
331
2824B
331
285FF
331
28600
331
2861F
331
28620
331
28689
331
2868A
331
28DC2
331
28DC3
331
28DCB
331
28DCC
331
28E5C
331
28E5D
331
29736
331
29737
331
2973F
331
29740
331
29748
331
29749
331
29E3D
331
29E3E
331
29E46
331
29E47
331
29E4F
331
29E50
331
29E5D
331
29E5E
331
29E66
331
29E67
331
2F456
331
2F457
331
2F45F
331
2F460
331
2FA08
331
2FA09
331
2FA11
331
2FA12
331
2FA1A
331
2FA1B
331
2FA36
331
2FA37
331
2FB49
331
2FB4A
331
2FB52
331
2FB53
331
2FB5B
331
2FB5C
331
2FB64
331
2FB65
331
2FB6D
331
2FB6E
331
2FB80
331
2FB81
331
2FB87
331
2FB88
331
31B3C
331
31B3D
331
31B54
331
31B55
331
31B7A
331
31B7B
331
31B85
331
31B86
331
31BF1
331
31BF2
331
31BFC
331
31BFD
331
31C07
331
31C08
331
31C21
331
31C22
331
31C3B
331
31C3C
331
31C57
331
31C58
331
31C64
331
31C65
331
31C6D
331
31C6E
331
31C78
331
31C79
331
31CAF
331
31CB0
331
31CD2
331
31CD3
331
31CE6
331
31CE7
331
31CEF
331
31CF0
331
31D12
331
31D13
331
31D37
331
31D38
331
31D46
331
31D47
331
31D5E
331
31D5F
331
31D93
331
31D94
331
31D9E
331
31D9F
102
}
 70
     0
280
     1
281
     0
  0
ENDTAB
  0
ENDSEC
  0
SECTION
  2
BLOCKS
  0
BLOCK
  5
D
330
A
100
AcDbEntity
  8
0
100
AcDbBlockBegin
  2
*MODEL_SPACE
 70
     0
 10
0.0
 20
0.0
 30
0.0
  3
*MODEL_SPACE
  1

  0
ENDBLK
  5
E
330
A
100
AcDbEntity
  8
0
100
AcDbBlockEnd
  0
BLOCK
  5
31DD3
330
31DD1
100
AcDbEntity
 67
     1
  8
0
100
AcDbBlockBegin
  2
*Paper_Space
 70
     0
 10
0.0
 20
0.0
 30
0.0
  3
*Paper_Space
  1

  0
ENDBLK
  5
31DD4
330
31DD1
100
AcDbEntity
 67
     1
  8
0
100
AcDbBlockEnd
  0
BLOCK
  5
90
330
8F
100
AcDbEntity
  8
0
100
AcDbBlockBegin
  2
_DOT
 70
     0
 10
0.0
 20
0.0
 30
0.0
  3
_DOT
  1

  0
POLYLINE
  5
91
330
8F
100
AcDbEntity
  8
0
  6
ByBlock
 62
     0
370
    -2
100
AcDb2dPolyline
 66
     1
 10
0.0
 20
0.0
 30
0.0
 70
     1
 40
0.5
 41
0.5
  0
VERTEX
  5
92
330
91
100
AcDbEntity
  8
0
  6
ByBlock
 62
     0
370
    -2
100
AcDbVertex
100
AcDb2dVertex
 10
-0.25
 20
0.0
 30
0.0
 42
1.0
  0
VERTEX
  5
93
330
91
100
AcDbEntity
  8
0
  6
ByBlock
 62
     0
370
    -2
100
AcDbVertex
100
AcDb2dVertex
 10
0.25
 20
0.0
 30
0.0
 42
1.0
  0
SEQEND
  5
94
330
91
100
AcDbEntity
  8
0
  0
LINE
  5
95
330
8F
100
AcDbEntity
  8
0
  6
ByBlock
 62
     0
370
    -2
100
AcDbLine
 10
-0.5
 20
0.0
 30
0.0
 11
-1.0
 21
0.0
 31
0.0
  0
ENDBLK
  5
96
330
8F
100
AcDbEntity
  8
0
100
AcDbBlockEnd
  0
ENDSEC
  0
SECTION
  2
ENTITIES
  0
LINE
  5
26122
330
A
100
AcDbEntity
  8
レイヤー 1
  6
Continuous
 62
     7
370
    70
100
AcDbLine
 10
-6600.161104403618
 20
5762.124468598962
 30
0.0
 11
-6316.423160242879
 21
5762.124468598962
 31
0.0
  0
LINE
  5
26135
330
A
100
AcDbEntity
  8
レイヤー 1
  6
Continuous
 62
     7
370
    70
100
AcDbLine
 10
-6567.364887213668
 20
5483.447099780752
 30
0.0
 11
-6620.001318700258
 21
5093.851582390164
 31
0.0
  0
LINE
  5
26136
330
A
100
AcDbEntity
  8
レイヤー 1
  6
Continuous
 62
     7
370
    70
100
AcDbLine
 10
-6601.251906893768
 20
5486.41182984344
 30
0.0
 11
-6642.308195051467
 21
5094.324887493307
 31
0.0
  0
LINE
  5
2613A
330
A
100
AcDbEntity
  8
レイヤー 1
  6
Continuous
 62
     7
370
    70
100
AcDbLine
 10
-6600.161104403618
 20
5728.124468598963
 30
0.0
 11
-6562.674869462146
 21
5728.124468598963
 31
0.0
  0
LINE
  5
2613B
330
A
100
AcDbEntity
  8
レイヤー 1
  6
Continuous
 62
     7
370
    70
100
AcDbLine
 10
-6562.674869462146
 20
5728.124468598963
 30
0.0
 11
-6332.627232063567
 21
5728.124468598963
 31
0.0
  0
LINE
  5
2613C
330
A
100
AcDbEntity
  8
レイヤー 1
  6
Continuous
 62
     7
370
    70
100
AcDbLine
 10
-6332.63762977689
 20
5728.124468598963
 30
0.0
 11
-6316.423160242879
 21
5728.124468598963
 31
0.0
  0
LINE
  5
26145
330
A
100
AcDbEntity
  8
レイヤー 1
  6
Continuous
 62
     7
370
    70
100
AcDbLine
 10
-6279.091513714362
 20
5473.704557706863
 30
0.0
 11
-6212.523298516121
 21
5094.480455973997
 31
0.0
  0
LINE
  5
26146
330
A
100
AcDbEntity
  8
レイヤー 1
  6
Continuous
 62
     7
370
    70
100
AcDbLine
 10
-6310.856992800284
 20
5467.68271148402
 30
0.0
 11
-6234.948662770982
 21
5093.735995239454
 31
0.0
  0
ARC
  5
26147
330
A
100
AcDbEntity
  8
レイヤー 1
  6
Continuous
 62
     7
370
    70
100
AcDbCircle
 10
-6316.423160242879
 20
5745.124468598962
 30
0.0
 40
17.0
100
AcDbArc
 50
270.0
 51
90.0
  0
SPLINE
  5
2614E
330
A
100
AcDbEntity
  8
レイヤー 1
  6
Continuous
 62
     7
370
    70
100
AcDbSpline
210
0.0
220
0.0
230
1.0
 70
     8
 71
     2
 72
    11
 73
     8
 74
     0
 42
0.0000000001
 43
0.0000000001
 40
0.0
 40
0.0
 40
0.0
 40
1.0
 40
2.0
 40
3.0
 40
4.0
 40
5.0
 40
6.0
 40
6.0
 40
6.0
 10
-6600.161104403617
 20
5762.124468598962
 30
0.0
 10
-6602.075387542403
 20
5762.124468598962
 30
0.0
 10
-6605.391023198854
 20
5757.569332327634
 30
0.0
 10
-6607.30530633764
 20
5749.679604870292
 30
0.0
 10
-6607.30530633764
 20
5740.569332327634
 30
0.0
 10
-6605.391023198854
 20
5732.679604870291
 30
0.0
 10
-6602.075387542403
 20
5728.124468598963
 30
0.0
 10
-6600.161104403617
 20
5728.124468598963
 30
0.0
  0
LINE
  5
26188
330
A
100
AcDbEntity
  8
レイヤー 1
  6
Continuous
 62
     7
370
    70
100
AcDbLine
 10
-7218.800374164809
 20
5392.124468598962
 30
0.0
 11
-7079.800374164809
 21
5392.124468598962
 31
0.0
  0
LINE
  5
2618F
330
A
100
AcDbEntity
  8
レイヤー 1
  6
Continuous
 62
     7
370
    70
100
AcDbLine
 10
-6611.12494436265
 20
5392.124468598962
 30
0.0
 11
-6659.45881604729
 21
5392.124468598962
 31
0.0
  0
ARC
  5
26194
330
A
100
AcDbEntity
  8
レイヤー 1
  6
Continuous
 62
     7
370
    70
100
AcDbCircle
 10
-6582.381168206743
 20
5382.078043530505
 30
0.0
 40
10.01174204552206
100
AcDbArc
 50
269.8177162099517
 51
74.79353436723485
  0
ARC
  5
26196
330
A
100
AcDbEntity
  8
レイヤー 1
  6
Continuous
 62
     7
370
    70
100
AcDbCircle
 10
-6660.504364897187
 20
5382.124468598963
 30
0.0
 40
10.04987562112089
100
AcDbArc
 50
84.28940686250033
 51
275.7105931374996
  0
LINE
  5
26197
330
A
100
AcDbEntity
  8
レイヤー 1
  6
Continuous
 62
     7
370
    70
100
AcDbLine
 10
-7079.800374164809
 20
5370.169643327816
 30
0.0
 11
-7219.796267371278
 21
5370.169643327819
 31
0.0
  0
LINE
  5
261AE
330
A
100
AcDbEntity
  8
レイヤー 1
  6
Continuous
 62
     7
370
    70
100
AcDbLine
 10
-7184.800374164808
 20
5754.504679784733
 30
0.0
 11
-7184.800374164808
 21
5580.841677071179
 31
0.0
  0
SPLINE
  5
261AF
330
A
100
AcDbEntity
  8
レイヤー 1
  6
Continuous
 62
     7
370
    70
100
AcDbSpline
210
0.0
220
0.0
230
1.0
 70
     8
 71
     2
 72
    13
 73
    10
 74
     0
 42
0.0000000001
 43
0.0000000001
 40
0.0
 40
0.0
 40
0.0
 40
1.0
 40
2.0
 40
3.0
 40
4.0
 40
5.0
 40
6.0
 40
7.0
 40
7.053599347934288
 40
7.053599347934288
 40
7.053599347934288
 10
-7079.800374164809
 20
5581.624468598962
 30
0.0
 10
-7163.800374164809
 20
5581.124468598962
 30
0.0
 10
-7201.300374164809
 20
5580.624468598962
 30
0.0
 10
-7219.800374164809
 20
5578.874468598963
 30
0.0
 10
-7225.800374164809
 20
5576.124468598962
 30
0.0
 10
-7229.300374164809
 20
5573.124468598962
 30
0.0
 10
-7230.300374164809
 20
5563.374468598962
 30
0.0
 10
-7228.300374164809
 20
5556.874468598962
 30
0.0
 10
-7225.666375794974
 20
5554.898969821586
 30
0.0
 10
-7225.529145423776
 20
5554.80170304557
 30
0.0
  0
SPLINE
  5
261B0
330
A
100
AcDbEntity
  8
レイヤー 1
  6
STYLE_06
 62
     7
370
    70
100
AcDbSpline
210
0.0
220
0.0
230
1.0
 70
     8
 71
     2
 72
     8
 73
     5
 74
     0
 42
0.0000000001
 43
0.0000000001
 40
0.0
 40
0.0
 40
0.0
 40
1.0
 40
2.0
 40
3.0
 40
3.0
 40
3.0
 10
-7079.800374164809
 20
5559.624468598962
 30
0.0
 10
-7194.30037416481
 20
5559.624468598962
 30
0.0
 10
-7215.300374164809
 20
5558.624468598963
 30
0.0
 10
-7224.300374164809
 20
5556.624468598962
 30
0.0
 10
-7225.529145423776
 20
5554.80170304557
 30
0.0
  0
ARC
  5
261B1
330
A
100
AcDbEntity
  8
レイヤー 1
  6
Continuous
 62
     7
370
    70
100
AcDbCircle
 10
-7218.800374164809
 20
5381.124468598962
 30
0.0
 40
11.00000000000001
100
AcDbArc
 50
90.0
 51
264.80557109227
  0
CIRCLE
  5
261E3
330
A
100
AcDbEntity
  8
レイヤー 1
  6
Continuous
 62
     7
370
     9
100
AcDbCircle
 10
-7139.80037416481
 20
5745.124468598962
 30
0.0
 40
5.0
  0
LINE
  5
261EC
330
A
100
AcDbEntity
  8
レイヤー 1
  6
Continuous
 62
     7
370
    70
100
AcDbLine
 10
-6234.986753382414
 20
5092.124468598962
 30
0.0
 11
-6212.491361774457
 21
5092.124468598962
 31
0.0
  0
ARC
  5
261ED
330
A
100
AcDbEntity
  8
レイヤー 1
  6
Continuous
 62
     7
370
    70
100
AcDbCircle
 10
-6214.491361774457
 20
5094.124468598963
 30
0.0
 40
2.0
100
AcDbArc
 50
270.0
 51
10.2529195343862
  0
ARC
  5
261EE
330
A
100
AcDbEntity
  8
レイヤー 1
  6
Continuous
 62
     7
370
    70
100
AcDbCircle
 10
-6232.986753382413
 20
5094.124468598963
 30
0.0
 40
2.0
100
AcDbArc
 50
191.2001360053978
 51
270.0
  0
LINE
  5
261F5
330
A
100
AcDbEntity
  8
レイヤー 1
  6
Continuous
 62
     7
370
    70
100
AcDbLine
 10
-6640.318262322255
 20
5092.124468598962
 30
0.0
 11
-6621.98261451791
 21
5092.124468598962
 31
0.0
  0
ARC
  5
261F6
330
A
100
AcDbEntity
  8
レイヤー 1
  6
Continuous
 62
     7
370
    70
100
AcDbCircle
 10
-6621.98261451791
 20
5094.124468598963
 30
0.0
 40
2.0
100
AcDbArc
 50
270.0
 51
352.1579240954708
  0
ARC
  5
261F7
330
A
100
AcDbEntity
  8
レイヤー 1
  6
Continuous
 62
     7
370
    70
100
AcDbCircle
 10
-6640.318262322255
 20
5094.124468598963
 30
0.0
 40
2.0
100
AcDbArc
 50
174.2487685000564
 51
270.0
  0
LINE
  5
261F9
330
A
100
AcDbEntity
  8
レイヤー 1
  6
Continuous
 62
     7
370
    70
100
AcDbLine
 10
-6546.639826549963
 20
5728.124468598963
 30
0.0
 11
-6557.122732943732
 21
5572.527214996948
 31
0.0
  0
LINE
  5
261FA
330
A
100
AcDbEntity
  8
レイヤー 1
  6
Continuous
 62
     7
370
    70
100
AcDbLine
 10
-6564.79441517563
 20
5728.124468598963
 30
0.0
 11
-6591.009752623832
 21
5575.491945059635
 31
0.0
  0
LINE
  5
261FC
330
A
100
AcDbEntity
  8
レイヤー 1
  6
Continuous
 62
     7
370
    70
100
AcDbLine
 10
-6613.048594427223
 20
5559.195814436487
 30
0.0
 11
-6592.964071971329
 21
5558.494447457453
 31
0.0
  0
LINE
  5
261FD
330
A
100
AcDbEntity
  8
レイヤー 1
  6
Continuous
 62
     7
370
    70
100
AcDbLine
 10
-6373.978667555747
 20
5550.847308627798
 30
0.0
 11
-6326.927279291894
 21
5549.204237943968
 31
0.0
  0
LINE
  5
261FF
330
A
100
AcDbEntity
  8
レイヤー 1
  6
Continuous
 62
     7
370
    13
100
AcDbLine
 10
-6633.346988948341
 20
5570.911354979898
 30
0.0
 11
-6633.346988948341
 21
5570.911354979898
 31
0.0
  0
LINE
  5
26206
330
A
100
AcDbEntity
  8
レイヤー 1
  6
Continuous
 62
     7
370
    70
100
AcDbLine
 10
-6330.809498720919
 20
5568.89800345784
 30
0.0
 11
-6310.856992800284
 21
5467.682711484023
 31
0.0
  0
LINE
  5
26207
330
A
100
AcDbEntity
  8
レイヤー 1
  6
Continuous
 62
     7
370
    70
100
AcDbLine
 10
-6279.091513714364
 20
5473.704557706866
 30
0.0
 11
-6297.568849071074
 21
5575.181877059673
 31
0.0
  0
ARC
  5
26210
330
A
100
AcDbEntity
  8
レイヤー 1
  6
Continuous
 62
     7
370
    70
100
AcDbCircle
 10
-7080.077751436355
 20
5648.125501123769
 30
0.0
 40
160.0000000000006
100
AcDbArc
 50
89.90067153154351
 51
125.0848854756403
  0
ARC
  5
26212
330
A
100
AcDbEntity
  8
レイヤー 1
  6
Continuous
 62
     7
370
    70
100
AcDbCircle
 10
-7154.800374164809
 20
5754.504679784733
 30
0.0
 40
30.0
100
AcDbArc
 50
125.0848854756403
 51
180.0
  0
ARC
  5
26228
330
A
100
AcDbEntity
  8
レイヤー 1
  6
Continuous
 62
     7
370
     9
100
AcDbCircle
 10
-7154.519211406487
 20
5502.927940629848
 30
0.0
 40
2.0
100
AcDbArc
 50
270.0
 51
0.0
  0
LINE
  5
26229
330
A
100
AcDbEntity
  8
レイヤー 1
  6
Continuous
 62
     7
370
    13
100
AcDbLine
 10
-7172.519211406488
 20
5500.927940629846
 30
0.0
 11
-7154.519211406487
 21
5500.927940629847
 31
0.0
  0
ARC
  5
2622A
330
A
100
AcDbEntity
  8
レイヤー 1
  6
Continuous
 62
     7
370
    13
100
AcDbCircle
 10
-7172.519211406488
 20
5502.927940629846
 30
0.0
 40
2.0
100
AcDbArc
 50
180.0
 51
270.0
  0
LINE
  5
2622B
330
A
100
AcDbEntity
  8
レイヤー 1
  6
Continuous
 62
     7
370
    70
100
AcDbLine
 10
-6591.009752623832
 20
5575.491945059635
 30
0.0
 11
-6601.251906893768
 21
5486.41182984344
 31
0.0
  0
LINE
  5
2622C
330
A
100
AcDbEntity
  8
レイヤー 1
  6
Continuous
 62
     7
370
    70
100
AcDbLine
 10
-6567.364887213668
 20
5483.447099780752
 30
0.0
 11
-6557.122732943732
 21
5572.527214996948
 31
0.0
  0
LINE
  5
2623A
330
A
100
AcDbEntity
  8
レイヤー 1
  6
Continuous
 62
     7
370
    70
100
AcDbLine
 10
-7261.121183136444
 20
5482.24251273532
 30
0.0
 11
-7298.955725821129
 21
5093.907487396062
 31
0.0
  0
LINE
  5
2623B
330
A
100
AcDbEntity
  8
レイヤー 1
  6
Continuous
 62
     7
370
    70
100
AcDbLine
 10
-7295.037548706112
 20
5484.625818537038
 30
0.0
 11
-7319.112198161694
 21
5094.218754527269
 31
0.0
  0
LINE
  5
2623C
330
A
100
AcDbEntity
  8
レイヤー 1
  6
Continuous
 62
     7
370
    70
100
AcDbLine
 10
-7300.943920770722
 20
5092.124468598962
 30
0.0
 11
-7317.114421856969
 21
5092.124468598964
 31
0.0
  0
ARC
  5
2623D
330
A
100
AcDbEntity
  8
レイヤー 1
  6
Continuous
 62
     7
370
    70
100
AcDbCircle
 10
-7317.114421856969
 20
5094.124468598963
 30
0.0
 40
2.0
100
AcDbArc
 50
177.2979056069618
 51
270.0
  0
ARC
  5
2623E
330
A
100
AcDbEntity
  8
レイヤー 1
  6
Continuous
 62
     7
370
    70
100
AcDbCircle
 10
-7300.943920770722
 20
5094.124468598963
 30
0.0
 40
2.0
100
AcDbArc
 50
270.0
 51
353.7716873337092
  0
LINE
  5
2623F
330
A
100
AcDbEntity
  8
レイヤー 1
  6
Continuous
 62
     7
370
    70
100
AcDbLine
 10
-7249.552134633585
 20
5728.124468598963
 30
0.0
 11
-7254.860101761373
 21
5571.342755190679
 31
0.0
  0
LINE
  5
26240
330
A
100
AcDbEntity
  8
レイヤー 1
  6
Continuous
 62
     7
370
    70
100
AcDbLine
 10
-7288.776467331043
 20
5573.726060992397
 30
0.0
 11
-7269.499851043121
 21
5729.573567269545
 31
0.0
  0
LINE
  5
26242
330
A
100
AcDbEntity
  8
レイヤー 1
  6
Continuous
 62
     7
370
    13
100
AcDbLine
 10
-7204.494281115749
 20
5472.588434740726
 30
0.0
 11
-7208.030835223955
 21
5392.095189736245
 31
0.0
  0
LINE
  5
26243
330
A
100
AcDbEntity
  8
レイヤー 1
  6
Continuous
 62
     7
370
    13
100
AcDbLine
 10
-7210.703817044576
 20
5331.257160966818
 30
0.0
 11
-7221.126344576688
 21
5094.036681217457
 31
0.0
  0
LINE
  5
26244
330
A
100
AcDbEntity
  8
レイヤー 1
  6
Continuous
 62
     7
370
    13
100
AcDbLine
 10
-7223.124416991705
 20
5092.124468598962
 30
0.0
 11
-7239.202572580889
 21
5092.124468598964
 31
0.0
  0
ARC
  5
26245
330
A
100
AcDbEntity
  8
レイヤー 1
  6
Continuous
 62
     7
370
    13
100
AcDbCircle
 10
-7239.202572580889
 20
5094.124468598963
 30
0.0
 40
2.0
100
AcDbArc
 50
179.5916674864446
 51
270.0
  0
ARC
  5
26246
330
A
100
AcDbEntity
  8
レイヤー 1
  6
Continuous
 62
     7
370
    13
100
AcDbCircle
 10
-7223.124416991705
 20
5094.124468598963
 30
0.0
 40
2.0
100
AcDbArc
 50
270.0
 51
357.484268506279
  0
LINE
  5
26247
330
A
100
AcDbEntity
  8
レイヤー 1
  6
Continuous
 62
     7
370
    13
100
AcDbLine
 10
-7241.202521790585
 20
5094.138721971915
 30
0.0
 11
-7239.201560260316
 21
5331.257160966818
 31
0.0
  0
LINE
  5
26248
330
A
100
AcDbEntity
  8
レイヤー 1
  6
Continuous
 62
     7
370
    13
100
AcDbLine
 10
-7239.055925208804
 20
5370.169643327819
 30
0.0
 11
-7238.483204995016
 21
5473.45622130974
 31
0.0
  0
LINE
  5
26249
330
A
100
AcDbEntity
  8
レイヤー 1
  6
Continuous
 62
     7
370
    13
100
AcDbLine
 10
-7204.972356325711
 20
5728.124468598963
 30
0.0
 11
-7202.325860463372
 21
5580.280180352415
 31
0.0
  0
LINE
  5
2624A
330
A
100
AcDbEntity
  8
レイヤー 1
  6
Continuous
 62
     7
370
    13
100
AcDbLine
 10
-7224.978873814039
 20
5728.124468598963
 30
0.0
 11
-7238.666006084713
 21
5573.895720716851
 31
0.0
  0
LINE
  5
2624B
330
A
100
AcDbEntity
  8
レイヤー 1
  6
Continuous
 62
     7
370
    70
100
AcDbLine
 10
-7254.860101761373
 20
5571.342755190679
 30
0.0
 11
-7261.121183136444
 21
5482.24251273532
 31
0.0
  0
LINE
  5
2624C
330
A
100
AcDbEntity
  8
レイヤー 1
  6
Continuous
 62
     7
370
    70
100
AcDbLine
 10
-7295.037548706112
 20
5484.625818537038
 30
0.0
 11
-7288.776467331043
 21
5573.726060992397
 31
0.0
  0
LINE
  5
2624D
330
A
100
AcDbEntity
  8
レイヤー 1
  6
Continuous
 62
     7
370
    70
100
AcDbLine
 10
-7255.710580962307
 20
5559.120507625805
 30
0.0
 11
-7228.942317489421
 21
5559.120507625805
 31
0.0
  0
LINE
  5
2624E
330
A
100
AcDbEntity
  8
レイヤー 1
  6
Continuous
 62
     7
370
    70
100
AcDbLine
 10
-7263.603130603904
 20
5762.124468598962
 30
0.0
 11
-7184.519211406488
 21
5762.124468598962
 31
0.0
  0
LINE
  5
2624F
330
A
100
AcDbEntity
  8
レイヤー 1
  6
Continuous
 62
     7
370
    70
100
AcDbLine
 10
-7262.631847851311
 20
5728.124468598963
 30
0.0
 11
-7184.800374164808
 21
5728.124468598963
 31
0.0
  0
LINE
  5
26288
330
A
100
AcDbEntity
  8
レイヤー 1
  6
Continuous
 62
     7
370
     5
100
AcDbLine
 10
-7204.176066332927
 20
5485.017570446867
 30
0.0
 11
-7204.494281115749
 21
5472.588434740726
 31
0.0
  0
LINE
  5
26289
330
A
100
AcDbEntity
  8
レイヤー 1
  6
Continuous
 62
     7
370
    13
100
AcDbLine
 10
-7238.505360845905
 20
5485.017570446867
 30
0.0
 11
-7238.483204995016
 21
5473.45622130974
 31
0.0
  0
LINE
  5
2628A
330
A
100
AcDbEntity
  8
レイヤー 1
  6
Continuous
 62
     7
370
    13
100
AcDbLine
 10
-7238.6726732971
 20
5573.895952091163
 30
0.0
 11
-7239.135167489961
 21
5559.120507625805
 31
0.0
  0
LINE
  5
26867
330
A
100
AcDbEntity
  8
レイヤー 1
  6
Continuous
 62
     7
370
    13
100
AcDbLine
 10
-7172.519211406488
 20
5500.927940629847
 30
0.0
 11
-7154.519211406487
 21
5500.927940629847
 31
0.0
  0
LINE
  5
26F03
330
A
100
AcDbEntity
  8
レイヤー 1
  6
Continuous
 62
     7
370
    70
100
AcDbLine
 10
-7079.800374164809
 20
5331.257160966818
 30
0.0
 11
-7275.831320938866
 21
5331.257160966818
 31
0.0
  0
LINE
  5
26F04
330
A
100
AcDbEntity
  8
レイヤー 1
  6
Continuous
 62
     7
370
    70
100
AcDbLine
 10
-7079.800374164809
 20
5370.169643327818
 30
0.0
 11
-7272.040171856786
 21
5370.169643327818
 31
0.0
  0
SPLINE
  5
26F14
330
A
100
AcDbEntity
  8
レイヤー 1
  6
Continuous
 62
     7
370
    70
100
AcDbSpline
210
0.0
220
0.0
230
1.0
 70
     8
 71
     2
 72
     6
 73
     3
 74
     0
 42
0.0000000001
 43
0.0000000001
 40
0.0
 40
0.0
 40
0.0
 40
1.0
 40
1.0
 40
1.0
 10
-6331.450268988247
 20
5802.949106579149
 30
0.0
 10
-6337.043166103574
 20
5793.198838240634
 30
0.0
 10
-6355.300503776937
 20
5772.628152579454
 30
0.0
  0
SPLINE
  5
26F15
330
A
100
AcDbEntity
  8
レイヤー 1
  6
Continuous
 62
     7
370
    70
100
AcDbSpline
210
0.0
220
0.0
230
1.0
 70
     8
 71
     2
 72
     7
 73
     4
 74
     0
 42
0.0000000001
 43
0.0000000001
 40
0.0
 40
0.0
 40
0.0
 40
1.0
 40
2.0
 40
2.0
 40
2.0
 10
-6360.453323429368
 20
5763.916754894264
 30
0.0
 10
-6359.816764758757
 20
5766.005963610233
 30
0.0
 10
-6358.248928830915
 20
5769.879191011682
 30
0.0
 10
-6355.300503776937
 20
5772.628152579454
 30
0.0
  0
LINE
  5
26F1E
330
A
100
AcDbEntity
  8
レイヤー 1
  6
Continuous
 62
     7
370
    70
100
AcDbLine
 10
-6612.350604493174
 20
5579.183630976867
 30
0.0
 11
-6590.506704004329
 21
5578.420825163096
 31
0.0
  0
ARC
  5
26F1F
330
A
100
AcDbEntity
  8
レイヤー 1
  6
Continuous
 62
     7
370
    70
100
AcDbCircle
 10
-6613.698990287218
 20
5569.22462220338
 30
0.0
 40
10.04987562112082
100
AcDbArc
 50
82.28940686249087
 51
273.7105931375061
  0
LINE
  5
26F20
330
A
100
AcDbEntity
  8
レイヤー 1
  6
Continuous
 62
     7
370
    13
100
AcDbLine
 10
-6633.346988948341
 20
5570.911354979898
 30
0.0
 11
-6633.346988948341
 21
5570.911354979898
 31
0.0
  0
LINE
  5
2706B
330
A
100
AcDbEntity
  8
レイヤー 1
  6
Continuous
 62
     7
370
    70
100
AcDbLine
 10
-7218.800374164809
 20
5370.169643327818
 30
0.0
 11
-7079.800374164809
 21
5370.169643327818
 31
0.0
  0
LINE
  5
274F0
330
A
100
AcDbEntity
  8
レイヤー 1
  6
Continuous
 62
     7
370
    70
100
AcDbLine
 10
-6326.752110337002
 20
5809.426443965951
 30
0.0
 11
-6326.752110337002
 21
5809.426443965953
 31
0.0
  0
LINE
  5
274F1
330
A
100
AcDbEntity
  8
レイヤー 1
  6
Continuous
 62
     7
370
    70
100
AcDbLine
 10
-6316.59187592672
 20
5801.124725311366
 30
0.0
 11
-6321.380505322252
 21
5762.124468598962
 31
0.0
  0
LINE
  5
274F2
330
A
100
AcDbEntity
  8
レイヤー 1
  6
Continuous
 62
     7
370
    70
100
AcDbLine
 10
-6360.453323429366
 20
5763.916754894278
 30
0.0
 11
-6360.673388515148
 21
5762.124468598962
 31
0.0
  0
ARC
  5
274F3
330
A
100
AcDbEntity
  8
レイヤー 1
  6
Continuous
 62
     7
370
    70
100
AcDbCircle
 10
-6324.03597206403
 20
5802.038745386904
 30
0.0
 40
7.499999999999999
100
AcDbArc
 50
353.0000000000005
 51
85.00000000000026
  0
ARC
  5
274F4
330
A
100
AcDbEntity
  8
レイヤー 1
  6
Continuous
 62
     7
370
    70
100
AcDbCircle
 10
-6324.03597206403
 20
5802.038745386902
 30
0.0
 40
7.499999999999999
100
AcDbArc
 50
85.00000000000026
 51
173.0000000000004
  0
LINE
  5
274F5
330
A
100
AcDbEntity
  8
レイヤー 1
  6
Continuous
 62
     7
370
    35
100
AcDbLine
 10
-6352.141398992954
 20
5708.529311265674
 30
0.0
 11
-6371.512887053492
 21
5550.761201675261
 31
0.0
  0
SPLINE
  5
274F8
330
A
100
AcDbEntity
  8
レイヤー 1
  6
Continuous
 62
     7
370
    35
100
AcDbSpline
210
0.0
220
0.0
230
1.0
 70
     8
 71
     2
 72
     6
 73
     3
 74
     0
 42
0.0000000001
 43
0.0000000001
 40
0.0
 40
0.0
 40
0.0
 40
1.0
 40
1.0
 40
1.0
 10
-6316.541413596878
 20
5801.289354009153
 30
0.0
 10
-6322.134310712208
 20
5791.539085670637
 30
0.0
 10
-6340.391648385568
 20
5770.968400009456
 30
0.0
  0
SPLINE
  5
274F9
330
A
100
AcDbEntity
  8
レイヤー 1
  6
Continuous
 62
     7
370
    35
100
AcDbSpline
210
0.0
220
0.0
230
1.0
 70
     8
 71
     2
 72
     7
 73
     4
 74
     0
 42
0.0000000001
 43
0.0000000001
 40
0.0
 40
0.0
 40
0.0
 40
1.0
 40
2.0
 40
2.0
 40
2.0
 10
-6345.544468037999
 20
5762.257002324267
 30
0.0
 10
-6344.907909367387
 20
5764.346211040235
 30
0.0
 10
-6343.340073439546
 20
5768.219438441686
 30
0.0
 10
-6340.391648385568
 20
5770.968400009456
 30
0.0
  0
LINE
  5
27883
330
A
100
AcDbEntity
  8
レイヤー 1
  6
Continuous
 62
     7
370
    13
100
AcDbLine
 10
-7079.659792785648
 20
5501.199839478146
 30
0.0
 11
-7153.512401389905
 21
5501.199839478147
 31
0.0
  0
LINE
  5
27884
330
A
100
AcDbEntity
  8
レイヤー 1
  6
Continuous
 62
     7
 48
6.0
370
     5
100
AcDbLine
 10
-7237.946500246167
 20
5503.762607265131
 30
0.0
 11
-7238.505360845905
 21
5485.017570446867
 31
0.0
  0
LINE
  5
27885
330
A
100
AcDbEntity
  8
レイヤー 1
  6
Continuous
 62
     7
 48
6.0
370
     5
100
AcDbLine
 10
-7203.696224017557
 20
5503.762607265131
 30
0.0
 11
-7204.176066332927
 21
5485.017570446867
 31
0.0
  0
LINE
  5
2788C
330
A
100
AcDbEntity
  8
レイヤー 1
  6
Continuous
 62
     7
370
    70
100
AcDbLine
 10
-7079.659792785648
 20
5510.699619607954
 30
0.0
 11
-7259.818303409457
 21
5510.699619607954
 31
0.0
  0
LINE
  5
278FE
330
A
100
AcDbEntity
  8
レイヤー 1
  6
Continuous
 62
     7
370
    70
100
AcDbLine
 10
-6613.428612865496
 20
5372.124468598962
 30
0.0
 11
-6659.504364897188
 21
5372.124468598962
 31
0.0
  0
LINE
  5
2822A
330
A
100
AcDbEntity
  8
レイヤー 1
  6
Continuous
 62
     7
370
    70
100
AcDbLine
 10
-6332.627232063567
 20
5728.124468598963
 30
0.0
 11
-6297.568849071074
 21
5575.181877059673
 31
0.0
  0
LINE
  5
2822B
330
A
100
AcDbEntity
  8
レイヤー 1
  6
Continuous
 62
     7
370
    70
100
AcDbLine
 10
-6355.134098585673
 20
5728.118497070896
 30
0.0
 11
-6330.809498720919
 21
5568.89800345784
 31
0.0
  0
ARC
  5
29A60
330
A
100
AcDbEntity
  8
レイヤー 1
  6
Continuous
 62
     7
370
    70
100
AcDbCircle
 10
-5958.213962393204
 20
5301.441467169422
 30
0.0
 40
16.99999999999938
100
AcDbArc
 50
196.7336123418645
 51
318.7098711695872
  0
ARC
  5
29A64
330
A
100
AcDbEntity
  8
レイヤー 1
  6
Continuous
 62
     7
370
    70
100
AcDbCircle
 10
-5611.247074346183
 20
5333.517457302594
 30
0.0
 40
9.999999999999932
100
AcDbArc
 50
262.1784308866621
 51
78.18969806527933
  0
LINE
  5
29A6D
330
A
100
AcDbEntity
  8
レイヤー 1
  6
STYLE_08
 62
     7
 48
3.0
370
    70
100
AcDbLine
 10
-5736.715811375308
 20
5379.893476422179
 30
0.0
 11
-5767.199224698567
 21
5379.893476422179
 31
0.0
  0
ARC
  5
29A6E
330
A
100
AcDbEntity
  8
レイヤー 1
  6
Continuous
 62
     7
370
    70
100
AcDbCircle
 10
-5884.752220719679
 20
5638.982765341332
 30
0.0
 40
319.9999999999938
100
AcDbArc
 50
251.5762264050726
 51
285.8910942137583
  0
ARC
  5
29A6F
330
A
100
AcDbEntity
  8
レイヤー 1
  6
Continuous
 62
     7
370
    70
100
AcDbCircle
 10
-5884.752220719676
 20
5638.982765341338
 30
0.0
 40
354.0000000000002
100
AcDbArc
 50
251.5762264050726
 51
285.8910942137583
  0
ARC
  5
29A70
330
A
100
AcDbEntity
  8
レイヤー 1
  6
Continuous
 62
     7
370
     5
100
AcDbCircle
 10
-5884.752220719676
 20
5638.982765341338
 30
0.0
 40
349.0000000000002
100
AcDbArc
 50
251.1056039359548
 51
285.8910942137583
  0
ARC
  5
29A71
330
A
100
AcDbEntity
  8
レイヤー 1
  6
Continuous
 62
     7
370
     5
100
AcDbCircle
 10
-5884.752220719676
 20
5638.982765341338
 30
0.0
 40
344.0000000000002
100
AcDbArc
 50
250.8120181406717
 51
285.8910942137583
  0
ARC
  5
29A72
330
A
100
AcDbEntity
  8
レイヤー 1
  6
Continuous
 62
     7
370
     5
100
AcDbCircle
 10
-5884.752220719676
 20
5638.982765341338
 30
0.0
 40
339.0000000000002
100
AcDbArc
 50
252.8904806032321
 51
285.8910942137583
  0
ARC
  5
29A73
330
A
100
AcDbEntity
  8
レイヤー 1
  6
Continuous
 62
     7
370
     5
100
AcDbCircle
 10
-5884.752220719676
 20
5638.982765341338
 30
0.0
 40
334.0000000000002
100
AcDbArc
 50
250.6721630666444
 51
285.8910942137583
  0
ARC
  5
29A74
330
A
100
AcDbEntity
  8
レイヤー 1
  6
Continuous
 62
     7
370
     5
100
AcDbCircle
 10
-5884.752220719676
 20
5638.982765341338
 30
0.0
 40
329.0000000000002
100
AcDbArc
 50
250.8259425171905
 51
285.8910942137583
  0
ARC
  5
29A75
330
A
100
AcDbEntity
  8
レイヤー 1
  6
Continuous
 62
     7
370
     5
100
AcDbCircle
 10
-5884.752220719676
 20
5638.982765341338
 30
0.0
 40
324.0000000000002
100
AcDbArc
 50
251.1543047697565
 51
285.8910942137583
  0
ARC
  5
29A76
330
A
100
AcDbEntity
  8
レイヤー 1
  6
Continuous
 62
     7
370
     5
100
AcDbCircle
 10
-5884.752220719676
 20
5638.982765341338
 30
0.0
 40
339.0000000000002
100
AcDbArc
 50
250.6698257991765
 51
285.8910942137583
  0
LINE
  5
29A7B
330
A
100
AcDbEntity
  8
レイヤー 1
  6
STYLE_08
 62
     7
 48
3.0
370
    70
100
AcDbLine
 10
-5753.808327908989
 20
5379.893476422179
 30
0.0
 11
-5745.30150750159
 21
5379.893476422179
 31
0.0
  0
LINE
  5
29A7C
330
A
100
AcDbEntity
  8
レイヤー 1
  6
STYLE_02
 62
     7
370
    70
100
AcDbLine
 10
-5753.808327908989
 20
5589.893476422179
 30
0.0
 11
-5745.30150750159
 21
5589.893476422179
 31
0.0
  0
ARC
  5
29A82
330
A
100
AcDbEntity
  8
レイヤー 1
  6
Continuous
 62
     7
 48
6.0
370
    70
100
AcDbCircle
 10
-5992.190760459718
 20
5603.764998600968
 30
0.0
 40
31.04205455958112
100
AcDbArc
 50
23.24310826939101
 51
47.38715697154548
  0
ARC
  5
29A83
330
A
100
AcDbEntity
  8
レイヤー 1
  6
Continuous
 62
     7
370
    70
100
AcDbCircle
 10
-5991.974147010479
 20
5604.836107676707
 30
0.0
 40
30.11243610536528
100
AcDbArc
 50
46.310588937865
 51
144.9568266483507
  0
ARC
  5
29A84
330
A
100
AcDbEntity
  8
レイヤー 1
  6
Continuous
 62
     7
370
    70
100
AcDbCircle
 10
-5992.955946616353
 20
5363.27115150971
 30
0.0
 40
28.35014683178441
100
AcDbArc
 50
214.2321183706918
 51
271.3483330109098
  0
ARC
  5
29A85
330
A
100
AcDbEntity
  8
レイヤー 1
 62
     7
 48
3.0
370
    70
100
AcDbCircle
 10
-5991.989205301525
 20
5365.969462727619
 30
0.0
 40
31.04205455958123
100
AcDbArc
 50
269.4469260063166
 51
303.0566556262694
  0
ARC
  5
29A88
330
A
100
AcDbEntity
  8
レイヤー 1
  6
Continuous
 62
     7
370
    70
100
AcDbCircle
 10
-5817.351010571718
 20
5484.893476422179
 30
0.0
 40
241.9589425183167
100
AcDbArc
 50
145.4465551531756
 51
214.6505724661189
  0
ARC
  5
29A8C
330
A
100
AcDbEntity
  8
レイヤー 1
  6
Continuous
 62
     7
370
    70
100
AcDbCircle
 10
-6021.07397489398
 20
5255.23201079099
 30
0.0
 40
9.99999999999998
100
AcDbArc
 50
135.0
 51
289.3140124309739
  0
SPLINE
  5
29A90
330
A
100
AcDbEntity
  8
レイヤー 1
  6
Continuous
 62
     7
370
    70
100
AcDbSpline
210
0.0
220
0.0
230
1.0
 70
     8
 71
     2
 72
     6
 73
     3
 74
     0
 42
0.0000000001
 43
0.0000000001
 40
0.0
 40
0.0
 40
0.0
 40
1.0
 40
1.0
 40
1.0
 10
-5681.239419551332
 20
5360.162077217949
 30
0.0
 10
-5679.431242679047
 20
5359.608875052479
 30
0.0
 10
-5609.200353831038
 20
5343.305763342602
 30
0.0
  0
SPLINE
  5
29A91
330
A
100
AcDbEntity
  8
レイヤー 1
  6
Continuous
 62
     7
370
    70
100
AcDbSpline
210
0.0
220
0.0
230
1.0
 70
     8
 71
     2
 72
     6
 73
     3
 74
     0
 42
0.0000000001
 43
0.0000000001
 40
0.0
 40
0.0
 40
0.0
 40
1.0
 40
1.0
 40
1.0
 10
-5686.660113110922
 20
5326.596975082948
 30
0.0
 10
-5684.055483181049
 20
5326.234406464161
 30
0.0
 10
-5611.263906286168
 20
5323.517471468314
 30
0.0
  0
ARC
  5
29A92
330
A
100
AcDbEntity
  8
レイヤー 1
  6
Continuous
 62
     7
370
    70
100
AcDbCircle
 10
-5958.989023765258
 20
5667.057830723045
 30
0.0
 40
16.99999999999984
100
AcDbArc
 50
45.87558199135545
 51
159.0240814310691
  0
LINE
  5
29A94
330
A
100
AcDbEntity
  8
レイヤー 1
  6
Continuous
 62
     7
370
    70
100
AcDbLine
 10
-5951.173322928482
 20
5682.154678752684
 30
0.0
 11
-5963.38519957829
 21
5691.564488146063
 31
0.0
  0
ARC
  5
29A97
330
A
100
AcDbEntity
  8
レイヤー 1
  6
Continuous
 62
     7
370
    70
100
AcDbCircle
 10
-5884.752220719677
 20
5330.804187503027
 30
0.0
 40
319.9999999999931
100
AcDbArc
 50
74.20511250990269
 51
108.4237735949274
  0
ARC
  5
29A98
330
A
100
AcDbEntity
  8
レイヤー 1
  6
Continuous
 62
     7
370
    70
100
AcDbCircle
 10
-5884.752220719676
 20
5330.804187503018
 30
0.0
 40
354.0000000000027
100
AcDbArc
 50
74.20511250990269
 51
108.4237735949274
  0
ARC
  5
29A99
330
A
100
AcDbEntity
  8
レイヤー 1
  6
Continuous
 62
     7
370
     5
100
AcDbCircle
 10
-5884.752220719676
 20
5330.804187503018
 30
0.0
 40
349.0000000000027
100
AcDbArc
 50
74.20511250990269
 51
108.8943960640452
  0
ARC
  5
29A9A
330
A
100
AcDbEntity
  8
レイヤー 1
  6
Continuous
 62
     7
370
     5
100
AcDbCircle
 10
-5884.752220719676
 20
5330.804187503018
 30
0.0
 40
344.0000000000027
100
AcDbArc
 50
74.20511250990269
 51
109.1879818593282
  0
ARC
  5
29A9B
330
A
100
AcDbEntity
  8
レイヤー 1
  6
Continuous
 62
     7
370
     5
100
AcDbCircle
 10
-5884.752220719676
 20
5330.804187503018
 30
0.0
 40
339.0000000000027
100
AcDbArc
 50
74.20511250990269
 51
109.3301742008235
  0
ARC
  5
29A9C
330
A
100
AcDbEntity
  8
レイヤー 1
  6
Continuous
 62
     7
370
     5
100
AcDbCircle
 10
-5884.752220719676
 20
5330.804187503018
 30
0.0
 40
334.0000000000027
100
AcDbArc
 50
74.20511250990269
 51
109.3278369333556
  0
ARC
  5
29A9D
330
A
100
AcDbEntity
  8
レイヤー 1
  6
Continuous
 62
     7
370
     5
100
AcDbCircle
 10
-5884.752220719676
 20
5330.804187503018
 30
0.0
 40
329.0000000000027
100
AcDbArc
 50
74.20511250990269
 51
109.1740574828094
  0
ARC
  5
29A9E
330
A
100
AcDbEntity
  8
レイヤー 1
  6
Continuous
 62
     7
370
     5
100
AcDbCircle
 10
-5884.752220719676
 20
5330.804187503018
 30
0.0
 40
324.0000000000027
100
AcDbArc
 50
74.20511250990269
 51
108.8456952302435
  0
ARC
  5
29A9F
330
A
100
AcDbEntity
  8
レイヤー 1
  6
Continuous
 62
     7
370
    70
100
AcDbCircle
 10
-6021.07397489398
 20
5714.554942053367
 30
0.0
 40
9.999999999999982
100
AcDbArc
 50
70.68598756902609
 51
225.0
  0
ARC
  5
29AA0
330
A
100
AcDbEntity
  8
レイヤー 1
  6
Continuous
 62
     7
370
    70
100
AcDbCircle
 10
-6107.02366204369
 20
5484.109717908058
 30
0.0
 40
420.0
100
AcDbArc
 50
347.9450237139659
 51
12.39261581354021
  0
ARC
  5
29AA1
330
A
100
AcDbEntity
  8
レイヤー 1
  6
Continuous
 62
     7
370
     5
100
AcDbCircle
 10
-6107.02366204369
 20
5484.109717908058
 30
0.0
 40
415.0
100
AcDbArc
 50
347.9450237139659
 51
12.39261581354021
  0
ARC
  5
29AA2
330
A
100
AcDbEntity
  8
レイヤー 1
  6
Continuous
 62
     7
370
     5
100
AcDbCircle
 10
-6107.02366204369
 20
5484.109717908058
 30
0.0
 40
410.0
100
AcDbArc
 50
347.9450237139659
 51
12.39261581354021
  0
ARC
  5
29AA3
330
A
100
AcDbEntity
  8
レイヤー 1
  6
Continuous
 62
     7
370
     5
100
AcDbCircle
 10
-6107.02366204369
 20
5484.109717908058
 30
0.0
 40
405.0
100
AcDbArc
 50
347.9450237139659
 51
12.39261581354021
  0
ARC
  5
29AA4
330
A
100
AcDbEntity
  8
レイヤー 1
  6
Continuous
 62
     7
370
     5
100
AcDbCircle
 10
-6107.02366204369
 20
5484.109717908058
 30
0.0
 40
400.0
100
AcDbArc
 50
347.9450237139659
 51
354.0563062853466
  0
ARC
  5
29AA5
330
A
100
AcDbEntity
  8
レイヤー 1
  6
Continuous
 62
     7
370
     5
100
AcDbCircle
 10
-6107.02366204369
 20
5484.109717908058
 30
0.0
 40
400.0
100
AcDbArc
 50
6.470778355493006
 51
12.39261581354021
  0
ARC
  5
29AA6
330
A
100
AcDbEntity
  8
レイヤー 1
  6
Continuous
 62
     7
370
    70
100
AcDbCircle
 10
-5823.418841907096
 20
5423.543176028156
 30
0.0
 40
130.0
100
AcDbArc
 50
285.8910942137583
 51
347.9450237139659
  0
ARC
  5
29AA7
330
A
100
AcDbEntity
  8
レイヤー 1
  6
Continuous
 62
     7
370
     5
100
AcDbCircle
 10
-5823.418841907096
 20
5423.543176028156
 30
0.0
 40
125.0
100
AcDbArc
 50
285.8910942137583
 51
347.9450237139659
  0
ARC
  5
29AA8
330
A
100
AcDbEntity
  8
レイヤー 1
  6
Continuous
 62
     7
370
     5
100
AcDbCircle
 10
-5823.418841907096
 20
5423.543176028156
 30
0.0
 40
120.0
100
AcDbArc
 50
285.8910942137583
 51
347.9450237139659
  0
ARC
  5
29AA9
330
A
100
AcDbEntity
  8
レイヤー 1
  6
Continuous
 62
     7
370
     5
100
AcDbCircle
 10
-5823.418841907096
 20
5423.543176028156
 30
0.0
 40
115.0
100
AcDbArc
 50
285.8910942137583
 51
347.9450237139659
  0
ARC
  5
29AAA
330
A
100
AcDbEntity
  8
レイヤー 1
  6
Continuous
 62
     7
370
     5
100
AcDbCircle
 10
-5823.418841907096
 20
5423.543176028156
 30
0.0
 40
110.0
100
AcDbArc
 50
285.8910942137583
 51
347.9450237139659
  0
ARC
  5
29AAB
330
A
100
AcDbEntity
  8
レイヤー 1
  6
Continuous
 62
     7
370
     5
100
AcDbCircle
 10
-5823.418841907096
 20
5423.543176028156
 30
0.0
 40
105.0
100
AcDbArc
 50
285.8910942137583
 51
347.9450237139659
  0
ARC
  5
29AAC
330
A
100
AcDbEntity
  8
レイヤー 1
  6
Continuous
 62
     7
370
     5
100
AcDbCircle
 10
-5823.418841907096
 20
5423.543176028156
 30
0.0
 40
100.0
100
AcDbArc
 50
285.8910942137583
 51
334.5425582670309
  0
ARC
  5
29AAD
330
A
100
AcDbEntity
  8
レイヤー 1
  6
Continuous
 62
     7
370
    70
100
AcDbCircle
 10
-5823.418841907095
 20
5423.543176028157
 30
0.0
 40
96.00000000000136
100
AcDbArc
 50
285.8910942137583
 51
332.9678048060129
  0
ARC
  5
29AAE
330
A
100
AcDbEntity
  8
レイヤー 1
  6
Continuous
 62
     7
370
    70
100
AcDbCircle
 10
-5823.780678004943
 20
5546.346459410379
 30
0.0
 40
130.0
100
AcDbArc
 50
12.39261581354021
 51
74.20511250990269
  0
ARC
  5
29AAF
330
A
100
AcDbEntity
  8
レイヤー 1
  6
Continuous
 62
     7
370
     5
100
AcDbCircle
 10
-5823.780678004943
 20
5546.346459410379
 30
0.0
 40
125.0
100
AcDbArc
 50
12.39261581354021
 51
74.20511250990269
  0
ARC
  5
29AB0
330
A
100
AcDbEntity
  8
レイヤー 1
  6
Continuous
 62
     7
370
     5
100
AcDbCircle
 10
-5823.780678004943
 20
5546.346459410379
 30
0.0
 40
120.0
100
AcDbArc
 50
12.39261581354021
 51
74.20511250990269
  0
ARC
  5
29AB1
330
A
100
AcDbEntity
  8
レイヤー 1
  6
Continuous
 62
     7
370
     5
100
AcDbCircle
 10
-5823.780678004943
 20
5546.346459410379
 30
0.0
 40
115.0
100
AcDbArc
 50
12.39261581354021
 51
74.20511250990269
  0
ARC
  5
29AB2
330
A
100
AcDbEntity
  8
レイヤー 1
  6
Continuous
 62
     7
370
     5
100
AcDbCircle
 10
-5823.780678004943
 20
5546.346459410379
 30
0.0
 40
110.0
100
AcDbArc
 50
12.39261581354021
 51
74.20511250990269
  0
ARC
  5
29AB3
330
A
100
AcDbEntity
  8
レイヤー 1
  6
Continuous
 62
     7
370
     5
100
AcDbCircle
 10
-5823.780678004943
 20
5546.346459410379
 30
0.0
 40
105.0
100
AcDbArc
 50
12.39261581354021
 51
74.20511250990269
  0
ARC
  5
29AB4
330
A
100
AcDbEntity
  8
レイヤー 1
  6
Continuous
 62
     7
370
     5
100
AcDbCircle
 10
-5823.780678004943
 20
5546.346459410379
 30
0.0
 40
100.0
100
AcDbArc
 50
25.47898122161637
 51
74.20511250990269
  0
ARC
  5
29AB5
330
A
100
AcDbEntity
  8
レイヤー 1
  6
Continuous
 62
     7
370
    70
100
AcDbCircle
 10
-5823.780678004943
 20
5546.346459410379
 30
0.0
 40
96.0
100
AcDbArc
 50
26.972983345812
 51
74.20511250990269
  0
LINE
  5
29AB6
330
A
100
AcDbEntity
  8
レイヤー 1
  6
Continuous
 62
     7
370
    70
100
AcDbLine
 10
-5736.715811375308
 20
5589.893476422179
 30
0.0
 11
-5767.396835829306
 21
5589.893476422179
 31
0.0
  0
ARC
  5
29AB7
330
A
100
AcDbEntity
  8
レイヤー 1
  6
Continuous
 62
     7
370
    70
100
AcDbCircle
 10
-5703.825851838539
 20
5345.991582512628
 30
0.0
 40
16.84757926086637
100
AcDbArc
 50
239.0400329712897
 51
107.4372231639066
  0
LINE
  5
29AB9
330
A
100
AcDbEntity
  8
レイヤー 1
  6
Continuous
 62
     7
370
    70
100
AcDbLine
 10
-5726.67120788342
 20
5336.71060546376
 30
0.0
 11
-5706.511063030327
 21
5329.364671783289
 31
0.0
  0
LINE
  5
29ABF
330
A
100
AcDbEntity
  8
レイヤー 1
  6
Continuous
 62
     7
370
    70
100
AcDbLine
 10
-5706.010958072866
 20
5607.507411772406
 30
0.0
 11
-5700.675910127568
 21
5607.202170918185
 31
0.0
  0
SPLINE
  5
29AC1
330
A
100
AcDbEntity
  8
レイヤー 1
  6
Continuous
 62
     7
370
    70
100
AcDbSpline
210
0.0
220
0.0
230
1.0
 70
     8
 71
     2
 72
     6
 73
     3
 74
     0
 42
0.0000000001
 43
0.0000000001
 40
0.0
 40
0.0
 40
0.0
 40
1.0
 40
1.0
 40
1.0
 10
-5679.738340890614
 20
5609.889277041384
 30
0.0
 10
-5679.379945318467
 20
5610.13610541754
 30
0.0
 10
-5609.200353831038
 20
5626.481189501756
 30
0.0
  0
SPLINE
  5
29AC2
330
A
100
AcDbEntity
  8
レイヤー 1
  6
Continuous
 62
     7
370
    70
100
AcDbSpline
210
0.0
220
0.0
230
1.0
 70
     8
 71
     2
 72
     6
 73
     3
 74
     0
 42
0.0000000001
 43
0.0000000001
 40
0.0
 40
0.0
 40
0.0
 40
1.0
 40
1.0
 40
1.0
 10
-5683.949766331124
 20
5643.359367987065
 30
0.0
 10
-5683.990518079475
 20
5643.512464904284
 30
0.0
 10
-5612.617070530985
 20
5646.24278758315
 30
0.0
  0
ARC
  5
29AC3
330
A
100
AcDbEntity
  8
レイヤー 1
  6
Continuous
 62
     7
370
    70
100
AcDbCircle
 10
-5703.768975943726
 20
5623.76338677959
 30
0.0
 40
16.84757926086531
100
AcDbArc
 50
280.5790022534591
 51
97.24695652424742
  0
LINE
  5
29AC4
330
A
100
AcDbEntity
  8
レイヤー 1
  6
Continuous
 62
     7
370
    70
100
AcDbLine
 10
-5724.897513255017
 20
5633.650762325917
 30
0.0
 11
-5706.032714114416
 21
5640.458188858254
 31
0.0
  0
ARC
  5
29AC5
330
A
100
AcDbEntity
  8
レイヤー 1
  6
STYLE_08
 62
     7
 48
3.0
370
    70
100
AcDbCircle
 10
-5936.630769347281
 20
5484.893476422179
 30
0.0
 40
216.3390847115255
100
AcDbArc
 50
332.584347534358
 51
359.9014177490573
  0
ARC
  5
29AC6
330
A
100
AcDbEntity
  8
レイヤー 1
  6
Continuous
 62
     7
370
    70
100
AcDbCircle
 10
-5936.630769347281
 20
5484.893476422179
 30
0.0
 40
216.3390847115255
100
AcDbArc
 50
359.9014177490573
 51
27.21848796372859
  0
ARC
  5
29AC7
330
A
100
AcDbEntity
  8
レイヤー 1
  6
STYLE_08
 62
     7
 48
3.0
370
    70
100
AcDbCircle
 10
-5936.630769347281
 20
5484.893476422179
 30
0.0
 40
231.3390847115255
100
AcDbArc
 50
334.5465507656665
 51
0.0
  0
ARC
  5
29AC8
330
A
100
AcDbEntity
  8
レイヤー 1
  6
Continuous
 62
     7
370
    70
100
AcDbCircle
 10
-5936.630769347281
 20
5484.893476422179
 30
0.0
 40
231.3390847115255
100
AcDbArc
 50
0.0
 51
25.56097549987583
  0
ARC
  5
29AC9
330
A
100
AcDbEntity
  8
レイヤー 1
  6
STYLE_08
 62
     7
 48
3.0
370
    70
100
AcDbCircle
 10
-5736.715811375308
 20
5389.893476422178
 30
0.0
 40
9.999999999999772
100
AcDbArc
 50
270.0
 51
334.5828366523526
  0
ARC
  5
29ACA
330
A
100
AcDbEntity
  8
レイヤー 1
  6
STYLE_08
 62
     7
 48
3.0
370
    70
100
AcDbCircle
 10
-5753.461945909475
 20
5389.893476422178
 30
0.0
 40
10.0
100
AcDbArc
 50
270.0
 51
332.5866135808381
  0
ARC
  5
29ACB
330
A
100
AcDbEntity
  8
レイヤー 1
  6
Continuous
 62
     7
370
    70
100
AcDbCircle
 10
-5736.715811375308
 20
5579.893476422178
 30
0.0
 40
9.999999999999815
100
AcDbArc
 50
25.4171633476474
 51
90.0
  0
ARC
  5
29ACC
330
A
100
AcDbEntity
  8
レイヤー 1
  6
Continuous
 62
     7
370
    70
100
AcDbCircle
 10
-5753.461945909475
 20
5579.89347642218
 30
0.0
 40
9.999999999999513
100
AcDbArc
 50
27.41338641916189
 51
90.0
  0
ARC
  5
29AD1
330
A
100
AcDbEntity
  8
レイヤー 1
  6
Continuous
 62
     7
370
    70
100
AcDbCircle
 10
-5611.247074346183
 20
5636.269495541764
 30
0.0
 40
9.999999999999531
100
AcDbArc
 50
281.8103019347207
 51
97.82156911333784
  0
LINE
  5
29AD5
330
A
100
AcDbEntity
  8
レイヤー 1
  6
Continuous
 62
     7
370
    70
100
AcDbLine
 10
-5964.994454465102
 20
5275.447233363321
 30
0.0
 11
-6017.766522877249
 21
5245.794809873503
 31
0.0
  0
LINE
  5
29AD6
330
A
100
AcDbEntity
  8
レイヤー 1
  6
Continuous
 62
     7
370
    70
100
AcDbLine
 10
-6028.145042705848
 20
5262.303078602855
 30
0.0
 11
-5987.295089029529
 21
5300.159861512821
 31
0.0
  0
LINE
  5
29AD7
330
A
100
AcDbEntity
  8
レイヤー 1
  6
Continuous
 62
     7
370
    70
100
AcDbLine
 10
-5963.38519957829
 20
5691.564488146063
 30
0.0
 11
-6017.766522877249
 21
5723.992142970853
 31
0.0
  0
LINE
  5
29AD8
330
A
100
AcDbEntity
  8
レイヤー 1
  6
Continuous
 62
     7
370
    70
100
AcDbLine
 10
-6028.145042705848
 20
5707.483874241503
 30
0.0
 11
-5988.796616483588
 21
5669.169025673483
 31
0.0
  0
ARC
  5
29AD9
330
A
100
AcDbEntity
  8
レイヤー 1
  6
Continuous
 62
     7
370
    35
100
AcDbCircle
 10
-5973.7614036446
 20
5678.0984423577
 30
0.0
 40
17.00000000000012
100
AcDbArc
 50
52.38410445049115
 51
211.1050930052963
  0
LINE
  5
29ADD
330
A
100
AcDbEntity
  8
レイヤー 1
  6
Continuous
 62
     7
370
    70
100
AcDbLine
 10
-5949.447013213706
 20
5286.876419895757
 30
0.0
 11
-5964.994910415872
 21
5275.447990861099
 31
0.0
  0
LINE
  5
29AE0
330
A
100
AcDbEntity
  8
レイヤー 1
  6
Continuous
 62
     7
370
    70
100
AcDbLine
 10
-5681.239419551332
 20
5360.162077217949
 30
0.0
 11
-5701.139805826951
 21
5362.623662471995
 31
0.0
  0
LINE
  5
29AE1
330
A
100
AcDbEntity
  8
レイヤー 1
  6
Continuous
 62
     7
370
    70
100
AcDbLine
 10
-5686.660113110918
 20
5326.596975082948
 30
0.0
 11
-5706.511063030327
 21
5329.364671783289
 31
0.0
  0
LINE
  5
29AE2
330
A
100
AcDbEntity
  8
レイヤー 1
  6
Continuous
 62
     7
370
    70
100
AcDbLine
 10
-5700.675910127536
 20
5607.20217091819
 30
0.0
 11
-5679.738340890614
 21
5609.889277041384
 31
0.0
  0
LINE
  5
29AE3
330
A
100
AcDbEntity
  8
レイヤー 1
  6
Continuous
 62
     7
370
    70
100
AcDbLine
 10
-5706.032714114416
 20
5640.458188858254
 30
0.0
 11
-5683.949766331124
 21
5643.359367987065
 31
0.0
  0
LINE
  5
29AE4
330
A
100
AcDbEntity
  8
レイヤー 1
  6
Continuous
 62
     7
370
    35
100
AcDbLine
 10
-5682.490528496386
 20
5360.316833577332
 30
0.0
 11
-5682.490528496386
 21
5609.422112455496
 31
0.0
  0
LINE
  5
29AE7
330
A
100
AcDbEntity
  8
レイヤー 1
  6
Continuous
 62
     7
370
    35
100
AcDbLine
 10
-5952.77716058138
 20
5326.296648673501
 30
0.0
 11
-5952.77716058138
 21
5342.452954726121
 31
0.0
  0
LINE
  5
29AE8
330
A
100
AcDbEntity
  8
レイヤー 1
  6
Continuous
 62
     7
 48
6.0
370
    35
100
AcDbLine
 10
-5952.77716058138
 20
5342.452954726121
 30
0.0
 11
-5952.77716058138
 21
5348.301201297149
 31
0.0
  0
LINE
  5
29AED
330
A
100
AcDbEntity
  8
レイヤー 1
  6
Continuous
 62
     7
370
    35
100
AcDbLine
 10
-5975.056755746326
 20
5331.989131932401
 30
0.0
 11
-5975.056755746328
 21
5336.568429600951
 31
0.0
  0
LINE
  5
29AEE
330
A
100
AcDbEntity
  8
レイヤー 1
  6
Continuous
 62
     7
 48
6.0
370
    35
100
AcDbLine
 10
-5975.056755746328
 20
5336.568429600951
 30
0.0
 11
-5975.056755746328
 21
5363.616289035327
 31
0.0
  0
LINE
  5
29AEF
330
A
100
AcDbEntity
  8
レイヤー 1
  6
Continuous
 62
     7
370
    35
100
AcDbLine
 10
-6002.057078372871
 20
5286.479517336219
 30
0.0
 11
-6002.057078372873
 21
5336.421566296261
 31
0.0
  0
SPLINE
  5
29BE8
330
A
100
AcDbEntity
  8
レイヤー 1
  6
Continuous
 62
     7
370
    70
100
AcDbSpline
210
0.0
220
0.0
230
1.0
 70
     8
 71
     2
 72
     7
 73
     4
 74
     0
 42
0.0000000001
 43
0.0000000001
 40
11.21214844421903
 40
11.21214844421903
 40
11.21214844421903
 40
12.0
 40
13.0
 40
13.0
 40
13.0
 10
-5992.087054580736
 20
5568.972567229129
 30
0.0
 10
-5996.193311577229
 20
5555.111728166359
 30
0.0
 10
-6000.046790950552
 20
5506.109152301937
 30
0.0
 10
-6000.186380152429
 20
5484.680580873364
 30
0.0
  0
ARC
  5
29BE9
330
A
100
AcDbEntity
  8
レイヤー 1
 62
     7
370
    70
100
AcDbCircle
 10
-5882.091618373827
 20
5544.360297444022
 30
0.0
 40
112.9024928685806
100
AcDbArc
 50
147.9188634472564
 51
168.829524260971
  0
ARC
  5
29BEA
330
A
100
AcDbEntity
  8
レイヤー 1
 62
     7
370
    70
100
AcDbCircle
 10
-5811.748114754739
 20
5521.97920613357
 30
0.0
 40
186.4353748531166
100
AcDbArc
 50
166.2688237054607
 51
174.5014121110365
  0
ARC
  5
29BEB
330
A
100
AcDbEntity
  8
レイヤー 1
 62
     7
370
    70
100
AcDbCircle
 10
-5956.399238704953
 20
5484.649068756326
 30
0.0
 40
216.3390847115255
100
AcDbArc
 50
0.065189689257109
 51
28.86944979619461
  0
ARC
  5
29BEC
330
A
100
AcDbEntity
  8
レイヤー 1
 62
     7
370
    70
100
AcDbCircle
 10
-5797.59659653336
 20
5572.202392413053
 30
0.0
 40
35.0
100
AcDbArc
 50
28.86944979619461
 51
86.63231904570613
  0
LINE
  5
29BED
330
A
100
AcDbEntity
  8
レイヤー 1
 62
     7
370
    70
100
AcDbLine
 10
-5871.323464282945
 20
5611.601387938042
 30
0.0
 11
-5795.540581618595
 21
5607.141951692905
 31
0.0
  0
ARC
  5
29BEE
330
A
100
AcDbEntity
  8
レイヤー 1
 62
     7
370
    70
100
AcDbCircle
 10
-5863.007135442839
 20
5673.273707740109
 30
0.0
 40
62.19767509233298
100
AcDbArc
 50
252.0056708450691
 51
262.3173779462505
  0
ARC
  5
29BEF
330
A
100
AcDbEntity
  8
レイヤー 1
 62
     7
370
    70
100
AcDbCircle
 10
-5936.634199278368
 20
5499.039623574728
 30
0.0
 40
127.2943547406158
100
AcDbArc
 50
64.69375841113812
 51
90.0
  0
ARC
  5
29BF0
330
A
100
AcDbEntity
  8
レイヤー 1
 62
     7
370
    70
100
AcDbCircle
 10
-5922.404219791301
 20
5555.152121276771
 30
0.0
 40
74.03730476159402
100
AcDbArc
 50
117.2286522752193
 51
138.3817818757373
  0
SPLINE
  5
29BF1
330
A
100
AcDbEntity
  8
レイヤー 1
  6
STYLE_08
 62
     7
 48
3.0
370
    70
100
AcDbSpline
210
0.0
220
0.0
230
1.0
 70
     8
 71
     2
 72
     7
 73
     4
 74
     0
 42
0.0000000001
 43
0.0000000001
 40
11.21214844422352
 40
11.21214844422352
 40
11.21214844422352
 40
12.0
 40
13.0
 40
13.0
 40
13.0
 10
-5991.947965164504
 20
5400.40207497194
 30
0.0
 10
-5996.077090023835
 20
5414.256118928132
 30
0.0
 10
-6000.011429252277
 20
5463.252268975384
 30
0.0
 10
-6000.186380152429
 20
5484.680580873368
 30
0.0
  0
ARC
  5
29BF2
330
A
100
AcDbEntity
  8
レイヤー 1
 62
     7
370
    70
100
AcDbCircle
 10
-5811.686820343681
 20
5447.692971268271
 30
0.0
 40
186.4353748531165
100
AcDbArc
 50
185.5931386566487
 51
193.8257270620831
  0
ARC
  5
29BF3
330
A
100
AcDbEntity
  8
レイヤー 1
  6
STYLE_08
 62
     7
 48
3.0
370
    70
100
AcDbCircle
 10
-5956.399350328213
 20
5484.784351427808
 30
0.0
 40
216.3390847115254
100
AcDbArc
 50
331.2236957629564
 51
0.0293610785439701
  0
ARC
  5
29BF4
330
A
100
AcDbEntity
  8
レイヤー 1
  6
STYLE_08
 62
     7
 48
3.0
370
    70
100
AcDbCircle
 10
-5797.454582919691
 20
5397.489308284058
 30
0.0
 40
35.0
100
AcDbArc
 50
273.4622317219014
 51
331.2236957629564
  0
LINE
  5
29BF5
330
A
100
AcDbEntity
  8
レイヤー 1
  6
STYLE_08
 62
     7
 48
3.0
370
    70
100
AcDbLine
 10
-5871.112487855619
 20
5357.968933394356
 30
0.0
 11
-5795.340912794046
 21
5362.553189458406
 31
0.0
  0
ARC
  5
29BF6
330
A
100
AcDbEntity
  8
レイヤー 1
  6
STYLE_08
 62
     7
 48
3.0
370
    70
100
AcDbCircle
 10
-5862.696101803808
 20
5296.314086930497
 30
0.0
 40
62.19767509289277
100
AcDbArc
 50
97.77717282137381
 51
108.0888799227775
  0
ARC
  5
29BF7
330
A
100
AcDbEntity
  8
レイヤー 1
  6
STYLE_08
 62
     7
 48
3.0
370
    70
100
AcDbCircle
 10
-5932.820742726249
 20
5467.161942413742
 30
0.0
 40
122.7364747581159
100
AcDbArc
 50
268.2195175805128
 51
294.4562873432874
  0
ARC
  5
29BF9
330
A
100
AcDbEntity
  8
レイヤー 1
 62
     7
370
    70
100
AcDbCircle
 10
-5931.782604639611
 20
5569.763621544396
 30
0.0
 40
56.77801718738649
100
AcDbArc
 50
94.90181407437791
 51
129.8291407516476
  0
ARC
  5
29BFA
330
A
100
AcDbEntity
  8
レイヤー 1
  6
STYLE_08
 62
     7
 48
3.0
370
    70
100
AcDbCircle
 10
-5882.091618373827
 20
5426.458405411595
 30
0.0
 40
112.9024928685806
100
AcDbArc
 50
191.1704757390814
 51
212.0811365527905
  0
ARC
  5
29BFB
330
A
100
AcDbEntity
  8
レイヤー 1
 62
     7
370
    70
100
AcDbCircle
 10
-5922.404219791301
 20
5415.666581578846
 30
0.0
 40
74.03730476159402
100
AcDbArc
 50
221.6182181242952
 51
242.7713477248971
  0
ARC
  5
29BFC
330
A
100
AcDbEntity
  8
レイヤー 1
  6
STYLE_08
 62
     7
 48
3.0
370
    70
100
AcDbCircle
 10
-5931.782604639611
 20
5401.05508131122
 30
0.0
 40
56.77801718738649
100
AcDbArc
 50
230.1708592483198
 51
265.0981859256221
  0
LINE
  5
29C00
330
A
100
AcDbEntity
  8
レイヤー 1
  6
Continuous
 62
     7
370
    35
100
AcDbLine
 10
-6010.057078372873
 20
5689.871032233361
 30
0.0
 11
-6010.057078372872
 21
5629.760018694835
 31
0.0
  0
ARC
  5
29CDB
330
A
100
AcDbEntity
  8
レイヤー 1
  6
Continuous
 62
     7
370
    70
100
AcDbCircle
 10
-5968.576943055063
 20
5658.086881960927
 30
0.0
 40
29.33506717619746
100
AcDbArc
 50
163.0076031582643
 51
233.8399440315229
  0
ARC
  5
29E1B
330
A
100
AcDbEntity
  8
レイヤー 1
  6
Continuous
 62
     7
370
    70
100
AcDbCircle
 10
-5968.576943055063
 20
5311.70007088343
 30
0.0
 40
29.33506717619746
100
AcDbArc
 50
126.1600559684861
 51
196.9923968417026
  0
LINE
  5
2FA59
330
A
100
AcDbEntity
  8
レイヤー 1
  6
Continuous
 62
     7
370
    70
100
AcDbLine
 10
-6564.352080584338
 20
5509.65068494376
 30
0.0
 11
-6317.430325736197
 21
5501.027987260212
 31
0.0
  0
LINE
  5
2FB07
330
A
100
AcDbEntity
  8
レイヤー 1
  6
Continuous
 62
     7
370
     5
100
AcDbLine
 10
-7242.562452656589
 20
5762.124478874803
 30
0.0
 11
-7242.562452656591
 21
5728.12475719343
 31
0.0
  0
LINE
  5
2FB08
330
A
100
AcDbEntity
  8
レイヤー 1
  6
Continuous
 62
     7
370
     5
100
AcDbLine
 10
-7245.062452656587
 20
5761.943710560257
 30
0.0
 11
-7245.062452656592
 21
5728.305525507977
 31
0.0
  0
LINE
  5
2FB09
330
A
100
AcDbEntity
  8
レイヤー 1
  6
Continuous
 62
     7
370
     5
100
AcDbLine
 10
-7247.562452656588
 20
5761.380830688562
 30
0.0
 11
-7247.562452656589
 21
5728.868405379674
 31
0.0
  0
LINE
  5
2FB0A
330
A
100
AcDbEntity
  8
レイヤー 1
  6
Continuous
 62
     7
370
     5
100
AcDbLine
 10
-7250.062452656589
 20
5760.393770804658
 30
0.0
 11
-7250.062452656591
 21
5729.855465263575
 31
0.0
  0
LINE
  5
2FB0B
330
A
100
AcDbEntity
  8
レイヤー 1
  6
Continuous
 62
     7
370
     5
100
AcDbLine
 10
-7252.562452656587
 20
5758.891593111954
 30
0.0
 11
-7252.56245265659
 21
5731.357642956282
 31
0.0
  0
LINE
  5
2FB0C
330
A
100
AcDbEntity
  8
レイヤー 1
  6
Continuous
 62
     7
370
     5
100
AcDbLine
 10
-7255.062452656588
 20
5756.67503704199
 30
0.0
 11
-7255.062452656591
 21
5733.574199026246
 31
0.0
  0
LINE
  5
2FB0D
330
A
100
AcDbEntity
  8
レイヤー 1
  6
Continuous
 62
     7
370
     5
100
AcDbLine
 10
-7257.562452656589
 20
5753.174137008629
 30
0.0
 11
-7257.56245265659
 21
5737.075099059608
 31
0.0
  0
LINE
  5
2FB0E
330
A
100
AcDbEntity
  8
レイヤー 1
  6
Continuous
 62
     7
370
     5
100
AcDbLine
 10
-7237.562452656589
 20
5761.364511630196
 30
0.0
 11
-7237.562452656593
 21
5728.884724438035
 31
0.0
  0
LINE
  5
2FB0F
330
A
100
AcDbEntity
  8
レイヤー 1
  6
Continuous
 62
     7
370
     5
100
AcDbLine
 10
-7235.062452656589
 20
5760.36770064717
 30
0.0
 11
-7235.062452656591
 21
5729.881535421063
 31
0.0
  0
LINE
  5
2FB10
330
A
100
AcDbEntity
  8
レイヤー 1
  6
Continuous
 62
     7
370
     5
100
AcDbLine
 10
-7240.062452656587
 20
5761.935826214244
 30
0.0
 11
-7240.062452656592
 21
5728.313409853988
 31
0.0
  0
LINE
  5
2FB11
330
A
100
AcDbEntity
  8
レイヤー 1
  6
Continuous
 62
     7
370
     5
100
AcDbLine
 10
-7232.562452656587
 20
5758.853018927327
 30
0.0
 11
-7232.562452656593
 21
5731.396217140902
 31
0.0
  0
LINE
  5
2FB12
330
A
100
AcDbEntity
  8
レイヤー 1
  6
Continuous
 62
     7
370
     5
100
AcDbLine
 10
-7230.062452656587
 20
5756.617503425569
 30
0.0
 11
-7230.062452656591
 21
5733.63173264266
 31
0.0
  0
LINE
  5
2FB13
330
A
100
AcDbEntity
  8
レイヤー 1
  6
Continuous
 62
     7
370
     5
100
AcDbLine
 10
-7227.562452656589
 20
5753.07470219452
 30
0.0
 11
-7227.562452656591
 21
5737.174533873712
 31
0.0
  0
LINE
  5
2FB14
330
A
100
AcDbEntity
  8
レイヤー 1
  6
Continuous
 62
     7
370
    50
100
AcDbLine
 10
-7242.562452656589
 20
5762.124478874803
 30
0.0
 11
-7262.656776904794
 21
5762.124478874804
 31
0.0
  0
LINE
  5
2FB15
330
A
100
AcDbEntity
  8
レイヤー 1
  6
Continuous
 62
     7
370
    50
100
AcDbLine
 10
-7242.562452656589
 20
5728.12475719343
 30
0.0
 11
-7262.656776904794
 21
5728.124757193429
 31
0.0
  0
CIRCLE
  5
2FB16
330
A
100
AcDbEntity
  8
レイヤー 1
  6
Continuous
 62
     7
370
    50
100
AcDbCircle
 10
-7242.588967949315
 20
5745.124618034117
 30
0.0
 40
17.0
  0
ARC
  5
2FB17
330
A
100
AcDbEntity
  8
レイヤー 1
  6
Continuous
 62
     7
370
    50
100
AcDbCircle
 10
-7262.656776905007
 20
5745.12461803416
 30
0.0
 40
17.0
100
AcDbArc
 50
89.76816998166119
 51
270.2318299471557
  0
LINE
  5
2FB2A
330
A
100
AcDbEntity
  8
レイヤー 1
  6
Continuous
 62
     7
370
    13
100
AcDbLine
 10
-7173.526021423071
 20
5501.199839478146
 30
0.0
 11
-7203.761826685644
 21
5501.199839478146
 31
0.0
  0
LINE
  5
31DEA
330
A
100
AcDbEntity
  8
レイヤー 1
  6
Continuous
 62
     7
370
    70
100
AcDbLine
 10
-6940.800374164808
 20
5392.124468598962
 30
0.0
 11
-7079.800374164809
 21
5392.124468598962
 31
0.0
  0
LINE
  5
31DEB
330
A
100
AcDbEntity
  8
レイヤー 1
  6
Continuous
 62
     7
370
    70
100
AcDbLine
 10
-7079.800374164809
 20
5370.169643327816
 30
0.0
 11
-6939.80448095834
 21
5370.169643327819
 31
0.0
  0
LINE
  5
31DEC
330
A
100
AcDbEntity
  8
レイヤー 1
  6
Continuous
 62
     7
370
    70
100
AcDbLine
 10
-6974.800374164809
 20
5754.504679784733
 30
0.0
 11
-6974.800374164809
 21
5580.841677071179
 31
0.0
  0
SPLINE
  5
31DED
330
A
100
AcDbEntity
  8
レイヤー 1
  6
Continuous
 62
     7
370
    70
100
AcDbSpline
210
0.0
220
0.0
230
1.0
 70
     8
 71
     2
 72
    13
 73
    10
 74
     0
 42
0.0000000001
 43
0.0000000001
 40
0.0
 40
0.0
 40
0.0
 40
1.0
 40
2.0
 40
3.0
 40
4.0
 40
5.0
 40
6.0
 40
7.0
 40
7.053599347934288
 40
7.053599347934288
 40
7.053599347934288
 10
-7079.800374164809
 20
5581.624468598962
 30
0.0
 10
-6995.800374164808
 20
5581.124468598962
 30
0.0
 10
-6958.300374164808
 20
5580.624468598962
 30
0.0
 10
-6939.80037416481
 20
5578.874468598963
 30
0.0
 10
-6933.800374164809
 20
5576.124468598962
 30
0.0
 10
-6930.30037416481
 20
5573.124468598962
 30
0.0
 10
-6929.300374164809
 20
5563.374468598962
 30
0.0
 10
-6931.300374164809
 20
5556.874468598962
 30
0.0
 10
-6933.934372534643
 20
5554.898969821586
 30
0.0
 10
-6934.071602905842
 20
5554.80170304557
 30
0.0
  0
SPLINE
  5
31DEE
330
A
100
AcDbEntity
  8
レイヤー 1
  6
STYLE_06
 62
     7
370
    70
100
AcDbSpline
210
0.0
220
0.0
230
1.0
 70
     8
 71
     2
 72
     8
 73
     5
 74
     0
 42
0.0000000001
 43
0.0000000001
 40
0.0
 40
0.0
 40
0.0
 40
1.0
 40
2.0
 40
3.0
 40
3.0
 40
3.0
 10
-7079.800374164809
 20
5559.624468598962
 30
0.0
 10
-6965.300374164809
 20
5559.624468598962
 30
0.0
 10
-6944.30037416481
 20
5558.624468598963
 30
0.0
 10
-6935.30037416481
 20
5556.624468598962
 30
0.0
 10
-6934.071602905842
 20
5554.80170304557
 30
0.0
  0
ARC
  5
31DEF
330
A
100
AcDbEntity
  8
レイヤー 1
  6
Continuous
 62
     7
370
    70
100
AcDbCircle
 10
-6940.800374164808
 20
5381.124468598962
 30
0.0
 40
11.00000000000001
100
AcDbArc
 50
275.1944289077802
 51
90.0
  0
CIRCLE
  5
31DF0
330
A
100
AcDbEntity
  8
レイヤー 1
  6
Continuous
 62
     7
370
     9
100
AcDbCircle
 10
-7019.800374164809
 20
5745.124468598962
 30
0.0
 40
5.0
  0
ARC
  5
31DF1
330
A
100
AcDbEntity
  8
レイヤー 1
  6
Continuous
 62
     7
370
    70
100
AcDbCircle
 10
-7079.522996893263
 20
5648.125501123769
 30
0.0
 40
160.0000000000006
100
AcDbArc
 50
54.91511452434323
 51
90.09932846846103
  0
ARC
  5
31DF2
330
A
100
AcDbEntity
  8
レイヤー 1
  6
Continuous
 62
     7
370
    70
100
AcDbCircle
 10
-7004.800374164808
 20
5754.504679784733
 30
0.0
 40
30.0
100
AcDbArc
 50
0.000000000000007
 51
54.91511452434323
  0
ARC
  5
31DF3
330
A
100
AcDbEntity
  8
レイヤー 1
  6
Continuous
 62
     7
370
     9
100
AcDbCircle
 10
-7005.08153692313
 20
5502.927940629848
 30
0.0
 40
2.0
100
AcDbArc
 50
180.0
 51
270.0
  0
LINE
  5
31DF4
330
A
100
AcDbEntity
  8
レイヤー 1
  6
Continuous
 62
     7
370
    13
100
AcDbLine
 10
-6987.081536923131
 20
5500.927940629846
 30
0.0
 11
-7005.08153692313
 21
5500.927940629847
 31
0.0
  0
ARC
  5
31DF5
330
A
100
AcDbEntity
  8
レイヤー 1
  6
Continuous
 62
     7
370
    13
100
AcDbCircle
 10
-6987.081536923131
 20
5502.927940629846
 30
0.0
 40
2.0
100
AcDbArc
 50
270.0
 51
0.000000000000007
  0
LINE
  5
31DF6
330
A
100
AcDbEntity
  8
レイヤー 1
  6
Continuous
 62
     7
370
    70
100
AcDbLine
 10
-6898.479565193174
 20
5482.24251273532
 30
0.0
 11
-6860.64502250849
 21
5093.907487396062
 31
0.0
  0
LINE
  5
31DF7
330
A
100
AcDbEntity
  8
レイヤー 1
  6
Continuous
 62
     7
370
    70
100
AcDbLine
 10
-6864.563199623505
 20
5484.625818537038
 30
0.0
 11
-6840.488550167923
 21
5094.218754527269
 31
0.0
  0
LINE
  5
31DF8
330
A
100
AcDbEntity
  8
レイヤー 1
  6
Continuous
 62
     7
370
    70
100
AcDbLine
 10
-6858.656827558895
 20
5092.124468598962
 30
0.0
 11
-6842.486326472648
 21
5092.124468598964
 31
0.0
  0
ARC
  5
31DF9
330
A
100
AcDbEntity
  8
レイヤー 1
  6
Continuous
 62
     7
370
    70
100
AcDbCircle
 10
-6842.486326472648
 20
5094.124468598963
 30
0.0
 40
2.0
100
AcDbArc
 50
270.0
 51
2.702094393039743
  0
ARC
  5
31DFA
330
A
100
AcDbEntity
  8
レイヤー 1
  6
Continuous
 62
     7
370
    70
100
AcDbCircle
 10
-6858.656827558895
 20
5094.124468598963
 30
0.0
 40
2.0
100
AcDbArc
 50
186.2283126662886
 51
270.0
  0
LINE
  5
31DFB
330
A
100
AcDbEntity
  8
レイヤー 1
  6
Continuous
 62
     7
370
    70
100
AcDbLine
 10
-6910.048613696033
 20
5728.124468598963
 30
0.0
 11
-6904.740646568244
 21
5571.342755190679
 31
0.0
  0
LINE
  5
31DFC
330
A
100
AcDbEntity
  8
レイヤー 1
  6
Continuous
 62
     7
370
    70
100
AcDbLine
 10
-6870.824280998575
 20
5573.726060992397
 30
0.0
 11
-6890.100897286497
 21
5729.573567269545
 31
0.0
  0
LINE
  5
31DFD
330
A
100
AcDbEntity
  8
レイヤー 1
  6
Continuous
 62
     7
370
    13
100
AcDbLine
 10
-6955.10646721387
 20
5472.588434740726
 30
0.0
 11
-6951.569913105662
 21
5392.095189736245
 31
0.0
  0
LINE
  5
31DFE
330
A
100
AcDbEntity
  8
レイヤー 1
  6
Continuous
 62
     7
370
    13
100
AcDbLine
 10
-6948.896931285043
 20
5331.257160966818
 30
0.0
 11
-6938.47440375293
 21
5094.036681217457
 31
0.0
  0
LINE
  5
31DFF
330
A
100
AcDbEntity
  8
レイヤー 1
  6
Continuous
 62
     7
370
    13
100
AcDbLine
 10
-6936.476331337914
 20
5092.124468598962
 30
0.0
 11
-6920.398175748729
 21
5092.124468598964
 31
0.0
  0
ARC
  5
31E00
330
A
100
AcDbEntity
  8
レイヤー 1
  6
Continuous
 62
     7
370
    13
100
AcDbCircle
 10
-6920.398175748729
 20
5094.124468598963
 30
0.0
 40
2.0
100
AcDbArc
 50
270.0
 51
0.4083325135555788
  0
ARC
  5
31E01
330
A
100
AcDbEntity
  8
レイヤー 1
  6
Continuous
 62
     7
370
    13
100
AcDbCircle
 10
-6936.476331337914
 20
5094.124468598963
 30
0.0
 40
2.0
100
AcDbArc
 50
182.5157314937218
 51
270.0
  0
LINE
  5
31E02
330
A
100
AcDbEntity
  8
レイヤー 1
  6
Continuous
 62
     7
370
    13
100
AcDbLine
 10
-6918.398226539032
 20
5094.138721971915
 30
0.0
 11
-6920.399188069302
 21
5331.257160966818
 31
0.0
  0
LINE
  5
31E03
330
A
100
AcDbEntity
  8
レイヤー 1
  6
Continuous
 62
     7
370
    13
100
AcDbLine
 10
-6920.544823120815
 20
5370.169643327819
 30
0.0
 11
-6921.117543334602
 21
5473.45622130974
 31
0.0
  0
LINE
  5
31E04
330
A
100
AcDbEntity
  8
レイヤー 1
  6
Continuous
 62
     7
370
    13
100
AcDbLine
 10
-6954.628392003908
 20
5728.124468598963
 30
0.0
 11
-6957.274887866247
 21
5580.280180352415
 31
0.0
  0
LINE
  5
31E05
330
A
100
AcDbEntity
  8
レイヤー 1
  6
Continuous
 62
     7
370
    13
100
AcDbLine
 10
-6934.621874515579
 20
5728.124468598963
 30
0.0
 11
-6920.934742244904
 21
5573.895720716851
 31
0.0
  0
LINE
  5
31E06
330
A
100
AcDbEntity
  8
レイヤー 1
  6
Continuous
 62
     7
370
    70
100
AcDbLine
 10
-6904.740646568244
 20
5571.342755190679
 30
0.0
 11
-6898.479565193174
 21
5482.24251273532
 31
0.0
  0
LINE
  5
31E07
330
A
100
AcDbEntity
  8
レイヤー 1
  6
Continuous
 62
     7
370
    70
100
AcDbLine
 10
-6864.563199623505
 20
5484.625818537038
 30
0.0
 11
-6870.824280998575
 21
5573.726060992397
 31
0.0
  0
LINE
  5
31E08
330
A
100
AcDbEntity
  8
レイヤー 1
  6
Continuous
 62
     7
370
    70
100
AcDbLine
 10
-6903.890167367312
 20
5559.120507625805
 30
0.0
 11
-6930.658430840196
 21
5559.120507625805
 31
0.0
  0
LINE
  5
31E09
330
A
100
AcDbEntity
  8
レイヤー 1
  6
Continuous
 62
     7
370
    70
100
AcDbLine
 10
-6895.997617725715
 20
5762.124468598962
 30
0.0
 11
-6975.081536923129
 21
5762.124468598962
 31
0.0
  0
LINE
  5
31E0A
330
A
100
AcDbEntity
  8
レイヤー 1
  6
Continuous
 62
     7
370
    70
100
AcDbLine
 10
-6896.968900478306
 20
5728.124468598963
 30
0.0
 11
-6974.800374164809
 21
5728.124468598963
 31
0.0
  0
LINE
  5
31E0B
330
A
100
AcDbEntity
  8
レイヤー 1
  6
Continuous
 62
     7
370
     5
100
AcDbLine
 10
-6955.42468199669
 20
5485.017570446867
 30
0.0
 11
-6955.10646721387
 21
5472.588434740726
 31
0.0
  0
LINE
  5
31E0C
330
A
100
AcDbEntity
  8
レイヤー 1
  6
Continuous
 62
     7
370
    13
100
AcDbLine
 10
-6921.095387483713
 20
5485.017570446867
 30
0.0
 11
-6921.117543334602
 21
5473.45622130974
 31
0.0
  0
LINE
  5
31E0D
330
A
100
AcDbEntity
  8
レイヤー 1
  6
Continuous
 62
     7
370
    13
100
AcDbLine
 10
-6920.928075032517
 20
5573.895952091163
 30
0.0
 11
-6920.465580839658
 21
5559.120507625805
 31
0.0
  0
LINE
  5
31E0E
330
A
100
AcDbEntity
  8
レイヤー 1
  6
Continuous
 62
     7
370
    13
100
AcDbLine
 10
-6987.081536923131
 20
5500.927940629847
 30
0.0
 11
-7005.08153692313
 21
5500.927940629847
 31
0.0
  0
LINE
  5
31E0F
330
A
100
AcDbEntity
  8
レイヤー 1
  6
Continuous
 62
     7
370
    70
100
AcDbLine
 10
-7079.940955543969
 20
5510.699619607954
 30
0.0
 11
-6899.782444920162
 21
5510.699619607954
 31
0.0
  0
LINE
  5
31E10
330
A
100
AcDbEntity
  8
レイヤー 1
  6
Continuous
 62
     7
370
    70
100
AcDbLine
 10
-7079.800374164809
 20
5331.257160966818
 30
0.0
 11
-6883.769427390753
 21
5331.257160966818
 31
0.0
  0
LINE
  5
31E11
330
A
100
AcDbEntity
  8
レイヤー 1
  6
Continuous
 62
     7
370
    70
100
AcDbLine
 10
-7079.80037416481
 20
5370.169643327818
 30
0.0
 11
-6887.560576472832
 21
5370.169643327818
 31
0.0
  0
LINE
  5
31E12
330
A
100
AcDbEntity
  8
レイヤー 1
  6
Continuous
 62
     7
370
    70
100
AcDbLine
 10
-6940.800374164808
 20
5370.169643327818
 30
0.0
 11
-7079.800374164809
 21
5370.169643327818
 31
0.0
  0
LINE
  5
31E13
330
A
100
AcDbEntity
  8
レイヤー 1
  6
Continuous
 62
     7
370
    13
100
AcDbLine
 10
-7079.940955543969
 20
5501.199839478146
 30
0.0
 11
-7006.088346939712
 21
5501.199839478147
 31
0.0
  0
LINE
  5
31E14
330
A
100
AcDbEntity
  8
レイヤー 1
  6
Continuous
 62
     7
370
    13
100
AcDbLine
 10
-6986.074726906548
 20
5501.199839478146
 30
0.0
 11
-6955.838921643975
 21
5501.199839478146
 31
0.0
  0
LINE
  5
31E15
330
A
100
AcDbEntity
  8
レイヤー 1
  6
Continuous
 62
     7
 48
6.0
370
     5
100
AcDbLine
 10
-6921.654248083452
 20
5503.762607265131
 30
0.0
 11
-6921.095387483713
 21
5485.017570446867
 31
0.0
  0
LINE
  5
31E16
330
A
100
AcDbEntity
  8
レイヤー 1
  6
Continuous
 62
     7
 48
6.0
370
     5
100
AcDbLine
 10
-6955.90452431206
 20
5503.762607265131
 30
0.0
 11
-6955.42468199669
 21
5485.017570446867
 31
0.0
  0
LINE
  5
31E17
330
A
100
AcDbEntity
  8
レイヤー 1
  6
Continuous
 62
     7
370
     5
100
AcDbLine
 10
-6917.03829567303
 20
5762.124478874803
 30
0.0
 11
-6917.038295673027
 21
5728.12475719343
 31
0.0
  0
LINE
  5
31E18
330
A
100
AcDbEntity
  8
レイヤー 1
  6
Continuous
 62
     7
370
     5
100
AcDbLine
 10
-6914.53829567303
 20
5761.943710560257
 30
0.0
 11
-6914.538295673025
 21
5728.305525507977
 31
0.0
  0
LINE
  5
31E19
330
A
100
AcDbEntity
  8
レイヤー 1
  6
Continuous
 62
     7
370
     5
100
AcDbLine
 10
-6912.038295673029
 20
5761.380830688562
 30
0.0
 11
-6912.038295673028
 21
5728.868405379674
 31
0.0
  0
LINE
  5
31E1A
330
A
100
AcDbEntity
  8
レイヤー 1
  6
Continuous
 62
     7
370
     5
100
AcDbLine
 10
-6909.53829567303
 20
5760.393770804658
 30
0.0
 11
-6909.538295673027
 21
5729.855465263575
 31
0.0
  0
LINE
  5
31E1B
330
A
100
AcDbEntity
  8
レイヤー 1
  6
Continuous
 62
     7
370
     5
100
AcDbLine
 10
-6907.038295673031
 20
5758.891593111954
 30
0.0
 11
-6907.038295673027
 21
5731.357642956282
 31
0.0
  0
LINE
  5
31E1C
330
A
100
AcDbEntity
  8
レイヤー 1
  6
Continuous
 62
     7
370
     5
100
AcDbLine
 10
-6904.538295673031
 20
5756.67503704199
 30
0.0
 11
-6904.538295673027
 21
5733.574199026246
 31
0.0
  0
LINE
  5
31E1D
330
A
100
AcDbEntity
  8
レイヤー 1
  6
Continuous
 62
     7
370
     5
100
AcDbLine
 10
-6902.038295673029
 20
5753.174137008629
 30
0.0
 11
-6902.038295673027
 21
5737.075099059608
 31
0.0
  0
LINE
  5
31E1E
330
A
100
AcDbEntity
  8
レイヤー 1
  6
Continuous
 62
     7
370
     5
100
AcDbLine
 10
-6922.03829567303
 20
5761.364511630196
 30
0.0
 11
-6922.038295673026
 21
5728.884724438035
 31
0.0
  0
LINE
  5
31E1F
330
A
100
AcDbEntity
  8
レイヤー 1
  6
Continuous
 62
     7
370
     5
100
AcDbLine
 10
-6924.53829567303
 20
5760.36770064717
 30
0.0
 11
-6924.538295673027
 21
5729.881535421063
 31
0.0
  0
LINE
  5
31E20
330
A
100
AcDbEntity
  8
レイヤー 1
  6
Continuous
 62
     7
370
     5
100
AcDbLine
 10
-6919.53829567303
 20
5761.935826214244
 30
0.0
 11
-6919.538295673027
 21
5728.313409853988
 31
0.0
  0
LINE
  5
31E21
330
A
100
AcDbEntity
  8
レイヤー 1
  6
Continuous
 62
     7
370
     5
100
AcDbLine
 10
-6927.038295673032
 20
5758.853018927327
 30
0.0
 11
-6927.038295673025
 21
5731.396217140902
 31
0.0
  0
LINE
  5
31E22
330
A
100
AcDbEntity
  8
レイヤー 1
  6
Continuous
 62
     7
370
     5
100
AcDbLine
 10
-6929.53829567303
 20
5756.617503425569
 30
0.0
 11
-6929.538295673026
 21
5733.63173264266
 31
0.0
  0
LINE
  5
31E23
330
A
100
AcDbEntity
  8
レイヤー 1
  6
Continuous
 62
     7
370
     5
100
AcDbLine
 10
-6932.03829567303
 20
5753.07470219452
 30
0.0
 11
-6932.038295673028
 21
5737.174533873712
 31
0.0
  0
LINE
  5
31E24
330
A
100
AcDbEntity
  8
レイヤー 1
  6
Continuous
 62
     7
370
    50
100
AcDbLine
 10
-6917.03829567303
 20
5762.124478874803
 30
0.0
 11
-6896.943971424824
 21
5762.124478874804
 31
0.0
  0
LINE
  5
31E25
330
A
100
AcDbEntity
  8
レイヤー 1
  6
Continuous
 62
     7
370
    50
100
AcDbLine
 10
-6917.03829567303
 20
5728.12475719343
 30
0.0
 11
-6896.943971424824
 21
5728.124757193429
 31
0.0
  0
CIRCLE
  5
31E26
330
A
100
AcDbEntity
  8
レイヤー 1
  6
Continuous
 62
     7
370
    50
100
AcDbCircle
 10
-6917.011780380303
 20
5745.124618034117
 30
0.0
 40
17.0
  0
ARC
  5
31E27
330
A
100
AcDbEntity
  8
レイヤー 1
  6
Continuous
 62
     7
370
    50
100
AcDbCircle
 10
-6896.943971424611
 20
5745.12461803416
 30
0.0
 40
17.0
100
AcDbArc
 50
269.7681700528443
 51
90.23183001833881
  0
LINE
  5
31E28
330
A
100
AcDbEntity
  8
レイヤー 1
  6
Continuous
 62
     7
370
    70
100
AcDbLine
 10
-6338.735533250058
 20
5620.779108887749
 30
0.0
 11
-6347.4358869506
 21
5549.920414304616
 31
0.0
  0
LINE
  5
31E2A
330
A
100
AcDbEntity
  8
レイヤー 1
  6
Continuous
 62
     7
370
    70
100
AcDbLine
 10
-6364.848063585847
 20
5728.124468598964
 30
0.0
 11
-6386.561012117804
 21
5551.286693781918
 31
0.0
  0
LINE
  5
31E2B
330
A
100
AcDbEntity
  8
レイヤー 1
  6
Continuous
 62
     7
370
    70
100
AcDbLine
 10
-6325.555180392949
 20
5728.124468598963
 30
0.0
 11
-6328.021979483692
 21
5708.034002235754
 31
0.0
  0
LINE
  5
31E2C
330
A
100
AcDbEntity
  8
レイヤー 1
  6
Continuous
 62
     7
370
    70
100
AcDbLine
 10
-6556.804957884551
 20
5577.243934255378
 30
0.0
 11
-6384.114314827834
 21
5571.213444115812
 31
0.0
  0
LINE
  5
31E2D
330
A
100
AcDbEntity
  8
レイヤー 1
  6
Continuous
 62
     7
370
    70
100
AcDbLine
 10
-6558.873055066031
 20
5557.303962914364
 30
0.0
 11
-6373.978667555753
 21
5550.847308627799
 31
0.0
  0
LINE
  5
31E2E
330
A
100
AcDbEntity
  8
レイヤー 1
  6
Continuous
 62
     7
 48
6.0
370
    35
100
AcDbLine
 10
-5975.056755746328
 20
5607.20241382029
 30
0.0
 11
-5975.056755746328
 21
5637.797820911957
 31
0.0
  0
LINE
  5
31E2F
330
A
100
AcDbEntity
  8
レイヤー 1
  6
Continuous
 62
     7
 48
6.0
370
    35
100
AcDbLine
 10
-5952.77716058138
 20
5622.517501558467
 30
0.0
 11
-5952.77716058138
 21
5643.490304170857
 31
0.0
  0
VIEWPORT
  5
31DD8
330
31DD1
100
AcDbEntity
 67
     1
  8
0
  6
Continuous
100
AcDbViewport
 10
128.5
 20
97.5
 30
0.0
 40
428.26
 41
222.18
 68
     1
 69
     1
 12
128.5
 22
97.5
 13
0.0
 23
0.0
 14
10.0
 24
10.0
 15
10.0
 25
10.0
 16
0.0
 26
0.0
 36
1.0
 17
0.0
 27
0.0
 37
0.0
 42
50.0
 43
0.0
 44
0.0
 45
222.18
 50
0.0
 51
0.0
 72
  2000
 90
   819232
  1

281
     0
 71
     1
 74
     0
110
0.0
120
0.0
130
0.0
111
1.0
121
0.0
131
0.0
112
0.0
122
1.0
132
0.0
 79
     0
146
0.0
170
     0
 61
     5
348
977
292
     1
282
     1
141
0.0
142
0.0
 63
   250
421
  3355443
  0
ENDSEC
  0
SECTION
  2
OBJECTS
  0
DICTIONARY
  5
19
330
0
100
AcDbDictionary
281
     1
  3
ACAD_BGPLOT_KEY
350
1108E
  3
ACAD_COLOR
350
982
  3
ACAD_GROUP
350
1A
  3
ACAD_LAYOUT
350
1E
  3
ACAD_MATERIAL
350
96D
  3
ACAD_MLINESTYLE
350
1B
  3
ACAD_PLOTSETTINGS
350
22
  3
ACAD_PLOTSTYLENAME
350
1F
  3
ACAD_TABLESTYLE
350
983
  3
ACAD_VISUALSTYLE
350
971
  3
ACAD_WIPEOUT_VARS
350
23
  3
AcDbVariableDictionary
350
98E
  3
ASE_INDEX_DICTIONARY
350
2C77D
  0
DICTIONARY
  5
3A0F
330
7
100
AcDbDictionary
280
     1
281
     1
  0
DICTIONARY
  5
C1E
330
2
100
AcDbDictionary
280
     1
281
     1
  3
ACAD_LAYERFILTERS
360
1FD41
  3
ACAD_LAYERSTATES
360
C1F
  3
ACLYDICTIONARY
360
1FD40
  0
DICTIONARY
  5
9CE
330
A
100
AcDbDictionary
280
     1
281
     1
  3
ACAD_SORTENTS
360
9CF
  0
DICTIONARY
  5
1108E
102
{ACAD_REACTORS
330
19
102
}
330
19
100
AcDbDictionary
280
     1
281
     1
  0
DICTIONARY
  5
982
102
{ACAD_REACTORS
330
19
102
}
330
19
100
AcDbDictionary
281
     1
  0
DICTIONARY
  5
1A
102
{ACAD_REACTORS
330
19
102
}
330
19
100
AcDbDictionary
281
     1
  0
DICTIONARY
  5
1E
102
{ACAD_REACTORS
330
19
102
}
330
19
100
AcDbDictionary
281
     1
  3
Model
350
20
  3
レイアウト1
350
31DD2
  0
DICTIONARY
  5
96D
102
{ACAD_REACTORS
330
19
102
}
330
19
100
AcDbDictionary
281
     1
  3
ByBlock
350
96F
  3
ByLayer
350
96E
  3
Global
350
970
  0
DICTIONARY
  5
1B
102
{ACAD_REACTORS
330
19
102
}
330
19
100
AcDbDictionary
281
     1
  3
Standard
350
1C
  0
DICTIONARY
  5
22
102
{ACAD_REACTORS
330
19
102
}
330
19
100
AcDbDictionary
281
     1
  0
ACDBDICTIONARYWDFLT
  5
1F
102
{ACAD_REACTORS
330
19
102
}
330
19
100
AcDbDictionary
281
     1
  3
Normal
350
1D
100
AcDbDictionaryWithDefault
340
1D
  0
DICTIONARY
  5
983
102
{ACAD_REACTORS
330
19
102
}
330
19
100
AcDbDictionary
281
     1
  3
Standard
350
984
  0
DICTIONARY
  5
971
102
{ACAD_REACTORS
330
19
102
}
330
19
100
AcDbDictionary
281
     1
  3
2dWireframe
350
977
  3
3dWireframe
350
978
  3
Basic
350
976
  3
Brighten
350
97D
  3
ColorChange
350
981
  3
Dim
350
97C
  3
Facepattern
350
980
  3
Flat
350
972
  3
FlatWithEdges
350
973
  3
Gouraud
350
974
  3
GouraudWithEdges
350
975
  3
Linepattern
350
97F
  3
Realistic
350
97B
  3
Thicken
350
97E
  0
WIPEOUTVARIABLES
  5
23
330
19
100
AcDbWipeoutVariables
 70
     0
  0
DICTIONARY
  5
98E
102
{ACAD_REACTORS
330
19
102
}
330
19
100
AcDbDictionary
281
     1
  3
CTABLESTYLE
350
98F
  3
FIELDEVAL
350
1108F
  0
DICTIONARY
  5
2C77D
102
{ACAD_REACTORS
330
19
102
}
330
19
100
AcDbDictionary
281
     1
  3
ASEBlockHierarchyIndexRecord
350
2C77E
1001
DCO15
1040
1942402609.917
  0
DICTIONARY
  5
1FD41
102
{ACAD_REACTORS
330
C1E
102
}
330
C1E
100
AcDbDictionary
281
     1
  0
DICTIONARY
  5
C1F
102
{ACAD_REACTORS
330
C1E
102
}
330
C1E
100
AcDbDictionary
281
     1
  0
DICTIONARY
  5
1FD40
102
{ACAD_REACTORS
330
C1E
102
}
330
C1E
100
AcDbDictionary
281
     1
1001
ACAD
1000
<All
  0
SORTENTSTABLE
  5
9CF
102
{ACAD_REACTORS
330
9CE
102
}
330
9CE
100
AcDbSortentsTable
330
A
331
2623F
  5
26283
331
26288
  5
262DE
331
26289
  5
262E0
331
2628A
  5
269BD
331
274F8
  5
27E09
331
274F9
  5
29A6B
331
27883
  5
29A6C
331
27884
  5
29A6E
331
27885
  5
29A6F
331
274F0
  5
26235
331
274F1
  5
278BF
331
274F2
  5
278C2
331
274F3
  5
26236
331
274F4
  5
278BE
331
2788C
  5
26F69
331
274F5
  5
27E08
331
278FE
  5
261A6
331
2822A
  5
2614E
331
2822B
  5
26150
331
26F14
  5
26F6F
331
26F15
  5
26F70
331
26F1E
  5
26F71
331
26F1F
  5
278B9
331
26F03
  5
26F6A
331
26F20
  5
278BC
331
26F04
  5
26F6E
331
2706B
  5
278BD
331
2FA59
  5
2623E
331
2FB2A
  5
29A6D
331
2FB07
  5
2FB10
331
2FB08
  5
2FB11
331
2FB09
  5
2FB12
331
2FB0A
  5
2FB13
331
2FB0B
  5
2FB14
331
2FB0C
  5
2FB15
331
2FB0D
  5
2FB16
331
2FB0E
  5
2FB17
331
2FB0F
  5
2FB23
331
2FB10
  5
2FB24
331
2FB11
  5
2FB7B
331
2FB12
  5
2FB7C
331
2FB13
  5
31DEA
331
2FB14
  5
31DEB
331
2FB15
  5
31DEC
331
2FB16
  5
31DEF
331
2FB17
  5
31DF0
331
29BF0
  5
29C07
331
29BF1
  5
29C08
331
29BF2
  5
29C09
331
29BF3
  5
29C0A
331
29BF4
  5
29C0B
331
29BF5
  5
29C0C
331
29BF6
  5
29C0E
331
29BF7
  5
29C0F
331
29BF9
  5
29C10
331
29BFA
  5
29C11
331
29BFB
  5
29C13
331
29BFC
  5
29C14
331
29BE8
  5
29BFF
331
29BE9
  5
29C00
331
29BEA
  5
29C01
331
29BEB
  5
29C02
331
29C00
  5
2FB0D
331
29BEC
  5
29C03
331
29BED
  5
29C04
331
29BEE
  5
29C05
331
29BEF
  5
29C06
331
29CDB
  5
2FB0E
331
31DEA
  5
31DF1
331
31DEB
  5
31DF2
331
31E08
  5
31E0F
331
31DEC
  5
31DF3
331
31E09
  5
31E10
331
31DED
  5
31DF4
331
31E0A
  5
31E11
331
31DEE
  5
31DF5
331
31E0B
  5
31E12
331
31DEF
  5
31DF6
331
31E0C
  5
31E13
331
31DF0
  5
31DF7
331
31E28
  5
278C1
331
31E0D
  5
31E14
331
31DF1
  5
31DF8
331
31E0E
  5
31E15
331
31DF2
  5
31DF9
331
31E2A
  5
27E01
331
31E0F
  5
31E16
331
31DF3
  5
31DFA
331
31E2B
  5
278C0
331
31E10
  5
31E17
331
31DF4
  5
31DFB
331
31E2C
  5
26F72
331
31E11
  5
31E18
331
31DF5
  5
31DFC
331
31E2D
  5
26234
331
31E12
  5
31E19
331
31E2E
  5
29BFD
331
31DF6
  5
31DFD
331
31E13
  5
31E1A
331
31E2F
  5
29B02
331
31DF7
  5
31DFE
331
31E14
  5
31E1B
331
31DF8
  5
31DFF
331
31E15
  5
31E1C
331
31DF9
  5
31E00
331
31E16
  5
31E1D
331
31DFA
  5
31E01
331
31E17
  5
31E1E
331
31DFB
  5
31E02
331
31E18
  5
31E1F
331
31DFC
  5
31E03
331
31E19
  5
31E20
331
31DFD
  5
31E04
331
31E1A
  5
31E21
331
31DFE
  5
31E05
331
31E1B
  5
31E22
331
31DFF
  5
31E06
331
31E1C
  5
31E23
331
31E00
  5
31E07
331
31E1D
  5
31E24
331
31E01
  5
31E08
331
31E1E
  5
31E25
331
31E02
  5
31E09
331
31E1F
  5
31E26
331
31E03
  5
31E0A
331
31E20
  5
31E27
331
31E04
  5
31E0B
331
31E21
  5
31E28
331
31E05
  5
31E0C
331
31E22
  5
31E2A
331
31E06
  5
31E0D
331
31E23
  5
31E2B
331
31E07
  5
31E0E
331
31E24
  5
31E2C
331
31E25
  5
31E2D
331
31E26
  5
31E2E
331
31E27
  5
31E2F
331
26867
  5
269BF
331
29A70
  5
29A84
331
29A71
  5
29A85
331
29A72
  5
29A86
331
29A73
  5
29A87
331
29A88
  5
29A9D
331
29A74
  5
29A88
331
29A75
  5
29A89
331
29A76
  5
29A8A
331
29AA8
  5
29ABD
331
29A8C
  5
29AA1
331
29AA9
  5
29ABE
331
29AAA
  5
29ABF
331
29AAB
  5
29AC0
331
29A7B
  5
29A8F
331
29AC8
  5
29ADD
331
29AAC
  5
29AC1
331
29A90
  5
29AA5
331
29A7C
  5
29A90
331
29A60
  5
29A74
331
29AC9
  5
29ADE
331
29AAD
  5
29AC2
331
29A91
  5
29AA6
331
29ACA
  5
29ADF
331
29AAE
  5
29AC3
331
29A92
  5
29AA7
331
29ACB
  5
29AE0
331
29AAF
  5
29AC4
331
29AE8
  5
29AFD
331
29ACC
  5
29AE1
331
29AB0
  5
29AC5
331
29A94
  5
29AA9
331
29A64
  5
29A78
331
29AB1
  5
29AC6
331
29AB2
  5
29AC7
331
29A82
  5
29A96
331
29AB3
  5
29AC8
331
29A97
  5
29AAC
331
29A83
  5
29A97
331
29AB4
  5
29AC9
331
29A98
  5
29AAD
331
29A84
  5
29A99
331
29AED
  5
29B03
331
29AD1
  5
29AE6
331
29AB5
  5
29ACA
331
29A99
  5
29AAE
331
29A85
  5
29A9A
331
29AEE
  5
29B04
331
29AB6
  5
29ACB
331
29A9A
  5
29AAF
331
29AEF
  5
29BFE
331
29AB7
  5
29ACC
331
29A9B
  5
29AB0
331
29A9C
  5
29AB1
331
29AD5
  5
29AEA
331
29AB9
  5
29ACE
331
29A9D
  5
29AB2
331
29A6D
  5
29A81
331
29AD6
  5
29AEB
331
29A9E
  5
29AB3
331
29A6E
  5
29A82
331
29AD7
  5
29AEC
331
29A9F
  5
29AB4
331
29A6F
  5
29A83
331
29AD8
  5
29AED
331
29AA0
  5
29AB5
331
29AD9
  5
29AEE
331
29AA1
  5
29AB6
331
29AA2
  5
29AB7
331
29ABF
  5
29AD4
331
29AA3
  5
29AB8
331
29AA4
  5
29AB9
331
29ADD
  5
29AF2
331
29AC1
  5
29AD6
331
29AA5
  5
29ABA
331
29AC2
  5
29AD7
331
29AA6
  5
29ABB
331
29AC3
  5
29AD8
331
29AA7
  5
29ABC
331
29AE0
  5
29AF5
331
29AC4
  5
29AD9
331
29AE1
  5
29AF6
331
29AC5
  5
29ADA
331
29AE2
  5
29AF7
331
29AC6
  5
29ADB
331
29E1B
  5
2FB0F
331
29AE3
  5
29AF8
331
29AC7
  5
29ADC
331
29AE4
  5
29AF9
331
29AE7
  5
29AFC
331
26135
  5
2613A
331
26136
  5
2613E
331
2613A
  5
2613F
331
2613B
  5
26140
331
2613C
  5
26145
331
26122
  5
26124
331
261B0
  5
261CE
331
26194
  5
261AD
331
261B1
  5
261FF
331
26196
  5
261AF
331
26197
  5
261B0
331
26145
  5
2614A
331
26146
  5
2614B
331
26147
  5
2614C
331
261EC
  5
26223
331
26188
  5
2619A
331
261ED
  5
26228
331
261EE
  5
26229
331
2614E
  5
26155
331
2618F
  5
261A3
331
26240
  5
26284
331
26210
  5
26252
331
261F5
  5
2622C
331
26242
  5
26285
331
26212
  5
26269
331
261F6
  5
2622D
331
26243
  5
26286
331
261F7
  5
2622E
331
26244
  5
26287
331
26228
  5
2626A
331
26245
  5
26288
331
26229
  5
2626B
331
261F9
  5
26230
331
26246
  5
26289
331
2622A
  5
2626C
331
261FA
  5
26231
331
26247
  5
2628C
331
2622B
  5
2626D
331
26248
  5
2628D
331
2622C
  5
2627D
331
261FC
  5
26233
331
26249
  5
2628E
331
261FD
  5
26239
331
2624A
  5
2628F
331
261AE
  5
261CA
331
2624B
  5
26290
331
261FF
  5
26245
331
261E3
  5
26221
331
261AF
  5
261CB
331
2624C
  5
26291
331
2624D
  5
26292
331
2624E
  5
26294
331
2624F
  5
262DA
331
26206
  5
26246
331
26207
  5
26250
331
2623A
  5
2627E
331
2623B
  5
2627F
331
2623C
  5
26280
331
2623D
  5
26281
331
2623E
  5
26282
  0
LAYOUT
  5
20
102
{ACAD_REACTORS
330
1E
102
}
330
1E
100
AcDbPlotSettings
  1

  2
none_device
  4
ISO_A4_(210.00_x_297.00_MM)
  6

 40
7.5
 41
20.0
 42
7.5
 43
20.0
 44
210.0
 45
297.0
 46
0.0
 47
0.0
 48
0.0
 49
0.0
140
0.0
141
0.0
142
1.0
143
1.0
 70
 11264
 72
     1
 73
     1
 74
     0
  7

 75
     0
147
1.0
 76
     0
 77
     2
 78
   300
148
916.8712341080581
149
627.2450171497189
100
AcDbLayout
  1
Model
 70
     0
 71
     0
 10
0.0
 20
0.0
 11
0.0
 21
0.0
 12
0.0
 22
0.0
 32
0.0
 14
0.0
 24
0.0
 34
0.0
 15
0.0
 25
0.0
 35
0.0
146
0.0
 13
0.0
 23
0.0
 33
0.0
 16
0.0
 26
0.0
 36
0.0
 17
0.0
 27
0.0
 37
0.0
 76
     0
330
A
331
15
1001
ACAD_PSEXT
1000
なし
1000
なし
1000
適切ではありません
1000
新しいプロッタ環境設定名を選択しない限り、レイアウトは印刷されません。
1070
     0
  0
LAYOUT
  5
31DD2
102
{ACAD_XDICTIONARY
360
31DDF
102
}
102
{ACAD_REACTORS
330
1E
102
}
330
1E
100
AcDbPlotSettings
  1

  2
none_device
  4
ISO_A4_(210.00_x_297.00_MM)
  6

 40
7.5
 41
20.0
 42
7.5
 43
20.0
 44
210.0
 45
297.0
 46
0.0
 47
0.0
 48
0.0
 49
0.0
140
0.0
141
0.0
142
1.0
143
1.0
 70
   688
 72
     1
 73
     1
 74
     5
  7

 75
    16
147
1.0
 76
     0
 77
     2
 78
   300
148
0.0
149
0.0
100
AcDbLayout
  1
レイアウト1
 70
     1
 71
     1
 10
-20.0
 20
-7.5
 11
277.0
 21
202.5
 12
0.0
 22
0.0
 32
0.0
 14
25.69999999999999
 24
19.5
 34
0.0
 15
231.3
 25
175.5
 35
0.0
146
0.0
 13
0.0
 23
0.0
 33
0.0
 16
1.0
 26
0.0
 36
0.0
 17
0.0
 27
1.0
 37
0.0
 76
     0
330
31DD1
331
31DD8
1001
ACAD_PSEXT
1000
なし
1000
なし
1000
適切ではありません
1000
新しいプロッタ環境設定名を選択しない限り、レイアウトは印刷されません。
1070
     0
  0
MATERIAL
  5
96F
102
{ACAD_REACTORS
330
96D
102
}
330
96D
100
AcDbMaterial
  1
ByBlock
  0
MATERIAL
  5
96E
102
{ACAD_REACTORS
330
96D
102
}
330
96D
100
AcDbMaterial
  1
ByLayer
  0
MATERIAL
  5
970
102
{ACAD_REACTORS
330
96D
102
}
330
96D
100
AcDbMaterial
  1
Global
  0
MLINESTYLE
  5
1C
102
{ACAD_REACTORS
330
1B
102
}
330
1B
100
AcDbMlineStyle
  2
STANDARD
 70
     0
  3

 62
     0
 51
90.0
 52
90.0
 71
     2
 49
0.5
 62
   256
  6
BYLAYER
 49
-0.5
 62
   256
  6
BYLAYER
  0
ACDBPLACEHOLDER
  5
1D
102
{ACAD_REACTORS
330
1F
102
}
330
1F
  0
TABLESTYLE
  5
984
102
{ACAD_REACTORS
330
983
102
}
330
983
100
AcDbTableStyle
  3
Standard
 70
     0
 71
     0
 40
1.5
 41
1.5
280
     0
281
     0
  7
Standard
140
4.5
170
     2
 62
     0
 63
     7
283
     0
 90
      512
 91
        0
  1

274
    -2
284
     1
 64
     0
275
    -2
285
     1
 65
     0
276
    -2
286
     1
 66
     0
277
    -2
287
     1
 67
     0
278
    -2
288
     1
 68
     0
279
    -2
289
     1
 69
     0
  7
Standard
140
6.0
170
     5
 62
     0
 63
     7
283
     0
 90
      512
 91
        0
  1

274
    -2
284
     1
 64
     0
275
    -2
285
     1
 65
     0
276
    -2
286
     1
 66
     0
277
    -2
287
     1
 67
     0
278
    -2
288
     1
 68
     0
279
    -2
289
     1
 69
     0
  7
Standard
140
4.5
170
     5
 62
     0
 63
     7
283
     0
 90
      512
 91
        0
  1

274
    -2
284
     1
 64
     0
275
    -2
285
     1
 65
     0
276
    -2
286
     1
 66
     0
277
    -2
287
     1
 67
     0
278
    -2
288
     1
 68
     0
279
    -2
289
     1
 69
     0
  0
VISUALSTYLE
  5
977
102
{ACAD_REACTORS
330
971
102
}
330
971
100
AcDbVisualStyle
  2
2dWireframe
 70
     4
 71
     0
 72
     2
 73
     0
 90
        0
 40
-0.6
 41
-30.0
 62
     5
 63
     7
421
 16777215
 74
     1
 91
        4
 64
     7
 65
   257
 75
     1
175
     1
 42
1.0
 92
        0
 66
   257
 43
1.0
 76
     1
 77
     6
 78
     2
 67
     7
 79
     5
170
     0
171
     0
290
     0
174
     0
 93
        1
 44
0.0
173
     0
291
     0
 45
0.0
  0
VISUALSTYLE
  5
978
102
{ACAD_REACTORS
330
971
102
}
330
971
100
AcDbVisualStyle
  2
3dWireframe
 70
     5
 71
     0
 72
     2
 73
     0
 90
        0
 40
-0.6
 41
-30.0
 62
     5
 63
     7
421
 16777215
 74
     1
 91
        4
 64
     7
 65
   257
 75
     1
175
     1
 42
1.0
 92
        0
 66
   257
 43
1.0
 76
     1
 77
     6
 78
     2
 67
     7
 79
     5
170
     0
171
     0
290
     0
174
     0
 93
        1
 44
0.0
173
     0
291
     0
 45
0.0
  0
VISUALSTYLE
  5
976
102
{ACAD_REACTORS
330
971
102
}
330
971
100
AcDbVisualStyle
  2
Basic
 70
     7
 71
     1
 72
     0
 73
     1
 90
        0
 40
-0.6
 41
-30.0
 62
     5
 63
     7
421
 16777215
 74
     0
 91
        4
 64
     7
 65
   257
 75
     1
175
     1
 42
1.0
 92
        8
 66
     7
 43
1.0
 76
     1
 77
     6
 78
     2
 67
     7
 79
     5
170
     0
171
     0
290
     0
174
     0
 93
        1
 44
0.0
173
     0
291
     1
 45
0.0
  0
VISUALSTYLE
  5
97D
102
{ACAD_REACTORS
330
971
102
}
330
971
100
AcDbVisualStyle
  2
Brighten
 70
    12
 71
     2
 72
     2
 73
     0
 90
        0
 40
-0.6
 41
-30.0
 62
     5
 63
     7
421
 16777215
 74
     1
 91
        4
 64
     7
 65
   257
 75
     1
175
     1
 42
1.0
 92
        8
 66
     7
 43
1.0
 76
     1
 77
     6
 78
     2
 67
     7
 79
     5
170
     0
171
     0
290
     0
174
     0
 93
        1
 44
50.0
173
     0
291
     1
 45
0.0
  0
VISUALSTYLE
  5
981
102
{ACAD_REACTORS
330
971
102
}
330
971
100
AcDbVisualStyle
  2
ColorChange
 70
    16
 71
     2
 72
     2
 73
     3
 90
        0
 40
-0.6
 41
-30.0
 62
     5
 63
     8
421
  8421504
 74
     1
 91
        4
 64
     7
 65
   257
 75
     1
175
     1
 42
1.0
 92
        8
 66
     8
424
  8421504
 43
1.0
 76
     1
 77
     6
 78
     2
 67
     7
 79
     5
170
     0
171
     0
290
     0
174
     0
 93
        1
 44
0.0
173
     0
291
     1
 45
0.0
  0
VISUALSTYLE
  5
97C
102
{ACAD_REACTORS
330
971
102
}
330
971
100
AcDbVisualStyle
  2
Dim
 70
    11
 71
     2
 72
     2
 73
     0
 90
        0
 40
-0.6
 41
-30.0
 62
     5
 63
     7
421
 16777215
 74
     1
 91
        4
 64
     7
 65
   257
 75
     1
175
     1
 42
1.0
 92
        8
 66
     7
 43
1.0
 76
     1
 77
     6
 78
     2
 67
     7
 79
     5
170
     0
171
     0
290
     0
174
     0
 93
        1
 44
-50.0
173
     0
291
     1
 45
0.0
  0
VISUALSTYLE
  5
980
102
{ACAD_REACTORS
330
971
102
}
330
971
100
AcDbVisualStyle
  2
Facepattern
 70
    15
 71
     2
 72
     2
 73
     0
 90
        0
 40
-0.6
 41
-30.0
 62
     5
 63
     7
421
 16777215
 74
     1
 91
        4
 64
     7
 65
   257
 75
     1
175
     1
 42
1.0
 92
        8
 66
     7
 43
1.0
 76
     1
 77
     6
 78
     2
 67
     7
 79
     5
170
     0
171
     0
290
     0
174
     0
 93
        1
 44
0.0
173
     0
291
     1
 45
0.0
  0
VISUALSTYLE
  5
972
102
{ACAD_REACTORS
330
971
102
}
330
971
100
AcDbVisualStyle
  2
Flat
 70
     0
 71
     2
 72
     1
 73
     1
 90
        2
 40
-0.6
 41
30.0
 62
     5
 63
     7
421
 16777215
 74
     0
 91
        4
 64
     7
 65
   257
 75
     1
175
     1
 42
1.0
 92
        8
 66
     7
 43
1.0
 76
     1
 77
     6
 78
     2
 67
     7
 79
     5
170
     0
171
     0
290
     0
174
     0
 93
       13
 44
0.0
173
     0
291
     1
 45
0.0
  0
VISUALSTYLE
  5
973
102
{ACAD_REACTORS
330
971
102
}
330
971
100
AcDbVisualStyle
  2
FlatWithEdges
 70
     1
 71
     2
 72
     1
 73
     1
 90
        2
 40
-0.6
 41
30.0
 62
     5
 63
     7
421
 16777215
 74
     1
 91
        4
 64
     7
 65
   257
 75
     1
175
     1
 42
1.0
 92
        0
 66
   257
 43
1.0
 76
     1
 77
     6
 78
     2
 67
     7
 79
     5
170
     0
171
     0
290
     0
174
     0
 93
       13
 44
0.0
173
     0
291
     1
 45
0.0
  0
VISUALSTYLE
  5
974
102
{ACAD_REACTORS
330
971
102
}
330
971
100
AcDbVisualStyle
  2
Gouraud
 70
     2
 71
     2
 72
     2
 73
     1
 90
        2
 40
-0.6
 41
30.0
 62
     5
 63
     7
421
 16777215
 74
     0
 91
        4
 64
     7
 65
   257
 75
     1
175
     1
 42
1.0
 92
        0
 66
     7
 43
1.0
 76
     1
 77
     6
 78
     2
 67
     7
 79
     5
170
     0
171
     0
290
     0
174
     0
 93
       13
 44
0.0
173
     0
291
     1
 45
0.0
  0
VISUALSTYLE
  5
975
102
{ACAD_REACTORS
330
971
102
}
330
971
100
AcDbVisualStyle
  2
GouraudWithEdges
 70
     3
 71
     2
 72
     2
 73
     1
 90
        2
 40
-0.6
 41
30.0
 62
     5
 63
     7
421
 16777215
 74
     1
 91
        4
 64
     7
 65
   257
 75
     1
175
     1
 42
1.0
 92
        0
 66
   257
 43
1.0
 76
     1
 77
     6
 78
     2
 67
     7
 79
     5
170
     0
171
     0
290
     0
174
     0
 93
       13
 44
0.0
173
     0
291
     1
 45
0.0
  0
VISUALSTYLE
  5
97F
102
{ACAD_REACTORS
330
971
102
}
330
971
100
AcDbVisualStyle
  2
Linepattern
 70
    14
 71
     2
 72
     2
 73
     0
 90
        0
 40
-0.6
 41
-30.0
 62
     5
 63
     7
421
 16777215
 74
     1
 91
        4
 64
     7
 65
   257
 75
     7
175
     7
 42
1.0
 92
        8
 66
     7
 43
1.0
 76
     1
 77
     6
 78
     2
 67
     7
 79
     5
170
     0
171
     0
290
     0
174
     0
 93
        1
 44
0.0
173
     0
291
     1
 45
0.0
  0
VISUALSTYLE
  5
97B
102
{ACAD_REACTORS
330
971
102
}
330
971
100
AcDbVisualStyle
  2
Realistic
 70
     8
 71
     2
 72
     2
 73
     0
 90
        0
 40
-0.6
 41
-30.0
 62
     5
 63
     7
421
 16777215
 74
     1
 91
        0
 64
     7
 65
   257
 75
     1
175
     1
 42
1.0
 92
        8
 66
     8
424
  7895160
 43
1.0
 76
     1
 77
     6
 78
     2
 67
     7
 79
     5
170
     0
171
     0
290
     0
174
     0
 93
       13
 44
0.0
173
     0
291
     0
 45
0.0
  0
VISUALSTYLE
  5
97E
102
{ACAD_REACTORS
330
971
102
}
330
971
100
AcDbVisualStyle
  2
Thicken
 70
    13
 71
     2
 72
     2
 73
     0
 90
        0
 40
-0.6
 41
-30.0
 62
     5
 63
     7
421
 16777215
 74
     1
 91
        4
 64
     7
 65
   257
 75
     1
175
     1
 42
1.0
 92
       12
 66
     7
 43
1.0
 76
     1
 77
     6
 78
     2
 67
     7
 79
     5
170
     0
171
     0
290
     0
174
     0
 93
        1
 44
0.0
173
     0
291
     1
 45
0.0
  0
DICTIONARYVAR
  5
98F
102
{ACAD_REACTORS
330
98E
102
}
330
98E
100
DictionaryVariables
280
     0
  1
STANDARD
  0
DICTIONARYVAR
  5
1108F
102
{ACAD_REACTORS
330
98E
102
}
330
98E
100
DictionaryVariables
280
     0
  1
4
  0
XRECORD
  5
2C77E
102
{ACAD_REACTORS
330
2C77D
102
}
330
2C77D
100
AcDbXrecord
280
     1
330
31ABF
330
31CAF
330
31CB0
  0
DICTIONARY
  5
31DDF
330
31DD2
100
AcDbDictionary
280
     1
281
     1
  3
ADSK_XREC_LAYOUTTHUMBNAIL
360
31DE0
  0
XRECORD
  5
31DE0
102
{ACAD_REACTORS
330
31DDF
102
}
330
31DDF
100
AcDbXrecord
280
     1
310
28000000B40000007F00000001000800000000004C59000000000000000000000001000000000000FFFFFF0000000000FFFFFF000000000000000000000000000000000000000000000000000000000000000000330000006600000099000000CC000000FF00000000330000333300006633000099330000CC330000FF3300
310
0000660000336600006666000099660000CC660000FF66000000990000339900006699000099990000CC990000FF99000000CC000033CC000066CC000099CC0000CCCC0000FFCC000000FF000033FF000066FF000099FF0000CCFF0000FFFF000000003300330033006600330099003300CC003300FF003300003333003333
310
33006633330099333300CC333300FF33330000663300336633006666330099663300CC663300FF66330000993300339933006699330099993300CC993300FF99330000CC330033CC330066CC330099CC3300CCCC3300FFCC330000FF330033FF330066FF330099FF3300CCFF3300FFFF330000006600330066006600660099
310
006600CC006600FF00660000336600333366006633660099336600CC336600FF33660000666600336666006666660099666600CC666600FF66660000996600339966006699660099996600CC996600FF99660000CC660033CC660066CC660099CC6600CCCC6600FFCC660000FF660033FF660066FF660099FF6600CCFF6600
310
FFFF660000009900330099006600990099009900CC009900FF00990000339900333399006633990099339900CC339900FF33990000669900336699006666990099669900CC669900FF66990000999900339999006699990099999900CC999900FF99990000CC990033CC990066CC990099CC9900CCCC9900FFCC990000FF99
310
0033FF990066FF990099FF9900CCFF9900FFFF99000000CC003300CC006600CC009900CC00CC00CC00FF00CC000033CC003333CC006633CC009933CC00CC33CC00FF33CC000066CC003366CC006666CC009966CC00CC66CC00FF66CC000099CC003399CC006699CC009999CC00CC99CC00FF99CC0000CCCC0033CCCC0066CC
310
CC0099CCCC00CCCCCC00FFCCCC0000FFCC0033FFCC0066FFCC0099FFCC00CCFFCC00FFFFCC000000FF003300FF006600FF009900FF00CC00FF00FF00FF000033FF003333FF006633FF009933FF00CC33FF00FF33FF000066FF003366FF006666FF009966FF00CC66FF00FF66FF000099FF003399FF006699FF009999FF00CC
310
99FF00FF99FF0000CCFF0033CCFF0066CCFF0099CCFF00CCCCFF00FFCCFF0000FFFF0033FFFF0066FFFF0099FFFF00CCFFFF00FFFFFF00000000000D0D0D001A1A1A00282828003535350043434300505050005D5D5D006B6B6B00787878008686860093939300A1A1A100AEAEAE00BBBBBB00C9C9C900D6D6D600E4E4E400
310
F1F1F100FFFFFF0000000000000000000000000000000000000000000000000000000000000000000000000000000000E2E2E2E2E2E2E2E2E2E2E2E2E2E2E2E2E2E2E2E2E2E2E2E2E2E2E2E2E2E2E2E2E2E2E2E2E2E2E2E2E2E2E2E2E2E2E2E2E2E2E2E2E2E2E2E2E2E2E2E2E2E2E2E2E2E2E2E2E2E2E2E2E2E2E2E2E2E2E2
310
E2E2E2E2E2E2E2E2E2E2E2E2E2E2E2E2E2E2E2E2E2E2E2E2E2E2E2E2E2E2E2E2E2E2E2E2E2E2E2E2E2E2E2E2E2E2E2E2E2E2E2E2E2E2E2E2E2E2E2E2E2E2E2E2E2E2E2E2E2E2E2E2E2E2E2E2E2E2E2E2E2E2E2E2E2E2E2E2E2E2E2E2E2E2E2E2E2E2E2E2E2E2F5F5F5F5F5F5F5F5F5F5F5F5F5F5F5F5F5F5F5F5F5F5F5F5F5
310
F5F5F5F5F5F5F5F5F5F5F5F5F5F5F5F5F5F5F5F5F5F5F5F5F5F5F5F5F5F5F5F5F5F5F5F5F5F5F5F5F5F5F5F5F5F5F5F5F5F5F5F5F5F5F5F5F5F5F5F5F5F5F5F5F5F5F5F5F5F5F5F5F5F5F5F5F5F5F5F5F5F5F5F5F5F5F5F5F5F5F5F5F5F5F5F5F5F5F5F5F5F5F5F5F5F5F5F5F5F5F5F5F5F5F5F5F5F5F5F5F5F5F5F5F5F5F5
310
F5F5F5F5F5F5F5F5F5F5F5F5F5F5F5F5F5F5F5F5F5F5F5F5F5F5E2E2F5F5F5F5F5F5F5F5F5F5F5F5F5F5F5F5F5F5F5F5F5F5F5F5F5F5F5F5F5F5F5F5F5F5F5F5F5F5F5F5F5F5F5F5F5F5F5F5F5F5F5F5F5F5F5F5F5F5F5F5F5F5F5F5F5F5F5F5F5F5F5F5F5F5F5F5F5F5F5F5F5F5F5F5F5F5F5F5F5F5F5F5F5F5F5F5F5F5F5
310
F5F5F5F5F5F5F5F5F5F5F5F5F5F5F5F5F5F5F5F5F5F5F5F5F5F5F5F5F5F5F5F5F5F5F5F5F5F5F5F5F5F5F5F5F5F5F5F5F5F5F5F5F5F5F5F5F5F5F5F5F5F5F5F5F5F5F5F5F5F5F5F5F5F5F5F5F5F5F5E2E2F5F5F5F5F5F5F5F5F5F5F5F5F5F5F5F5F5F5F5F5F5F5F5F5F5F5F5F5F5F5F5F5F5F5F5F5F5F5F5F5F5F5F5F5F5F5
310
F5F5F5F5F5F5F5F5F5F5F5F5F5F5F5F5F5F5F5F5F5F5F5F5F5F5F5F5F5F5F5F5F5F5F5F5F5F5F5F5F5F5F5F5F5F5F5F5F5F5F5F5F5F5F5F5F5F5F5F5F5F5F5F5F5F5F5F5F5F5F5F5F5F5F5F5F5F5F5F5F5F5F5F5F5F5F5F5F5F5F5F5F5F5F5F5F5F5F5F5F5F5F5F5F5F5F5F5F5F5F5F5F5F5F5F5F5F5F5F5F5F5F5F5F5F5F5
310
F5F5F5F5F5E2E2F5F5F5F5F5F5F5F5F5F5F5F5F5F5F5F5F5F5F5F5F5F5F5F5F5F5F5F5F5F5F5F5F5F5F5F5F5F5F5F5F5F5F5F5F5F5F5F5F5F5F5F5F5F5F5F5F5F5F5F5F5F5F5F5F5F5F5F5F5F5F5F5F5F5F5F5F5F5F5F5F5F5F5F5F5F5F5F5F5F5F5F5F5F5F5F5F5F5F5F5F5F5F5F5F5F5F5F5F5F5F5F5F5F5F5F5F5F5F5F5
310
F5F5F5F5F5F5F5F5F5F5F5F5F5F5F5F5F5F5F5F5F5F5F5F5F5F5F5F5F5F5F5F5F5F5F5F5F5F5F5F5F5F5F5F5F5F5F5F5F5F5F5F5F5F5F5F5F5F5E2E2F5F5F5F5F5F5F5F5F5F5F5E2E2E2E2E2E2E2E2E2F5F5F5F5F5F5F5F5F5E2E2E2E2E2E2E2E2E2E2E2E2E2E2E2E2E2F5F5F5F5F5F5F5F5F5E2E2E2E2E2E2E2E2E2E2E2E2
310
E2E2E2E2F5F5F5F5F5F5F5F5F5F5E2E2E2E2E2E2E2E2E2E2E2E2E2E2E2E2F5F5F5F5F5F5F5F5F5F5E2E2E2E2E2E2E2E2E2E2E2E2E2E2E2E2F5F5F5F5F5F5F5F5F5E2E2E2E2E2E2E2E2E2E2E2E2E2E2E2E2E2F5F5F5F5F5F5F5F5F5E2E2E2E2E2E2E2E2E2F5F5F5F5F5F5F5F5F5F5F5E2E2F5F5F5F5F5F5F5F5F5F5F5E2F5F5
310
F5F5F5F5F5F5F5F5F5F5F5F5F5F5F5F5F5F5F5F5F5F5F5F5F5F5F5F5F5F5F5F5F5F5F5F5F5F5F5F5F5F5F5F5F5F5F5F5F5F5F5F5F5F5F5F5F5F5F5F5F5F5F5F5F5F5F5F5F5F5F5F5F5F5F5F5F5F5F5F5F5F5F5F5F5F5F5F5F5F5F5F5F5F5F5F5F5F5F5F5F5F5F5F5F5F5F5F5F5F5F5F5F5F5F5F5F5F5F5F5F5F5F5F5F5F5F5
310
F5F5F5F5F5F5F5F5F5F5F5F5F5F5F5F5F5F5F5F5F5F5F5F5F5E2F5F5F5F5F5F5F5F5F5F5F5E2E2F5F5F5F5F5F5F5F5F5F5F5E2F5F5F5F5F5F5F5F5F5F5F5F5F5F5F5F5F5F5F5F5F5F5F5F5F5F5F5F5F5F5F5F5F5F5F5F5F5F5F5F5F5F5F5F5F5F5F5F5F5F5F5F5F5F5F5F5F5F5F5F5F5F5F5F5F5F5F5F5F5F5F5F5F5F5F5F5
310
F5F5F5F5F5F5F5F5F5F5F5F5F5F5F5F5F5F5F5F5F5F5F5F5F5F5F5F5F5F5F5F5F5F5F5F5F5F5F5F5F5F5F5F5F5F5F5F5F5F5F5F5F5F5F5F5F5F5F5F5F5F5F5F5F5F5F5F5F5F5F5F5F5F5F5F5F5F5E2F5F5F5F5F5F5F5F5F5F5F5E2E2F5F5F5F5F5F5F5F5F5F5F5E2F5F5F5F5F5F5F5F5F5F5F5F5F5F5F5F5F5F5F5F5F5F5F5
310
F5F5F5F5F5F5F5F5F5F5F5F5F5F5F5F5F5F5F5F5F5F5F5F5F5F5F5F5F5F5F5F5F5F5F5F5F5F5F5F5F5F5F5F5F5F5F5F5F5F5F5F5F5F5F5F5F5F5F5F5F5F5F5F5F5F5F5F5F5F5F5F5F5F5F5F5F5F5F5F5F5F5F5F5F5F5F5F5F5F5F5F5F5F5F5F5F5F5F5F5F5F5F5F5F5F5F5F5F5F5F5F5F5F5F5F5F5F5F5F5F5F5F5F5F5F5F5
310
F5F5F5F5E2F5F5F5F5F5F5F5F5F5F5F5E2E2F5F5F5F5F5F5F5F5F5F5F5E2F5F5F5F5F5F5F5F5F5F5F5F5F5F5F5F5F5F5F5F5F5F5F5F5F5F5F5F5F5F5F5F5F5F5F5F5F5F5F5F5F5F5F5F5F5F5F5F5F5F5F5F5F5F5F5F5F5F5F5F5F5F5F5F5F5F5F5F5F5F5F5F5F5F5F5F5F5F5F5F5F5F5F5F5F5F5F5F5F5F5F5F5F5F5F5F5F5
310
F5F5F5F5F5F5F5F5F5F5F5F5F5F5F5F5F5F5F5F5F5F5F5F5F5F5F5F5F5F5F5F5F5F5F5F5F5F5F5F5F5F5F5F5F5F5F5F5F5F5F5F5F5F5F5F5F5E2F5F5F5F5F5F5F5F5F5F5F5E2E2F5F5F5F5F5F5F5F5F5F5F5E2F5F5F5F5F5F5F5F5F5F5F5F5F5F5F5F5F5F5F5F5F5F5F5F5F5F5F5F5F5F5F5F5F5F5F5F5F5F5F5F5F5F5F5F5
310
F5F5F5F5F5F5F5F5F5F5F5F5F5F5F5F5F5F5F5F5F5F5F5F5F5F5F5F5F5F5F5F5F5F5F5F5F5F5F5F5F5F5F5F5F5F5F5F5F5F5F5F5F5F5F5F5F5F5F5F5F5F5F5F5F5F5F5F5F5F5F5F5F5F5F5F5F5F5F5F5F5F5F5F5F5F5F5F5F5F5F5F5F5F5F5F5F5F5F5F5F5F5F5F5F5F5F5F5F5F5E2F5F5F5F5F5F5F5F5F5F5F5E2E2F5F5F5
310
F5F5F5F5F5F5F5F5E2F5F5F5F5F5F5F5F5F5F5F5F5F5F5F5F5F5F5F5F5F5F5F5F5F5F5F5F5F5F5F5F5F5F5F5F5F5F5F5F5F5F5F5F5F5F5F5F5F5F5F5F5F5F5F5F5F5F5F5F5F5F5F5F5F5F5F5F5F5F5F5F5F5F5F5F5F5F5F5F5F5F5F5F5F5F5F5F5F5F5F5F5F5F5F5F5F5F5F5F5F5F5F5F5F5F5F5F5F5F5F5F5F5F5F5F5F5F5
310
F5F5F5F5F5F5F5F5F5F5F5F5F5F5F5F5F5F5F5F5F5F5F5F5F5F5F5F5F5F5F5F5F5F5F5F5E2F5F5F5F5F5F5F5F5F5F5F5E2E2F5F5F5F5F5F5F5F5F5F5F5E2F5F5F5F5F5F5F5F5F5F5F5F5F5F5F5F5F5F5F5F5F5F5F5F5F5F5F5F5F5F5F5F5F5F5F5F5F5F5F5F5F5F5F5F5F5F5F5F5F5F5F5F5F5F5F5F5F5F5F5F5F5F5F5F5F5
310
F5F5F5F5F5F5F5F5F5F5F5F5F5F5F5F5F5F5F5F5F5F5F5F5F5F5F5F5F5F5F5F5F5F5F5F5F5F5F5F5F5F5F5F5F5F5F5F5F5F5F5F5F5F5F5F5F5F5F5F5F5F5F5F5F5F5F5F5F5F5F5F5F5F5F5F5F5F5F5F5F5F5F5F5F5F5F5F5F5E2F5F5F5F5F5F5F5F5F5F5F5E2E2F5F5F5F5F5F5F5F5F5F5F5F5F5F5F5F5F5F5F5F5F5F5F5F5
310
F5F5F5F5F5F5F5F5F5F5F5F5F5F5F5F5F5F5F5F5F5F5F5F5F5F5F5F5F5F5F5F5F5F5F5F5F5F5F5F5F5F5F5F5F5F5F5F5F5F5F5F5F5F5F5F5F5F5F5F5F5F5F5F5F5F5F5F5F5F5F5F5F5F5F5F5F5F5F5F5F5F5F5F5F5F5F5F5F5F5F5F5F5F5F5F5F5F5F5F5F5F5F5F5F5F5F5F5F5F5F5F5F5F5F5F5F5F5F5F5F5F5F5F5F5F5F5
310
F5F5F5F5F5F5F5F5F5F5F5F5F5F5F5F5F5F5F5F5F5F5F5F5F5F5F5E2E2F5F5F5F5F5F5F5F5F5F5F5F5F5F5F5F5F5F5F5F5F5F5F5F5F5F5F5F5F5F5F5F5F5F5F5F5F5F5F5F5F5F5F5F5F5F5F5F5F5F5F5F5F5F5F5F5F5F5F5F5F5F5F5F5F5F5F5F5F5F5F5F5F5F5F5F5F5F5F5F5F5F5F5F5F5F5F5F5F5F5F5F5F5F5F5F5F5F5
310
F5F5F5F5F5F5F5F5F5F5F5F5F5F5F5F5F5F5F5F5F5F5F5F5F5F5F5F5F5F5F5F5F5F5F5F5F5F5F5F5F5F5F5F5F5F5F5F5F5F5F5F5F5F5F5F5F5F5F5F5F5F5F5F5F5F5F5F5F5F5F5F5F5F5F5F5F5F5F5F5E2E2F5F5F5F5F5F5F5F5F5F5F5F5F5F5F5F5F5F5F5F5F5F5F5F5F5F5F5F5F5F5F5F5F5F5F5F5F5F5F5F5F5F5F5F5F5
310
F5F5F5F5F5F5F5F5F5F5F5F5F5F5F5F5F5F5F5F5F5F5F5F5F5F5F5F5F5F5F5F5F5F5F5F5F5F5F5F5F5F5F5F5F5F5F5F5F5F5F5F5F5F5F5F5F5F5F5F5F5F5F5F5F5F5F5F5F5F5F5F5F5F5F5F5F5F5F5F5F5F5F5F5F5F5F5F5F5F5F5F5F5F5F5F5F5F5F5F5F5F5F5F5F5F5F5F5F5F5F5F5F5F5F5F5F5F5F5F5F5F5F5F5F5F5F5
310
F5F5F5F5F5F5E2E2F5F5F5F5F5F5F5F5F5F5F5F5F5F5F5F5F5F5F5F5F5F5F5F5F5F5F5F5F5F5F5F5F5F5F5F5F5F5F5F5F5F5F5F5F5F5F5F5F5F5F5F5F5F5F5F5F5F5F5F5F5F5F5F5F5F5F5F5F5F5F5F5F5F5F5F5F5F5F5F5F5F5F5F5F5F5F5F5F5F5F5F5F5F5F5F5F5F5F5F5F5F5F5F5F5F5F5F5F5F5F5F5F5F5F5F5F5F5F5
310
F5F5F5F5F5F5F5F5F5F5F5F5F5F5F5F5F5F5F5F5F5F5F5F5F5F5F5F5F5F5F5F5F5F5F5F5F5F5F5F5F5F5F5F5F5F5F5F5F5F5F5F5F5F5F5F5F5F5F5E2E2F5F5F5F5F5F5F5F5F5F5F5F5F5F5F5F5F5F5F5F5F5F5F5F5F5F5F5F5F5F5F5F5F5F5F5F5F5F5F5F5F5F5F5F5F5F5F5F5F5F5F5F5F5F5F5F5F5F5F5F5F5F5F5F5F5F5
310
F5F5F5F5F5F5F5F5F5F5F5F5F5F5F5F5F5F5F5F5F5F5F5F5F5F5F5F5F5F5F5F5F5F5F5F5F5F5F5F5F5F5F5F5F5F5F5F5F5F5F5F5F5F5F5F5F5F5F5F5F5F5F5F5F5F5F5F5F5F5F5F5F5F5F5F5F5F5F5F5F5F5F5F5F5F5F5F5F5F5F5F5F5F5F5F5F5F5F5F5F5F5F5F5F5F5F5F5F5F5F5F5E2E2F5F5F5F5F5F5F5F5F5F5F5F5F5
310
F5F5F5F5F5F5F5F5F5F5F5F5F5F5F5F5F5F5F5F5F5F5F5F5F5F5F5F5F5F5F5F5F5F5F5F5F5F5F5F5F5F5F5F5F5F5F5F5F5F5F5F5F5F5F5F5F5F5F5F5F5F5F5F5F5F5F5F5F5F5F5F5F5F5F5F5F5F5F5F5F5F5F5F5F5F5F5F5F5F5F5F5F5F5F5F5F5F5F5F5F5F5F5F5F5F5F5F5F5F5F5F5F5F5F5F5F5F5F5F5F5F5F5F5F5F5F5
310
F5F5F5F5F5F5F5F5F5F5F5F5F5F5F5F5F5F5F5F5F5F5F5F5F5F5F5F5F5F5F5F5F5F5F5F5F5F5E2E2F5F5F5F5F5F5F5F5F5F5F5F5F5F5F5F5F5F5F5F5F5F5F5F5F5F5F5F5F5F5F5F5F5F5F5F5F5F5F5F5F5F5F5F5F5F5F5F5F5F5F5F5F5F5F5F5F5F5F5F5F5F5F5F5F5F5F5F5F5F5F5F5F5F5F5F5F5F5F5F5F5F5F5F5F5F5F5
310
F5F5F5F5F5F5F5F5F5F5F5F5F5F5F5F5F5F5F5F5F5F5F5F5F5F5F5F5F5F5F5F5F5F5F5F5F5F5F5F5F5F5F5F5F5F5F5F5F5F5F5F5F5F5F5F5F5F5F5F5F5F5F5F5F5F5F5F5F5F5F5F5F5F5F5F5F5F5F5F5F5F5F5F5F5F5F5F5F5F5F5E2E2F5F5F5F5F5F5F5F5F5F5F5F5F5F5F5F5F5F5F5F5F5F5F5F5F5F5F5F5F5F5F5F5F5F5
310
F5F5F5F5F5F5F5F5F5F5F5F5F5F5F5F5F5F5F5F5F5F5F5F5F5F5F5F5F5F5F5F5F5F5F5F5F5F5F5F5F5F5F5F5F5F5F5F5F5F5F5F5F5F5F5F5F5F5F5F5F5F5F5F5F5F5F5F5F5F5F5F5F5F5F5F5F5F5F5F5F5F5F5F5F5F5F5F5F5F5F5F5F5F5F5F5F5F5F5F5F5F5F5F5F5F5F5F5F5F5F5F5F5F5F5F5F5F5F5F5F5F5F5F5F5F5F5
310
F5F5F5F5F5F5F5F5F5F5F5F5F5F5F5F5F5E2E2F5F5F5F5F5F5F5F5F5F5F5E2F5F5F5F5F5F5F5F5F5F5F5F5F5F5F5F5F5F5F5F5F5F5F5F5F5F5F5F5F5F5F5F5F5F5F5F5F5F5F5F5F5F5F5F5F5F5F5F5F5F5F5F5F5F5F5F5F5F5F5F5F5F5F5F5F5F5F5F5F5F5F5F5F5F5F5F5F5F5F5F5F5F5F5F5F5F5F5F5F5F5F5F5F5F5F5F5
310
F5F5F5F5F5F5F5F5F5F5F5F5F5F5F5F5F5F5F5F5F5F5F5F5F5F5F5F5F5F5F5F5F5F5F5F5F5F5F5F5F5F5F5F5F5F5F5F5F5F5F5F5F5F5F5F5F5F5E2F5F5F5F5F5F5F5F5F5F5F5E2E2F5F5F5F5F5F5F5F5F5F5F5E2F5F5F5F5F5F5F5F5F5F5F5F5F5F5F5F5F5F5F5F5F5F5F5F5F5F5F5F5F5F5F5F5F5F5F5F5F5F5F5F5F5F5F5
310
F5F5F5F5F5F5F5F5F5F5F5F5F5F5F5F5F5F5F5F5F5F5F5F5F5F5F5F5F5F5F5F5F5F5F5F5F5F5F5F5F5F5F5F5F5F5F5F5F5F5F5F5F5F5F5F5F5F5F5F5F5F5F5F5F5F5F5F5F5F5F5F5F5F5F5F5F5F5F5F5F5F5F5F5F5F5F5F5F5F5F5F5F5F5F5F5F5F5F5F5F5F5F5F5F5F5F5F5F5F5F5E2F5F5F5F5F5F5F5F5F5F5F5E2E2F5F5
310
F5F5F5F5F5F5F5F5F5E2F5F5F5F5F5F5F5F5F5F5F5F5F5F5F5F5F5F5F5F5F5F5F5F5F5F5F5F5F5F5F5F5F5F5F5F5F5F5F5F5F5F5F5F5F5F5F5F5F5F5F5F5F5F5F5F5F5F5F5F5F5F5F5F5F5F5F5F5F5F5F5F5F5F5F5F5F5F5F5F5F5F5F5F5F5F5F5F5F5F5F5F5F5F5F5F5F5F5F5F5F5F5F5F5F5F5F5F5F5F5F5F5F5F5F5F5F5
310
F5F5F5F5F5F5F5F5F5F5F5F5F5F5F5F5F5F5F5F5F5F5F5F5F5F5F5F5F5F5F5F5F5F5F5F5F5E2F5F5F5F5F5F5F5F5F5F5F5E2E2F5F5F5F5F5F5F5F5F5F5F5E2F5F5F5F5F5F5F5F5F5F5F5F5F5F5F5F5F5F5F5F5F5F5F5F5F5F5F5F5F5F5F5F5F5F5F5F5F5F5F5F5F5F5F5F5F5F5F5F5F5F5F5F5F5F5F5F5F5F5F5F5F5F5F5F5
310
F5F5F5F5F5F5F5F5F5F5F5F5F5F5F5F5F5F5F5F5F5F5F5F5F5F5F5F5F5F5F5F5F5F5F5F5F5F5F5F5F5F5F5F5F5F5F5F5F5F5F5F5F5F5F5F5F5F5F5F5F5F5F5F5F5F5F5F5F5F5F5F5F5F5F5F5F5F5F5F5F5F5F5F5F5F5F5F5F5F5E2F5F5F5F5F5F5F5F5F5F5F5E2E2F5F5F5F5F5F5F5F5F5F5F5E2F5F5F5F5F5F5F5F5F5F5F5
310
F5F5F5F5F5F5F5F5F5F5F5F5F5F5F5F5F5F5F5F5F5F5F5F5F5F5F5F5F5F5F5F5F5F5F5F5F5F5F5F5F5F5F5F5F5F5F5F5F5F5F5F5F5F5F5F5F5F5F5F5F5F5F5F5F5F5F5F5F5F5F5F5F5F5F5F5F5F5F5F5F5F5F5F5F5F5F5F5F5F5F5F5F5F5F5F5F5F5F5F5F5F5F5F5F5F5F5F5F5F5F5F5F5F5F5F5F5F5F5F5F5F5F5F5F5F5F5
310
F5F5F5F5F5F5F5F5F5F5F5F5F5F5F5F5E2F5F5F5F5F5F5F5F5F5F5F5E2E2F5F5F5F5F5F5F5F5F5F5F5E2F5F5F5F5F5F5F5F5F5F5F5F5F5F5F5F5F5F5F5F5F5F5F5F5F5F5F5F5F5F5F5F5F5F5F5F5F5F5F5F5F5F5F5F5F5F5F5F5F5F5F5F5F5F5F5F5F5F5F5F5F5F5F5F5F5F5F5F5F5F5F5F5F5F5F5F5F5F5F5F5F5F5F5F5F5
310
F5F5F5F5F5F5F5F5F5F5F5F5F5F5F5F5F5F5F5F5F5F5F5F5F5F5F5F5F5F5F5F5F5F5F5F5F5F5F5F5F5F5F5F5F5F5F5F5F5F5F5F5F5F5F5F5F5F5F5F5F5F5F5F5F5F5F5F5F5E2F5F5F5F5F5F5F5F5F5F5F5E2E2F5F5F5F5F5F5F5F5F5F5F5E2F5F5F5F5F5F5F5F5F5F5F5F5F5F5F5F5F5F5F5F5F5F5F5F5F5F5F5F5F5F5F5F5
310
F5F5F5F5F5F5F5F5F5F5F5F5F5F5F5F5F5F5F5F5F5F5F5F5F5F5F5F5F5F5F5F5F5F5F5F5F5F5F5F5F5F5F5F5F5F5F5F5F5F5F5F5F5F5F5F5F5F5F5F5F5F5F5F5F5F5F5F5F5F5F5F5F5F5F5F5F5F5F5F5F5F5F5F5F5F5F5F5F5F5F5F5F5F5F5F5F5F5F5F5F5F5F5F5F5F5F5F5F5F5F5F5F5F5F5F5F5F5F5F5F5F5E2F5F5F5F5
310
F5F5F5F5F5F5F5E2E2F5F5F5F5F5F5F5F5F5F5F5E2F5F5F5F5F5F5F5F5F5F5F5F5F5F5F5F5F5F5F5F5F5F5F5F5F5F5F5F5F5F5F5F5F5F5F5F5F5F5F5F5F5F5F5F5F5F5F5F5F5F5F5F5F5F5F5F5F5F5F5F5F5F5F5F5F5F5F5F5F5F5F5F5F5F5F5F5F5F5F5F5F5F5F5F5F5F5F5F5F5F5F5F5F5F5F5F5F5F5F5F5F5F5F5F5F5F5
310
F5F5F5F5F5F5F5F5F5F5F5F5F5F5F5F5F5F5F5F5F5F5F5F5F5F5F5F5F5F5F5F5F5F5F5F5F5F5F5F5F5F5F5F5F5F5F5F5E2F5F5F5F5F5F5F5F5F5F5F5E2E2F5F5F5F5F5F5F5F5F5F5F5E2F5F5F5F5F5F5F5F5F5F5F5F5F5F5F5F5F5F5F5F5F5F5F5F5F5F5F5F5F5F5F5F5F5F5F5F5F5F5F5F5F5F5F5F5F5F5F5F5F5F5F5F5F5
310
F5F5F5F5F5F5F5F5F5F5F5F5F5F5F5F5F5F5F5F5F5F5F5F5F5F5F5F5F5F5F5F5F5F5F5F5F5F5F5F5F5F5F5F5F5F5F5F5F5F5F5F5F5F5F5F5F5F5F5F5F5F5F5F5F5F5F5F5F5F5F5F5F5F5F5F5F5F5F5F5F5F5F5F5F5F5F5F5F5F5F5F5F5F5F5F5F5F5F5F5F5E2F5F5F5F5F5F5F5F5F5F5F5E2E2F5F5F5F5F5F5F5F5F5F5F5E2
310
F5F5F5F5F5F5F5F5F5F5F5F5F5F5F5F5F5F5F5F5F5F5F5F5F5F5F5F5F5F5F5F5F5F5F5F5F5F5F5F5F5F5F5F5F5F5F5F5F5F5F5F5F5F5F5F5F5F5F5F5F5F5F5F5F5F5F5F5F5F5F5F5F5F5F5F5F5F5F5F5F5F5F5F5F5F5F5F5F5F5F5F5F5F5F5F5F5F5F5F5F5F5F5F5F5F5F5F5F5F5F5F5F5F5F5F5F5F5F5F5F5F5F5F5F5F5F5
310
F5F5F5F5F5F5F5F5F5F5F5F5F5F5F5F5F5F5F5F5F5F5F5F5F5F5F5E2F5F5F5F5F5F5F5F5F5F5F5E2E2F5F5F5F5F5F5F5F5F5F5F5E2F5F5F5F5F5F5F5F5F5F5F5F5F5F5F5F5F5F5F5F5F5F5F5F5F5F5F5F5F5F5F5F5F5F5F5F5F5F5F5F5F5F5F5F5F5F5F5F5F5F5F5F5F5F5F5F5F5F5F5F5F5F5F5F5F5F5F5F5F5F5F5F5F5F5
310
F5F5F5F5F5F5F5F5F5F5F5F5F5F5F5F5F5F5F5F5F5F5F5F5F5F5F5F5F5F5F5F5F5F5F5F5F5F5F5F5F5F5F5F5F5F5F5F5F5F5F5F5F5F5F5F5F5F5F5F5F5F5F5F5F5F5F5F5F5F5F5F5F5F5F5F5F5F5F5F5E2F5F5F5F5F5F5F5F5F5F5F5E2E2F5F5F5F5F5F5F5F5F5F5F5E2F5F5F5F5F5F5F5F5F5F5F5F5F5F5F5F5F5F5F5F5F5
310
F5F5F5F5F5F5F5F5F5F5F5F5F5F5F5F5F5F5F5F5F5F5F5F5F5F5F5F5F5F5F5F5F5F5F5F5F5F5F5F5F5F5F5F5F5F5F5F5F5F5F5F5F5F5F5F5F5F5F5F5F5F5F5F5F5F5F5F5F5F5F5F5F5F5F5F5F5F5F5F5F5F5F5F5F5F5F5F5F5F5F5F5F5F5F5F5F5F5F5F5F5F5F5F5F5F5F5F5F5F5F5F5F5F5F5F5F5F5F5F5F5F5F5F5F5F5F5
310
F5F5F5F5F5F5E2F5F5F5F5F5F5F5F5F5F5F5E2E2F5F5F5F5F5F5F5F5F5F5F5E2F5F5F5F5F5F5F5F5F5F5F5F5F5F5F5F5F5F5F5F5F5F5F5F5F5F5F5F5F5F5F5F5F5F5F5F5F5F5F5F5F5F5F5F5F5F5F5F5F5F5F5F5F5F5F5F5F5F5F5F5F5F5F5F5F5F5F5F5F5F5F5F5F5F5F5F5F5F5F5F5F5F5F5F5F5F5F5F5F5F5F5F5F5F5F5
310
F5F5F5F5F5F5F5F5F5F5F5F5F5F5F5F5F5F5F5F5F5F5F5F5F5F5F5F5F5F5F5F5F5F5F5F5F5F5F5F5F5F5F5F5F5F5F5F5F5F5F5F5F5F5F5F5F5F5F5E2F5F5F5F5F5F5F5F5F5F5F5E2E2F5F5F5F5F5F5F5F5F5F5F5E2F5F5F5F5F5F5F5F5F5F5F5F5F5F5F5F5F5F5F5F5F5F5F5F5F5F5F5F5F5F5F5F5F5F5F5F5F5F5F5F5F5F5
310
F5F5F5F5F5F5F5F5F5F5F5F5F5F5F5F5F5F5F5F5F5F5F5F5F5F5F5F5F5F5F5F5F5F5F5F5F5F5F5F5F5F5F5F5F5F5F5F5F5F5F5F5F5F5F5F5F5F5F5F5F5F5F5F5F5F5F5F5F5F5F5F5F5F5F5F5F5F5F5F5F5F5F5F5F5F5F5F5F5F5F5F5F5F5F5F5F5F5F5F5F5F5F5F5F5F5F5F5F5F5F5F5E2F5F5F5F5F5F5F5F5F5F5F5E2E2F5
310
F5F5F5F5F5F5F5F5F5F5E2F5F5F5F5F5F5F5F5F5F5F5F5F5F5F5F5F5F5F5F5F5F5F5F5F5F5F5F5F5F5F5F5F5F5F5F5F5F5F5F5F5F5F5F5F5F5F5F5F5F5F5F5F5F5F5F5F5F5F5F5F5F5F5F5F5F5F5F5F5F5F5F5F5F5F5F5F5F5F5F5F5F5F5F5F5F5F5F5F5F5F5F5F5F5F5F5F5F5F5F5F5F5F5F5F5F5F5F5F5F5F5F5F5F5F5F5
310
F5F5F5F5F5F5F5F5F5F5F5F5F5F5F5F5F5F5F5F5F5F5F5F5F5F5F5F5F5F5F5F5F5F5F5F5F5F5E2F5F5F5F5F5F5F5F5F5F5F5E2E2F5F5F5F5F5F5F5F5F5F5F5F5F5F5F5F5F5F5F5F5F5F5F5F5F5F5F5F5F5F5F5F5F5F5F5F5F5F5F5F5F5F5F5F5F5F5F5F5F5F5F5F5F5F5F5F5F5F5F5F5F5F5F5F5F5F5F5F5F5F5F5F5F5F5F5
310
F5F5F5F5F5F5F5F5F5F5F5F5F5F5F5F5F5F5F5F5F5F5F5F5F5F5F5F5F5F5F5F5F5F5F5F5F5F5F5F5F5F5F5F5F5F5F5F5F5F5F5F5F5F5F5F5F5F5F5F5F5F5F5F5F5F5F5F5F5F5F5F5F5F5F5F5F5F5F5F5F5F5F5F5F5F5F5F5F5F5F5F5F5F5F5F5F5F5F5F5F5F5F5E2E2F5F5F5F5F5F5F5F5F5F5F5F5F5F5F5F5F5F5F5F5F5F5
310
F5F5F5F5F5F5F5F5F5F5F5F5F5F5F5F5F5F5F5F5F5F5F5F5F5F5F5F5F5F5F5F5F5F5F5F5F5F5F5F5F5F5F5F5F5F5F5F5F5F5F5F5F5F5F5F5F5F5F5F5F5F5F5F5F5F5F5F5F5F5F5F5F5F5F5F5F5F5F5F5F5F5F5F5F5F5F5F5F5F5F5F5F5F5F5F5F5F5F5F5F5F5F5F5F5F5F5F5F5F5F5F5F5F5F5F5F5F5F5F5F5F5F5F5F5F5F5
310
F5F5F5F5F5F5F5F5F5F5F5F5F5F5F5F5F5F5F5F5F5F5F5F5F5F5F5F5F5E2E2F5F5F5F5F5F5F5F5F5F5F5F5F5F5F5F5F5F5F5F5F5F5F5F5F5F5F5F5F5F5F5F5F5F5F5F5F5F5F5F5F5F5F5F5F5F5F5F5F5F5F5F5F5F5F5F5F5F5F5F5F5F5F5F5F5F5F5F5F5F5F5F5F5F5F5F5F5F5F5F5F5F5F5F5F5F5F5F5F5F5F5F5F5F5F5F5
310
F5F5F5F5F5F5F5F5F5F5F5F5F5F5F5F5F5F5F5F5F5F5F5F5F5F5F5F5F5F5F5F5F5F5F5F5F5F5F5F5F5F5F5F5F5F5F5F5F5F5F5F5F5F5F5F5F5F5F5F5F5F5F5F5F5F5F5F5F5F5F5F5F5F5F5F5F5F5F5F5F5F5E2E2F5F5F5F5F5F5F5F5F5F5F5F5F5F5F5F5F5F5F5F5F5F5F5F5F5F5F5F5F5F5F5F5F5F5F5F5F5F5F5F5F5F5F5
310
F5F5F5F5F5F5F5F5F5F5F5F5F5F5F5F5F5F5F5F5F5F5F5F5F5F5F5F5F5F5F5F5F5F5F5F5F5F5F5F5F5F5F5F5F5F5F5F5F5F5F5F5F5F5F5F5F5F5F5F5F5F5F5F5F5F5F5F5F5F5F5F5F5F5F5F5F5F5F5F5F5F5F5F5F5F5F5F5F5F5F5F5F5F5F5F5F5F5F5F5F5F5F5F5F5F5F5F5F5F5F5F5F5F5F5F5F5F5F5F5F5F5F5F5F5F5F5
310
F5F5F5F5F5F5F5F5E2E2F5F5F5F5F5F5F5F5F5F5F5F5F5F5F5F5F5F5F5F5F5F5F5F5F5F5F5F5F5F5F5F5F5F5F5F5F5F5F5F5F5F5F5F5F5F5F5F5F5F5F5F5F5F5F5F5F5F5F5F5F5F5F5F5F5F5F5F5F5F5F5F5F5F5F5F5F5F5F5F5F5F5F5F5F5F5F5F5F5F5F5F5F5F5F5F5F5F5F5F5F5F5F5F5F5F5F5F5F5F5F5F5F5F5F5F5F5
310
F5F5F5F5F5F5F5F5F5F5F5F5F5F5F5F5F5F5F5F5F5F5F5F5F5F5F5F5F5F5F5F5F5F5F5F5F5F5F5F5F5F5F5F5F5F5F5F5F5F5F5F5F5F5F5F5F5F5F5F5F5E2E2F5F5F5F5F5F5F5F5F5F5F5F5F5F5F5F5F5F5F5F5F5F5F5F5F5F5F5F5F5F5F5F5F5F5F5F5F5F5F5F5F5F5F5F5F5F5F5F5F5F5F5F5F5F5F5F5F5F5F5F5F5F5F5F5
310
F5F5F5F5F5F5F5F5F5F5F5F5F5F5F5F5F5F5F5F5F5F5F5F5F5F5F5F5F5F5F5F5F5F5F5F5F5F5F5F5F5F5F5F5F5F5F5F5F5F5F5F5F5F5F5F5F5F5F5F5F5F5F5F5F5F5F5F5F5F5F5F5F5F5F5F5F5F5F5F5F5F5F5F5F5F5F5F5F5F5F5F5F5F5F5F5F5F5F5F5F5F5F5F5F5F5F5F5F5F5F5F5F5F5E2E2F5F5F5F5F5F5F5F5F5F5F5
310
F5F5F5F5F5F5F5F5F5F5F5F5F5F5F5F5F5F5F5F5F5F5F5F5F5F5F5F5F5F5F5F5F5F5F5F5F5F5F5F5F5F5F5F5F5F5F5F5F5F5F5F5F5F5F5F5F5F5F5F5F5F5F5F5F5F5F5F5F5F5F5F5F5F5F5F5F5F5F5F5F5F5F5F5F5F5F5F5F5F5F5F5F5F5F5F5F5F5F5F5F5F5F5F5F5F5F5F5F5F5F5F5F5F5F5F5F5F5F5F5F5F5F5F5F5F5F5
310
F5F5F5F5F5F5F5F5F5F5F5F5F5F5F5F5F5F5F5F5F5F5F5F5F5F5F5F5F5F5F5F5F5F5F5F5F5F5F5F5E2E2F5F5F5F5F5F5F5F5F5F5F5F5F5F5F5F5F5F5F5F5F5F5F5F5F5F5F5F5F5F5F5F5F5F5F5F5F5F5F5F5F5F5F5F5F5F5F5F5F5F5F5F5F5F5F5F5F5F5F5F5F5F5F5F5F5F5F5F5F5F5F5F5F5F5F5F5F5F5F5F5F5F5F5F5F5
310
F5F5F5F5F5F5F5F5F5F5F5F5F5F5F5F5F5F5F5F5F5F5F5F5F5F5F5F5F5F5F5F5F5F5F5F5F5F5F5F5F5F5F5F5F5F5F5F5F5F5F5F5F5F5F5F5F5F5F5F5F5F5F5F5F5F5F5F5F5F5F5F5F5F5F5F5F5F5F5F5F5F5F5F5F5F5F5F5F5F5F5F5F5E2E2F5F5F5F5F5F5F5F5F5F5F5E2F5F5F5F5F5F5F5F5F5F5F5F5F5F5F5F5F5F5F5F5
310
F5F5F5F5F5F5F5F5F5F5F5F5F5F5F5F5F5F5F5F5F5F5F5F5F5F5F5F5F5F5F5F5F5F5F5F5F5F5F5F5F5F5F5F5F5F5F5F5F5F5F5F5F5F5F5F5F5F5F5F5F5F5F5F5F5F5F5F5F5F5F5F5F5F5F5F5F5F5F5F5F5F5F5F5F5F5F5F5F5F5F5F5F5F5F5F5F5F5F5F5F5F5F5F5F5F5F5F5F5F5F5F5F5F5F5F5F5F5F5F5F5F5F5F5F5F5F5
310
F5F5F5F5F5F5F5E2F5F5F5F5F5F5F5F5F5F5F5E2E2F5F5F5F5F5F5F5F5F5F5F5E2F5F5F5F5F5F5F5F5F5F5F5F5F5F5F5F5F5F5F5F5F5F5F5F5F5F5F5F5F5F5F5F5F5F5F5F5F5F5F5F5F5F5F5F5F5F5F5F5F5F5F5F5F5F5F5F5F5F5F5F5F5F5F5F5F5F5F5F5F5F5F5F5F5F5F5F5F5F5F5F5F5F5F5F5F5F5F5F5F5F5F5F5F5F5
310
F5F5F5F5F5F5F5F5F5F5F5F5F5F5F5F5F5F5F5F5F5F5F5F5F5F5F5F5F5F5F5F5F5F5F5F5F5F5F5F5F5F5F5F5F5F5F5F5F5F5F5F5F5F5F5F5F5F5F5F5E2F5F5F5F5F5F5F5F5F5F5F5E2E2F5F5F5F5F5F5F5F5F5F5F5E2F5F5F5F5F5F5F5F5F5F5F5F5F5F5F5F5F5F5F5F5F5F5F5F5F5F5F5F5F5F5F5F5F5F5F5F5F5F5F5F5F5
310
F5F5F5F5F5F5F5F5F5F5F5F5F5F5F5F5F5F5F5F5F5F5F5F5F5F5F5F5F5F5F5F5F5F5F5F5F5F5F5F5F5F5F5F5F5F5F5F5F5F5F5F5F5F5F5F5F5F5F5F5F5F5F5F5F5F5F5F5F5F5F5F5F5F5F5F5F5F5F5F5F5F5F5F5F5F5F5F5F5F5F5F5F5F5F5F5F5F5F5F5F5F5F5F5F5F5F5F5F5F5F5F5F5E2F5F5F5F5F5F5F5F5F5F5F5E2E2
310
F5F5F5F5F5F5F5F5F5F5F5E2F5F5F5F5F5F5F5F5F5F5F5F5F5F5F5F5F5F5F5F5F5F5F5F5F5F5F5F5F5F5F5F5F5F5F5F5F5F5F5F5F5F5F5F5F5F5F5F5F5F5F5F5F5F5F5F5F5F5F5F5F5F5F5F5F5F5F5F5F5F5F5F5F5F5F5F5F5F5F5F5F5F5F5F5F5F5F5F5F5F5F5F5F5F5F5F5F5F5F5F5F5F5F5F5F5F5F5F5F5F5F5F5F5F5F5
310
F5F5F5F5F5F5F5F5F5F5F5F5F5F5F5F5F5F5F5F5F5F5F5F5F5F5F5F5F5F5F5F5F5F5F5F5F5F5F5E2F5F5F5F5F5F5F5F5F5F5F5E2E2F5F5F5F5F5F5F5F5F5F5F5E2F5F5F5F5F5F5F5F5F5F5F5F5F5F5F5F5F5F5F5F5F5F5F5F5F5F5F5F5F5F5F5F5F5F5F5F5F5F5F5F5F5F5F5F5F5F5F5F5F5F5F5F5F5F5F5F5F5F5F5F5F5F5
310
F5F5F5F5F5F5F5F5F5F5F5F5F5F5F5F5F5F5F5F5F5F5F5F5F5F5F5F5F5F5F5F5F5F5F5F5F5F5F5F5F5F5F5F5F5F5F5F5F5F5F5F5F5F5F5F5F5F5F5F5F5F5F5F5F5F5F5F5F5F5F5F5F5F5F5F5F5F5F5F5F5F5F5F5F5F5F5F5F5F5F5F5E2F5F5F5F5F5F5F5F5F5F5F5E2E2F5F5F5F5F5F5F5F5F5F5F5E2F5F5F5F5F5F5F5F5F5
310
F5F5F5F5F5F5F5F5F5F5F5F5F5F5F5F5F5F5F5F5F5F5F5F5F5F5F5F5F5F5F5F5F5F5F5F5F5F5F5F5F5F5F5F5F5F5F5F5F5F5F5F5F5F5F5F5F5F5F5F5F5F5F5F5F5F5F5F5F5F5F5F5F5F5F5F5F5F5F5F5F5F5F5F5F5F5F5F5F5F5F5F5F5F5F5F5F5F5F5F5F5F5F5F5F5F5F5F5F5F5F5F5F5F5F5F5F5F5F5F5F5F5F5F5F5F5F5
310
F5F5F5F5F5F5F5F5F5F5F5F5F5F5F5F5F5F5E2F5F5F5F5F5F5F5F5F5F5F5E2E2F5F5F5F5F5F5F5F5F5F5F5E2F5F5F5F5F5F5F5F5F5F5F5F5F5F5F5F5F5F5F5F5F5F5F5F5F5F5F5F5F5F5F5F5F5F5F5F5F5F5F5F5F5F5F5F5F5F5F5F5F5F5F5F5F5F5F5F5F5F5F5F5F5F5F5F5F5F5F5F5F5F5F5F5F5F5F5F5F5F5F5F5F5F5F5
310
F5F5F5F5F5F5F5F5F5F5F5F5F5F5F5F5F5F5F5F5F5F5F5F5F5F5F5F5F5F5F5F5F5F5F5F5F5F5F5F5F5F5F5F5F5F5F5F5F5F5F5F5F5F5F5F5F5F5F5F5F5F5F5F5F5F5F5F5F5F5F5E2F5F5F5F5F5F5F5F5F5F5F5E2E2F5F5F5F5F5F5F5F5F5F5F5E2F5F5F5F5F5F5F5F5F5F5F5F5F5F5F5F5F5F5F5F5F5F5F5F5F5F5F5F5F5F5
310
F5F5F5F5F5F5F5F5F5F5F5F5F5F5F5F5F5F5F5F5F5F5F5F5F5F5F5F5F5F5F5F5F5F5F5F5F5F5F5F5F5F5F5F5F5F5F5F5F5F5F5F5F5F5F5F5F5F5F5F5F5F5F5F5F5F5F5F5F5F5F5F5F5F5F5F5F5F5F5F5F5F5F5F5F5F5F5F5F5F5F5F5F5F5F5F5F5F5F5F5F5F5F5F5F5F5F5F5F5F5F5F5F5F5F5F5F5F5F5F5F5F5F5F5E2F5F5
310
F5F5F5F5F5F5F5F5F5E2E2F5F5F5F5F5F5F5F5F5F5F5E2F5F5F5F5F5F5F5F5F5F5F5F5F5F5F5F5F5F5F5F5F5F5F5F5F5F5F5F5F5F5F5F5F5F5F5F5F5F5F5F5F5F5F5F5F5F5F5F5F5F5F5F5F5F5F5F5F5F5F5F5F5F5F5F5F5F5F5F5F5F5F5F5F5F5F5F5F5F5F5F5F5F5F5F5F5F5F5F5F5F5F5F5F5F5F5F5F5F5F5F5F5F5F5F5
310
F5F5F5F5F5F5F5F5F5F5F5F5F5F5F5F5F5F5F5F5F5F5F5F5F5F5F5F5F5F5F5F5F5F5F5F5F5F5F5F5F5F5F5F5F5F5F5F5F5F5E2F5F5F5F5F5F5F5F5F5F5F5E2E2F5F5F5F5F5F5F5F5F5F5F5E2F5F5F5F5F5F5F5F5F5F5F5F5F5F5F5F5F5F5F5F5F5F5F5F5F5F5F5F5F5F5F5F5F5F5F5F5F5F5F5F5F5F5F5F5F5F5F5F5F5F5F5
310
F5F5F5F5F5F5F5F5F5F5F5F5F5F5F5F5F5F5F5F5F5F5F5F5F5F5F5F5F5F5F5F5F5F5F5F5F5F5F5F5F5F5F5F5F5F5F5F5F5F5F5F5F5F5F5F5F5F5F5F5F5F5F5F5F5F5F5F5F5F5F5F5F5F5F5F5F5F5F5F5F5F5F5F5F5F5F5F5F5F5F5F5F5F5F5F5F5F5F5F5F5F5F5E2F5F5F5F5F5F5F5F5F5F5F5E2E2F5F5F5F5F5F5F5F5F5F5
310
F5E2F5F5F5F5F5F5F5F5F5F5F5F5F5F5F5F5F5F5F5F5F5F5F5F5F5F5F5F5F5F5F5F5F5F5F5F5F5F5F5F5F5F5F5F5F5F5F5F5F5F5F5F5F5F5F5F5F5F5F5F5F5F5F5F5F5F5F5F5F5F5F5F5F5F5F5F5F5F5F5F5F5F5F5F5F5F5F5F5F5F5F5F5F5F5F5F5F5F5F5F5F5F5F5F5F5F5F5F5F5F5F5F5F5F5F5F5F5F5F5F5F5F5F5F5F5
310
F5F5F5F5F5F5F5F5F5F5F5F5F5F5F5F5F5F5F5F5F5F5F5F5F5F5F5F5F5E2F5F5F5F5F5F5F5F5F5F5F5E2E2F5F5F5F5F5F5F5F5F5F5F5E2F5F5F5F5F5F5F5F5F5F5F5F5F5F5F5F5F5F5F5F5F5F5F5F5F5F5F5F5F5F5F5F5F5F5F5F5F5F5F5F5F5F5F5F5F5F5F5F5F5F5F5F5F5F5F5F5F5F5F5F5F5F5F5F5F5F5F5F5F5F5F5F5
310
F5F5F5F5F5F5F5F5F5F5F5F5F5F5F5F5F5F5F5F5F5F5F5F5F5F5F5F5F5F5F5F5F5F5F5F5F5F5F5F5F5F5F5F5F5F5F5F5F5F5F5F5F5F5F5F5F5F5F5F5F5F5F5F5F5F5F5F5F5F5F5F5F5F5F5F5F5F5F5F5F5F5E2F5F5F5F5F5F5F5F5F5F5F5E2E2F5F5F5F5F5F5F5F5F5F5F5E2F5F5F5F5F5F5F5F5F5F5F5F5F5F5F5F5F5F5F5
310
F5F5F5F5F5F5F5F5F5F5F5F5F5F5F5F5F5F5F5F5F5F5F5F5F5F5F5F5F5F5F5F5F5F5F5F5F5F5F5F5F5F5F5F5F5F5F5F5F5F5F5F5F5F5F5F5F5F5F5F5F5F5F5F5F5F5F5F5F5F5F5F5F5F5F5F5F5F5F5F5F5F5F5F5F5F5F5F5F5F5F5F5F5F5F5F5F5F5F5F5F5F5F5F5F5F5F5F5F5F5F5F5F5F5F5F5F5F5F5F5F5F5F5F5F5F5F5
310
F5F5F5F5F5F5F5F5E2F5F5F5F5F5F5F5F5F5F5F5E2E2F5F5F5F5F5F5F5F5F5F5F5E2F5F5F5F5F5F5F5F5F5F5F5F5F5F5F5F5F5F5F5F5F5F5F5F5F5F5F5F5F5F5F5F5F5F5F5F5F5F5F5F5F5F5F5F5F5F5F5F5F5F5F5F5F5F5F5F5F5F5F5F5F5F5F5F5F5F5F5F5F5F5F5F5F5F5F5F5F5F5F5F5F5F5F5F5F5F5F5F5F5F5F5F5F5
310
F5F5F5F5F5F5F5F5F5F5F5F5F5F5F5F5F5F5F5F5F5F5F5F5F5F5F5F5F5F5F5F5F5F5F5F5F5F5F5F5F5F5F5F5F5F5F5F5F5F5F5F5F5F5F5F5F5F5F5F5F5E2F5F5F5F5F5F5F5F5F5F5F5E2E2F5F5F5F5F5F5F5F5F5F5F5E2F5F5F5F5F5F5F5F5F5F5F5F5F5F5F5F5F5F5F5F5F5F5F5F5F5F5F5F5F5F5F5F5F5F5F5F5F5F5F5F5
310
F5F5F5F5F5F5F5F5F5F5F5F5F5F5F5F5F5F5F5F5F5F5F5F5F5F5F5F5F5F5F5F5F5F5F5F5F5F5F5F5F5F5F5F5F5F5F5F5F5F5F5F5F5F5F5F5F5F5F5F5F5F5F5F5F5F5F5F5F5F5F5F5F5F5F5F5F5F5F5F5F5F5F5F5F5F5F5F5F5F5F5F5F5F5F5F5F5F5F5F5F5F5F5F5F5F5F5F5F5F5F5F5F5F5E2F5F5F5F5F5F5F5F5F5F5F5E2
310
E2F5F5F5F5F5F5F5F5F5F5F5F5F5F5F5F5F5F5F5F5F5F5F5F5F5F5F5F5F5F5F5F5F5F5F5F5F5F5F5F5F5F5F5F5F5F5F5F5F5F5F5F5F5F5F5F5F5F5F5F5F5F5F5F5F5F5F5F5F5F5F5F5F5F5F5F5F5F5F5F5F5F5F5F5F5F5F5F5F5F5F5F5F5F5F5F5F5F5F5F5F5F5F5F5F5F5F5F5F5F5F5F5F5F5F5F5F5F5F5F5F5F5F5F5F5F5
310
F5F5F5F5F5F5F5F5F5F5F5F5F5F5F5F5F5F5F5F5F5F5F5F5F5F5F5F5F5F5F5F5F5F5F5F5F5F5F5F5F5F5F5F5F5F5F5F5F5F5F5F5E2E2F5F5F5F5F5F5F5F5F5F5F5F5F5F5F5F5F5F5F5F5F5F5F5F5F5F5F5F5F5F5F5F5F5F5F5F5F5F5F5F5F5F5F5F5F5F5F5F5F5F5F5F5F5F5F5F5F5F5F5F5F5F5F5F5F5F5F5F5F5F5F5F5F5
310
F5F5F5F5F5F5F5F5F5F5F5F5F5F5F5F5F5F5F5F5F5F5F5F5F5F5F5F5F5F5F5F5F5F5F5F5F5F5F5F5F5F5F5F5F5F5F5F5F5F5F5F5F5F5F5F5F5F5F5F5F5F5F5F5F5F5F5F5F5F5F5F5F5F5F5F5F5F5F5F5F5F5F5F5F5F5F5F5F5F5F5F5F5F5F5F5F5F5F5F5F5F5F5F5F5E2E2F5F5F5F5F5F5F5F5F5F5F5F5F5F5F5F5F5F5F5F5
310
F5F5F5F5F5F5F5F5F5F5F5F5F5F5F5F5F5F5F5F5F5F5F5F5F5F5F5F5F5F5F5F5F5F5F5F5F5F5F5F5F5F5F5F5F5F5F5F5F5F5F5F5F5F5F5F5F5F5F5F5F5F5F5F5F5F5F5F5F5F5F5F5F5F5F5F5F5F5F5F5F5F5F5F5F5F5F5F5F5F5F5F5F5F5F5F5F5F5F5F5F5F5F5F5F5F5F5F5F5F5F5F5F5F5F5F5F5F5F5F5F5F5F5F5F5F5F5
310
F5F5F5F5F5F5F5F5F5F5F5F5F5F5F5F5F5F5F5F5F5F5F5F5F5F5F5F5F5F5F5E2E2F5F5F5F5F5F5F5F5F5F5F5F5F5F5F5F5F5F5F5F5F5F5F5F5F5F5F5F5F5F5F5F5F5F5F5F5F5F5F5F5F5F5F5F5F5F5F5F5F5F5F5F5F5F5F5F5F5F5F5F5F5F5F5F5F5F5F5F5F5F5F5F5F5F5F5F5F5F5F5F5F5F5F5F5F5F5F5F5F5F5F5F5F5F5
310
F5F5F5F5F5F5F5F5F5F5F5F5F5F5F5F5F5F5F5F5F5F5F5F5F5F5F5F5F5F5F5F5F5F5F5F5F5F5F5F5F5F5F5F5F5F5F5F5F5F5F5F5F5F5F5F5F5F5F5F5F5F5F5F5F5F5F5F5F5F5F5F5F5F5F5F5F5F5F5F5F5F5F5F5E2E2F5F5F5F5F5F5F5F5F5F5F5F5F5F5F5F5F5F5F5F5F5F5F5F5F5F5F5F5F5F5F5F5F5F5F5F5F5F5F5F5F5
310
F5F5F5F5F5F5F5F5F5F5F5F5F5F5F5F5F5F5F5F5F5F5F5F5F5F5F5F5F5F5F5F5F5F5F5F5F5F5F5F5F5F5F5F5F5F5F5F5F5F5F5F5F5F5F5F5F5F5F5F5F5F5F5F5F5F5F5F5F5F5F5F5F5F5F5F5F5F5F5F5F5F5F5F5F5F5F5F5F5F5F5F5F5F5F5F5F5F5F5F5F5F5F5F5F5F5F5F5F5F5F5F5F5F5F5F5F5F5F5F5F5F5F5F5F5F5F5
310
F5F5F5F5F5F5F5F5F5F5E2E2F5F5F5F5F5F5F5F5F5F5F5F5F5F5F5F5F5F5F5F5F5F5F5F5F5F5F5F5F5F5F5F5F5F5F5F5F5F5F5F5F5F5F5F5F5F5F5F5F5F5F5F5F5F5F5F5F5F5F5F5F5F5F5F5F5F5F5F5F5F5F5F5F5F5F5F5F5F5F5F5F5F5F5F5F5F5F5F5F5F5F5F5F5F5F5F5F5F5F5F5F5F5F5F5F5F5F5F5F5F5F5F5F5F5F5
310
F5F5F5F5F5F5F5F5F5F5F5F5F5F5F5F5F5F5F5F5F5F5F5F5F5F5F5F5F5F5F5F5F5F5F5F5F5F5F5F5F5F5F5F5F5F5F5F5F5F5F5F5F5F5F5F5F5F5F5F5F5F5F5E2E2F5F5F5F5F5F5F5F5F5F5F5F5F5F5F5F5F5F5F5F5F5F5F5F5F5F5F5F5F5F5F5F5F5F5F5F5F5F5F5F5F5F5F5F5F5F5F5F5F5F5F5F5F5F5F5F5F5F5F5F5F5F5
310
F5F5F5F5F5F5F5F5F5F5F5F5F5F5F5F5F5F5F5F5F5F5F5F5F5F5F5F5F5F5F5F5F5F5F5F5F5F5F5F5F5F5F5F5F5F5F5F5F5F5F5F5F5F5F5F5F5F5F5F5F5F5F5F5F5F5F5F5F5F5F5F5F5F5F5F5F5F5F5F5F5F5F5F5F5F5F5F5F5F5F5F5F5F5F5F5F5F5F5F5F5F5F5F5F5F5F5F5F5F5F5F5F5F5F5F5E2E2F5F5F5F5F5F5F5F5F5
310
F5F5F5F5F5F5F5F5F5F5F5F5F5F5F5F5F5F5F5F5F5F5F5F5F5F5F5F5F5F5F5F5F5F5F5F5F5F5F5F5F5F5F5F5F5F5F5F5F5F5F5F5F5F5F5F5F5F5F5F5F5F5F5F5F5F5F5F5F5F5F5F5F5F5F5F5F5F5F5F5F5F5F5F5F5F5F5F5F5F5F5F5F5F5F5F5F5F5F5F5F5F5F5F5F5F5F5F5F5F5F5F5F5F5F5F5F5F5F5F5F5F5F5F5F5F5F5
310
F5F5F5F5F5F5F5F5F5F5F5F5F5F5F5F5F5F5F5F5F5F5F5F5F5F5F5F5F5F5F5F5F5F5F5F5F5F5F5F5F5F5E2E2F5F5F5F5F5F5F5F5F5F5F5F5F5F5F5F5F5F5F5F5F5F5F5F5F5F5F5F5F5F5F5F5F5F5F5F5F5F5F5F5F5F5F5F5F5F5F5F5F5F5F5F5F5F5F5F5F5F5F5F5F5F5F5F5F5F5F5F5F5F5F5F5F5F5F5F5F5F5F5F5F5F5F5
310
F5F5F5F5F5F5F5F5F5F5F5F5F5F5F5F5F5F5F5F5F5F5F5F5F5F5F5F5F5F5F5F5F5F5F5F5F5F5F5F5F5F5F5F5F5F5F5F5F5F5F5F5F5F5F5F5F5F5F5F5F5F5F5F5F5F5F5F5F5F5F5F5F5F5F5F5F5F5F5F5F5F5F5F5F5F5F5F5F5F5F5F5F5F5F5E2E2F5F5F5F5F5F5F5F5F5F5F5E2F5F5F5F5F5F5F5F5F5F5F5F5F5F5F5F5F5F5
310
F5F5F5F5F5F5F5F5F5F5F5F5F5F5F5F5F5F5F5F5F5F5F5F5F5F5F5F5F5F5F5F5F5F5F5F5F5F5F5F5F5F5F5F5F5F5F5F5F5F5F5F5F5F5F5F5F5F5F5F5F5F5F5F5F5F5F5F5F5F5F5F5F5F5F5F5F5F5F5F5F5F5F5F5F5F5F5F5F5F5F5F5F5F5F5F5F5F5F5F5F5F5F5F5F5F5F5F5F5F5F5F5F5F5F5F5F5F5F5F5F5F5F5F5F5F5F5
310
F5F5F5F5F5F5F5F5F5E2F5F5F5F5F5F5F5F5F5F5F5E2E2F5F5F5F5F5F5F5F5F5F5F5E2F5F5F5F5F5F5F5F5F5F5F5F5F5F5F5F5F5F5F5F5F5F5F5F5F5F5F5F5F5F5F5F5F5F5F5F5F5F5F5F5F5F5F5F5F5F5F5F5F5F5F5F5F5F5F5F5F5F5F5F5F5F5F5F5F5F5F5F5F5F5F5F5F5F5F5F5F5F5F5F5F5F5F5F5F5F5F5F5F5F5F5F5
310
F5F5F5F5F5F5F5F5F5F5F5F5F5F5F5F5F5F5F5F5F5F5F5F5F5F5F5F5F5F5F5F5F5F5F5F5F5F5F5F5F5F5F5F5F5F5F5F5F5F5F5F5F5F5F5F5F5F5F5F5F5F5E2F5F5F5F5F5F5F5F5F5F5F5E2E2F5F5F5F5F5F5F5F5F5F5F5E2F5F5F5F5F5F5F5F5F5F5F5F5F5F5F5F5F5F5F5F5F5F5F5F5F5F5F5F5F5F5F5F5F5F5F5F5F5F5F5
310
F5F5F5F5F5F5F5F5F5F5F5F5F5F5F5F5F5F5F5F5F5F5F5F5F5F5F5F5F5F5F5F5F5F5F5F5F5F5F5F5F5F5F5F5F5F5F5F5F5F5F5F5F5F5F5F5F5F5F5F5F5F5F5F5F5F5F5F5F5F5F5F5F5F5F5F5F5F5F5F5F5F5F5F5F5F5F5F5F5F5F5F5F5F5F5F5F5F5F5F5F5F5F5F5F5F5F5F5F5F5F5F5F5F5F5E2F5F5F5F5F5F5F5F5F5F5F5
310
E2E2F5F5F5F5F5F5F5F5F5F5F5E2F5F5F5F5F5F5F5F5F5F5F5F5F5F5F5F5F5F5F5F5F5F5F5F5F5F5F5F5F5F5F5F5F5F5F5F5F5F5F5F5F5F5F5F5F5F5F5F5F5F5F5F5F5F5F5F5F5F5F5F5F5F5F5F5F5F5F5F5F5F5F5F5F5F5F5F5F5F5F5F5F5F5F5F5F5F5F5F5F5F5F5F5F5F5F5F5F5F5F5F5F5F5F5F5F5F5F5F5F5F5F5F5F5
310
F5F5F5F5F5F5F5F5F5F5F5F5F5F5F5F5F5F5F5F5F5F5F5F5F5F5F5F5F5F5F5F5F5F5F5F5F5F5F5F5F5E2F5F5F5F5F5F5F5F5F5F5F5E2E2F5F5F5F5F5F5F5F5F5F5F5E2F5F5F5F5F5F5F5F5F5F5F5F5F5F5F5F5F5F5F5F5F5F5F5F5F5F5F5F5F5F5F5F5F5F5F5F5F5F5F5F5F5F5F5F5F5F5F5F5F5F5F5F5F5F5F5F5F5F5F5F5
310
F5F5F5F5F5F5F5F5F5F5F5F5F5F5F5F5F5F5F5F5F5F5F5F5F5F5F5F5F5F5F5F5F5F5F5F5F5F5F5F5F5F5F5F5F5F5F5F5F5F5F5F5F5F5F5F5F5F5F5F5F5F5F5F5F5F5F5F5F5F5F5F5F5F5F5F5F5F5F5F5F5F5F5F5F5F5F5F5F5F5F5F5F5F5E2F5F5F5F5F5F5F5F5F5F5F5E2E2F5F5F5F5F5F5F5F5F5F5F5E2F5F5F5F5F5F5F5
310
F5F5F5F5F5F5F5F5F5F5F5F5F5F5F5F5F5F5F5F5F5F5F5F5F5F5F5F5F5F5F5F5F5F5F5F5F5F5F5F5F5F5F5F5F5F5F5F5F5F5F5F5F5F5F5F5F5F5F5F5F5F5F5F5F5F5F5F5F5F5F5F5F5F5F5F5F5F5F5F5F5F5F5F5F5F5F5F5F5F5F5F5F5F5F5F5F5F5F5F5F5F5F5F5F5F5F5F5F5F5F5F5F5F5F5F5F5F5F5F5F5F5F5F5F5F5F5
310
F5F5F5F5F5F5F5F5F5F5F5F5F5F5F5F5F5F5F5F5E2F5F5F5F5F5F5F5F5F5F5F5E2E2F5F5F5F5F5F5F5F5F5F5F5E2F5F5F5F5F5F5F5F5F5F5F5F5F5F5F5F5F5F5F5F5F5F5F5F5F5F5F5F5F5F5F5F5F5F5F5F5F5F5F5F5F5F5F5F5F5F5F5F5F5F5F5F5F5F5F5F5F5F5F5F5F5F5F5F5F5F5F5F5F5F5F5F5F5F5F5F5F5F5F5F5F5
310
F5F5F5F5F5F5F5F5F5F5F5F5F5F5F5F5F5F5F5F5F5F5F5F5F5F5F5F5F5F5F5F5F5F5F5F5F5F5F5F5F5F5F5F5F5F5F5F5F5F5F5F5F5F5F5F5F5F5F5F5F5F5F5F5F5F5F5F5F5F5F5F5F5E2F5F5F5F5F5F5F5F5F5F5F5E2E2F5F5F5F5F5F5F5F5F5F5F5E2F5F5F5F5F5F5F5F5F5F5F5F5F5F5F5F5F5F5F5F5F5F5F5F5F5F5F5F5
310
F5F5F5F5F5F5F5F5F5F5F5F5F5F5F5F5F5F5F5F5F5F5F5F5F5F5F5F5F5F5F5F5F5F5F5F5F5F5F5F5F5F5F5F5F5F5F5F5F5F5F5F5F5F5F5F5F5F5F5F5F5F5F5F5F5F5F5F5F5F5F5F5F5F5F5F5F5F5F5F5F5F5F5F5F5F5F5F5F5F5F5F5F5F5F5F5F5F5F5F5F5F5F5F5F5F5F5F5F5F5F5F5F5F5F5F5F5F5F5F5F5F5F5F5F5F5E2
310
F5F5F5F5F5F5F5F5F5F5F5E2E2F5F5F5F5F5F5F5F5F5F5F5E2F5F5F5F5F5F5F5F5F5F5F5F5F5F5F5F5F5F5F5F5F5F5F5F5F5F5F5F5F5F5F5F5F5F5F5F5F5F5F5F5F5F5F5F5F5F5F5F5F5F5F5F5F5F5F5F5F5F5F5F5F5F5F5F5F5F5F5F5F5F5F5F5F5F5F5F5F5F5F5F5F5F5F5F5F5F5F5F5F5F5F5F5F5F5F5F5F5F5F5F5F5F5
310
F5F5F5F5F5F5F5F5F5F5F5F5F5F5F5F5F5F5F5F5F5F5F5F5F5F5F5F5F5F5F5F5F5F5F5F5F5F5F5F5F5F5F5F5F5F5F5F5F5F5F5F5E2F5F5F5F5F5F5F5F5F5F5F5E2E2F5F5F5F5F5F5F5F5F5F5F5E2F5F5F5F5F5F5F5F5F5F5F5F5F5F5F5F5F5F5F5F5F5F5F5F5F5F5F5F5F5F5F5F5F5F5F5F5F5F5F5F5F5F5F5F5F5F5F5F5F5
310
F5F5F5F5F5F5F5F5F5F5F5F5F5F5F5F5F5F5F5F5F5F5F5F5F5F5F5F5F5F5F5F5F5F5F5F5F5F5F5F5F5F5F5F5F5F5F5F5F5F5F5F5F5F5F5F5F5F5F5F5F5F5F5F5F5F5F5F5F5F5F5F5F5F5F5F5F5F5F5F5F5F5F5F5F5F5F5F5F5F5F5F5F5F5F5F5F5F5F5F5F5F5F5F5F5E2F5F5F5F5F5F5F5F5F5F5F5E2E2F5F5F5F5F5F5F5F5
310
F5F5F5E2F5F5F5F5F5F5F5F5F5F5F5F5F5F5F5F5F5F5F5F5F5F5F5F5F5F5F5F5F5F5F5F5F5F5F5F5F5F5F5F5F5F5F5F5F5F5F5F5F5F5F5F5F5F5F5F5F5F5F5F5F5F5F5F5F5F5F5F5F5F5F5F5F5F5F5F5F5F5F5F5F5F5F5F5F5F5F5F5F5F5F5F5F5F5F5F5F5F5F5F5F5F5F5F5F5F5F5F5F5F5F5F5F5F5F5F5F5F5F5F5F5F5F5
310
F5F5F5F5F5F5F5F5F5F5F5F5F5F5F5F5F5F5F5F5F5F5F5F5F5F5F5F5F5F5F5E2F5F5F5F5F5F5F5F5F5F5F5E2E2F5F5F5F5F5F5F5F5F5F5F5E2F5F5F5F5F5F5F5F5F5F5F5F5F5F5F5F5F5F5F5F5F5F5F5F5F5F5F5F5F5F5F5F5F5F5F5F5F5F5F5F5F5F5F5F5F5F5F5F5F5F5F5F5F5F5F5F5F5F5F5F5F5F5F5F5F5F5F5F5F5F5
310
F5F5F5F5F5F5F5F5F5F5F5F5F5F5F5F5F5F5F5F5F5F5F5F5F5F5F5F5F5F5F5F5F5F5F5F5F5F5F5F5F5F5F5F5F5F5F5F5F5F5F5F5F5F5F5F5F5F5F5F5F5F5F5F5F5F5F5F5F5F5F5F5F5F5F5F5F5F5F5F5F5F5F5F5E2F5F5F5F5F5F5F5F5F5F5F5E2E2F5F5F5F5F5F5F5F5F5F5F5E2F5F5F5F5F5F5F5F5F5F5F5F5F5F5F5F5F5
310
F5F5F5F5F5F5F5F5F5F5F5F5F5F5F5F5F5F5F5F5F5F5F5F5F5F5F5F5F5F5F5F5F5F5F5F5F5F5F5F5F5F5F5F5F5F5F5F5F5F5F5F5F5F5F5F5F5F5F5F5F5F5F5F5F5F5F5F5F5F5F5F5F5F5F5F5F5F5F5F5F5F5F5F5F5F5F5F5F5F5F5F5F5F5F5F5F5F5F5F5F5F5F5F5F5F5F5F5F5F5F5F5F5F5F5F5F5F5F5F5F5F5F5F5F5F5F5
310
F5F5F5F5F5F5F5F5F5F5E2F5F5F5F5F5F5F5F5F5F5F5E2E2F5F5F5F5F5F5F5F5F5F5F5E2F5F5F5F5F5F5F5F5F5F5F5F5F5F5F5F5F5F5F5F5F5F5F5F5F5F5F5F5F5F5F5F5F5F5F5F5F5F5F5F5F5F5F5F5F5F5F5F5F5F5F5F5F5F5F5F5F5F5F5F5F5F5F5F5F5F5F5F5F5F5F5F5F5F5F5F5F5F5F5F5F5F5F5F5F5F5F5F5F5F5F5
310
F5F5F5F5F5F5F5F5F5F5F5F5F5F5F5F5F5F5F5F5F5F5F5F5F5F5F5F5F5F5F5F5F5F5F5F5F5F5F5F5F5F5F5F5F5F5F5F5F5F5F5F5F5F5F5F5F5F5F5F5F5F5F5E2F5F5F5F5F5F5F5F5F5F5F5E2E2F5F5F5F5F5F5F5F5F5F5F5E2F5F5F5F5F5F5F5F5F5F5F5F5F5F5F5F5F5F5F5F5F5F5F5F5F5F5F5F5F5F5F5F5F5F5F5F5F5F5
310
F5F5F5F5F5F5F5F5F5F5F5F5F5F5F5F5F5F5F5F5F5F5F5F5F5F5F5F5F5F5F5F5F5F5F5F5F5F5F5F5F5F5F5F5F5F5F5F5F5F5F5F5F5F5F5F5F5F5F5F5F5F5F5F5F5F5F5F5F5F5F5F5F5F5F5F5F5F5F5F5F5F5F5F5F5F5F5F5F5F5F5F5F5F5F5F5F5F5F5F5F5F5F5F5F5F5F5F5F5F5F5F5F5F5F5F5E2F5F5F5F5F5F5F5F5F5F5
310
F5E2E2F5F5F5F5F5F5F5F5F5F5F5F5F5F5F5F5F5F5F5F5F5F5F5F5F5F5F5F5F5F5F5F5F5F5F5F5F5F5F5F5F5F5F5F5F5F5F5F5F5F5F5F5F5F5F5F5F5F5F5F5F5F5F5F5F5F5F5F5F5F5F5F5F5F5F5F5F5F5F5F5F5F5F5F5F5F5F5F5F5F5F5F5F5F5F5F5F5F5F5F5F5F5F5F5F5F5F5F5F5F5F5F5F5F5F5F5F5F5F5F5F5F5F5F5
310
F5F5F5F5F5F5F5F5F5F5F5F5F5F5F5F5F5F5F5F5F5F5F5F5F5F5F5F5F5F5F5F5F5F5F5F5F5F5F5F5F5F5F5F5F5F5F5F5F5F5F5F5F5F5E2E2F5F5F5F5F5F5F5F5F5F5F5F5F5F5F5F5F5F5F5F5F5F5F5F5F5F5F5F5F5F5F5F5F5F5F5F5F5F5F5F5F5F5F5F5F5F5F5F5F5F5F5F5F5F5F5F5F5F5F5F5F5F5F5F5F5F5F5F5F5F5F5
310
F5F5F5F5F5F5F5F5F5F5F5F5F5F5F5F5F5F5F5F5F5F5F5F5F5F5F5F5F5F5F5F5F5F5F5F5F5F5F5F5F5F5F5F5F5F5F5F5F5F5F5F5F5F5F5F5F5F5F5F5F5F5F5F5F5F5F5F5F5F5F5F5F5F5F5F5F5F5F5F5F5F5F5F5F5F5F5F5F5F5F5F5F5F5F5F5F5F5F5F5F5F5F5F5F5F5F5E2E2F5F5F5F5F5F5F5F5F5F5F5F5F5F5F5F5F5F5
310
F5F5F5F5F5F5F5F5F5F5F5F5F5F5F5F5F5F5F5F5F5F5F5F5F5F5F5F5F5F5F5F5F5F5F5F5F5F5F5F5F5F5F5F5F5F5F5F5F5F5F5F5F5F5F5F5F5F5F5F5F5F5F5F5F5F5F5F5F5F5F5F5F5F5F5F5F5F5F5F5F5F5F5F5F5F5F5F5F5F5F5F5F5F5F5F5F5F5F5F5F5F5F5F5F5F5F5F5F5F5F5F5F5F5F5F5F5F5F5F5F5F5F5F5F5F5F5
310
F5F5F5F5F5F5F5F5F5F5F5F5F5F5F5F5F5F5F5F5F5F5F5F5F5F5F5F5F5F5F5F5F5E2E2F5F5F5F5F5F5F5F5F5F5F5F5F5F5F5F5F5F5F5F5F5F5F5F5F5F5F5F5F5F5F5F5F5F5F5F5F5F5F5F5F5F5F5F5F5F5F5F5F5F5F5F5F5F5F5F5F5F5F5F5F5F5F5F5F5F5F5F5F5F5F5F5F5F5F5F5F5F5F5F5F5F5F5F5F5F5F5F5F5F5F5F5
310
F5F5F5F5F5F5F5F5F5F5F5F5F5F5F5F5F5F5F5F5F5F5F5F5F5F5F5F5F5F5F5F5F5F5F5F5F5F5F5F5F5F5F5F5F5F5F5F5F5F5F5F5F5F5F5F5F5F5F5F5F5F5F5F5F5F5F5F5F5F5F5F5F5F5F5F5F5F5F5F5F5F5F5F5F5F5E2E2F5F5F5F5F5F5F5F5F5F5F5F5F5F5F5F5F5F5F5F5F5F5F5F5F5F5F5F5F5F5F5F5F5F5F5F5F5F5F5
310
F5F5F5F5F5F5F5F5F5F5F5F5F5F5F5F5F5F5F5F5F5F5F5F5F5F5F5F5F5F5F5F5F5F5F5F5F5F5F5F5F5F5F5F5F5F5F5F5F5F5F5F5F5F5F5F5F5F5F5F5F5F5F5F5F5F5F5F5F5F5F5F5F5F5F5F5F5F5F5F5F5F5F5F5F5F5F5F5F5F5F5F5F5F5F5F5F5F5F5F5F5F5F5F5F5F5F5F5F5F5F5F5F5F5F5F5F5F5F5F5F5F5F5F5F5F5F5
310
F5F5F5F5F5F5F5F5F5F5F5F5E2E2F5F5F5F5F5F5F5F5F5F5F5F5F5F5F5F5F5F5F5F5F5F5F5F5F5F5F5F5F5F5F5F5F5F5F5F5F5F5F5F5F5F5F5F5F5F5F5F5F5F5F5F5F5F5F5F5F5F5F5F5F5F5F5F5F5F5F5F5F5F5F5F5F5F5F5F5F5F5F5F5F5F5F5F5F5F5F5F5F5F5F5F5F5F5F5F5F5F5F5F5F5F5F5F5F5F5F5F5F5F5F5F5F5
310
F5F5F5F5F5F5F5F5F5F5F5F5F5F5F5F5F5F5F5F5F5F5F5F5F5F5F5F5F5F5F5F5F5F5F5F5F5F5F5F5F5F5F5F5F5F5F5F5F5F5F5F5F5F5F5F5F5F5F5F5F5F5F5F5F5E2E2F5F5F5F5F5F5F5F5F5F5F5F5F5F5F5F5F5F5F5F5F5F5F5F5F5F5F5F5F5F5F5F5F5F5F5F5F5F5F5F5F5F5F5F5F5F5F5F5F5F5F5F5F5F5F5F5F5F5F5F5
310
F5F5F5F5F5F5F5F5F5F5F5F5F5F5F5F5F5F5F5F5F5F5F5F5F5F5F5F5F5F5F5F5F5F5F5F5F5F5F5F5F5F5F5F5F5F5F5F5F5F5F5F5F5F5F5F5F5F5F5F5F5F5F5F5F5F5F5F5F5F5F5F5F5F5F5F5F5F5F5F5F5F5F5F5F5F5F5F5F5F5F5F5F5F5F5F5F5F5F5F5F5F5F5F5F5F5F5F5F5F5F5F5F5F5F5F5F5F5E2E2F5F5F5F5F5F5F5
310
F5F5F5F5F5F5F5F5F5F5F5F5F5F5F5F5F5F5F5F5F5F5F5F5F5F5F5F5F5F5F5F5F5F5F5F5F5F5F5F5F5F5F5F5F5F5F5F5F5F5F5F5F5F5F5F5F5F5F5F5F5F5F5F5F5F5F5F5F5F5F5F5F5F5F5F5F5F5F5F5F5F5F5F5F5F5F5F5F5F5F5F5F5F5F5F5F5F5F5F5F5F5F5F5F5F5F5F5F5F5F5F5F5F5F5F5F5F5F5F5F5F5F5F5F5F5F5
310
F5F5F5F5F5F5F5F5F5F5F5F5F5F5F5F5F5F5F5F5F5F5F5F5F5F5F5F5F5F5F5F5F5F5F5F5F5F5F5F5F5F5F5F5E2E2F5F5F5F5F5F5F5F5F5F5F5E2F5F5F5F5F5F5F5F5F5F5F5F5F5F5F5F5F5F5F5F5F5F5F5F5F5F5F5F5F5F5F5F5F5F5F5F5F5F5F5F5F5F5F5F5F5F5F5F5F5F5F5F5F5F5F5F5F5F5F5F5F5F5F5F5F5F5F5F5F5
310
F5F5F5F5F5F5F5F5F5F5F5F5F5F5F5F5F5F5F5F5F5F5F5F5F5F5F5F5F5F5F5F5F5F5F5F5F5F5F5F5F5F5F5F5F5F5F5F5F5F5F5F5F5F5F5F5F5F5F5F5F5F5F5F5F5F5F5F5F5F5F5F5F5F5F5F5F5F5F5F5F5F5F5F5F5E2F5F5F5F5F5F5F5F5F5F5F5E2E2F5F5F5F5F5F5F5F5F5F5F5E2F5F5F5F5F5F5F5F5F5F5F5F5F5F5F5F5
310
F5F5F5F5F5F5F5F5F5F5F5F5F5F5F5F5F5F5F5F5F5F5F5F5F5F5F5F5F5F5F5F5F5F5F5F5F5F5F5F5F5F5F5F5F5F5F5F5F5F5F5F5F5F5F5F5F5F5F5F5F5F5F5F5F5F5F5F5F5F5F5F5F5F5F5F5F5F5F5F5F5F5F5F5F5F5F5F5F5F5F5F5F5F5F5F5F5F5F5F5F5F5F5F5F5F5F5F5F5F5F5F5F5F5F5F5F5F5F5F5F5F5F5F5F5F5F5
310
F5F5F5F5F5F5F5F5F5F5F5E2F5F5F5F5F5F5F5F5F5F5F5E2E2F5F5F5F5F5F5F5F5F5F5F5E2F5F5F5F5F5F5F5F5F5F5F5F5F5F5F5F5F5F5F5F5F5F5F5F5F5F5F5F5F5F5F5F5F5F5F5F5F5F5F5F5F5F5F5F5F5F5F5F5F5F5F5F5F5F5F5F5F5F5F5F5F5F5F5F5F5F5F5F5F5F5F5F5F5F5F5F5F5F5F5F5F5F5F5F5F5F5F5F5F5F5
310
F5F5F5F5F5F5F5F5F5F5F5F5F5F5F5F5F5F5F5F5F5F5F5F5F5F5F5F5F5F5F5F5F5F5F5F5F5F5F5F5F5F5F5F5F5F5F5F5F5F5F5F5F5F5F5F5F5F5F5F5F5F5F5F5E2F5F5F5F5F5F5F5F5F5F5F5E2E2F5F5F5F5F5F5F5F5F5F5F5E2F5F5F5F5F5F5F5F5F5F5F5F5F5F5F5F5F5F5F5F5F5F5F5F5F5F5F5F5F5F5F5F5F5F5F5F5F5
310
F5F5F5F5F5F5F5F5F5F5F5F5F5F5F5F5F5F5F5F5F5F5F5F5F5F5F5F5F5F5F5F5F5F5F5F5F5F5F5F5F5F5F5F5F5F5F5F5F5F5F5F5F5F5F5F5F5F5F5F5F5F5F5F5F5F5F5F5F5F5F5F5F5F5F5F5F5F5F5F5F5F5F5F5F5F5F5F5F5F5F5F5F5F5F5F5F5F5F5F5F5F5F5F5F5F5F5F5F5F5F5F5F5F5F5F5F5E2F5F5F5F5F5F5F5F5F5
310
F5F5E2E2F5F5F5F5F5F5F5F5F5F5F5E2F5F5F5F5F5F5F5F5F5F5F5F5F5F5F5F5F5F5F5F5F5F5F5F5F5F5F5F5F5F5F5F5F5F5F5F5F5F5F5F5F5F5F5F5F5F5F5F5F5F5F5F5F5F5F5F5F5F5F5F5F5F5F5F5F5F5F5F5F5F5F5F5F5F5F5F5F5F5F5F5F5F5F5F5F5F5F5F5F5F5F5F5F5F5F5F5F5F5F5F5F5F5F5F5F5F5F5F5F5F5F5
310
F5F5F5F5F5F5F5F5F5F5F5F5F5F5F5F5F5F5F5F5F5F5F5F5F5F5F5F5F5F5F5F5F5F5F5F5F5F5F5F5F5F5F5E2F5F5F5F5F5F5F5F5F5F5F5E2E2F5F5F5F5F5F5F5F5F5F5F5E2F5F5F5F5F5F5F5F5F5F5F5F5F5F5F5F5F5F5F5F5F5F5F5F5F5F5F5F5F5F5F5F5F5F5F5F5F5F5F5F5F5F5F5F5F5F5F5F5F5F5F5F5F5F5F5F5F5F5
310
F5F5F5F5F5F5F5F5F5F5F5F5F5F5F5F5F5F5F5F5F5F5F5F5F5F5F5F5F5F5F5F5F5F5F5F5F5F5F5F5F5F5F5F5F5F5F5F5F5F5F5F5F5F5F5F5F5F5F5F5F5F5F5F5F5F5F5F5F5F5F5F5F5F5F5F5F5F5F5F5F5F5F5F5F5F5F5F5F5F5F5F5F5F5F5F5E2F5F5F5F5F5F5F5F5F5F5F5E2E2F5F5F5F5F5F5F5F5F5F5F5E2F5F5F5F5F5
310
F5F5F5F5F5F5F5F5F5F5F5F5F5F5F5F5F5F5F5F5F5F5F5F5F5F5F5F5F5F5F5F5F5F5F5F5F5F5F5F5F5F5F5F5F5F5F5F5F5F5F5F5F5F5F5F5F5F5F5F5F5F5F5F5F5F5F5F5F5F5F5F5F5F5F5F5F5F5F5F5F5F5F5F5F5F5F5F5F5F5F5F5F5F5F5F5F5F5F5F5F5F5F5F5F5F5F5F5F5F5F5F5F5F5F5F5F5F5F5F5F5F5F5F5F5F5F5
310
F5F5F5F5F5F5F5F5F5F5F5F5F5F5F5F5F5F5F5F5F5F5E2F5F5F5F5F5F5F5F5F5F5F5E2E2F5F5F5F5F5F5F5F5F5F5F5E2F5F5F5F5F5F5F5F5F5F5F5F5F5F5F5F5F5F5F5F5F5F5F5F5F5F5F5F5F5F5F5F5F5F5F5F5F5F5F5F5F5F5F5F5F5F5F5F5F5F5F5F5F5F5F5F5F5F5F5F5F5F5F5F5F5F5F5F5F5F5F5F5F5F5F5F5F5F5F5
310
F5F5F5F5F5F5F5F5F5F5F5F5F5F5F5F5F5F5F5F5F5F5F5F5F5F5F5F5F5F5F5F5F5F5F5F5F5F5F5F5F5F5F5F5F5F5F5F5F5F5F5F5F5F5F5F5F5F5F5F5F5F5F5F5F5F5F5F5F5F5F5F5F5F5F5E2F5F5F5F5F5F5F5F5F5F5F5E2E2F5F5F5F5F5F5F5F5F5F5F5E2F5F5F5F5F5F5F5F5F5F5F5F5F5F5F5F5F5F5F5F5F5F5F5F5F5F5
310
F5F5F5F5F5F5F5F5F5F5F5F5F5F5F5F5F5F5F5F5F5F5F5F5F5F5F5F5F5F5F5F5F5F5F5F5F5F5F5F5F5F5F5F5F5F5F5F5F5F5F5F5F5F5F5F5F5F5F5F5F5F5F5F5F5F5F5F5F5F5F5F5F5F5F5F5F5F5F5F5F5F5F5F5F5F5F5F5F5F5F5F5F5F5F5F5F5F5F5F5F5F5F5F5F5F5F5F5F5F5F5F5F5F5F5F5F5F5F5F5F5F5F5F5F5F5F5
310
F5E2F5F5F5F5F5F5F5F5F5F5F5E2E2F5F5F5F5F5F5F5F5F5F5F5E2F5F5F5F5F5F5F5F5F5F5F5F5F5F5F5F5F5F5F5F5F5F5F5F5F5F5F5F5F5F5F5F5F5F5F5F5F5F5F5F5F5F5F5F5F5F5F5F5F5F5F5F5F5F5F5F5F5F5F5F5F5F5F5F5F5F5F5F5F5F5F5F5F5F5F5F5F5F5F5F5F5F5F5F5F5F5F5F5F5F5F5F5F5F5F5F5F5F5F5F5
310
F5F5F5F5F5F5F5F5F5F5F5F5F5F5F5F5F5F5F5F5F5F5F5F5F5F5F5F5F5F5F5F5F5F5F5F5F5F5F5F5F5F5F5F5F5F5F5F5F5F5F5F5F5F5E2F5F5F5F5F5F5F5F5F5F5F5E2E2F5F5F5F5F5F5F5F5F5F5F5E2F5F5F5F5F5F5F5F5F5F5F5F5F5F5F5F5F5F5F5F5F5F5F5F5F5F5F5F5F5F5F5F5F5F5F5F5F5F5F5F5F5F5F5F5F5F5F5
310
F5F5F5F5F5F5F5F5F5F5F5F5F5F5F5F5F5F5F5F5F5F5F5F5F5F5F5F5F5F5F5F5F5F5F5F5F5F5F5F5F5F5F5F5F5F5F5F5F5F5F5F5F5F5F5F5F5F5F5F5F5F5F5F5F5F5F5F5F5F5F5F5F5F5F5F5F5F5F5F5F5F5F5F5F5F5F5F5F5F5F5F5F5F5F5F5F5F5F5F5F5F5F5F5F5F5F5E2F5F5F5F5F5F5F5F5F5F5F5E2E2F5F5F5F5F5F5
310
F5F5F5F5F5E2F5F5F5F5F5F5F5F5F5F5F5F5F5F5F5F5F5F5F5F5F5F5F5F5F5F5F5F5F5F5F5F5F5F5F5F5F5F5F5F5F5F5F5F5F5F5F5F5F5F5F5F5F5F5F5F5F5F5F5F5F5F5F5F5F5F5F5F5F5F5F5F5F5F5F5F5F5F5F5F5F5F5F5F5F5F5F5F5F5F5F5F5F5F5F5F5F5F5F5F5F5F5F5F5F5F5F5F5F5F5F5F5F5F5F5F5F5F5F5F5F5
310
F5F5F5F5F5F5F5F5F5F5F5F5F5F5F5F5F5F5F5F5F5F5F5F5F5F5F5F5F5F5F5F5F5E2F5F5F5F5F5F5F5F5F5F5F5E2E2F5F5F5F5F5F5F5F5F5F5F5E2F5F5F5F5F5F5F5F5F5F5F5F5F5F5F5F5F5F5F5F5F5F5F5F5F5F5F5F5F5F5F5F5F5F5F5F5F5F5F5F5F5F5F5F5F5F5F5F5F5F5F5F5F5F5F5F5F5F5F5F5F5F5F5F5F5F5F5F5
310
F5F5F5F5F5F5F5F5F5F5F5F5F5F5F5F5F5F5F5F5F5F5F5F5F5F5F5F5F5F5F5F5F5F5F5F5F5F5F5F5F5F5F5F5F5F5F5F5F5F5F5F5F5F5F5F5F5F5F5F5F5F5F5F5F5F5F5F5F5F5F5F5F5F5F5F5F5F5F5F5F5F5F5F5F5F5E2F5F5F5F5F5F5F5F5F5F5F5E2E2F5F5F5F5F5F5F5F5F5F5F5E2F5F5F5F5F5F5F5F5F5F5F5F5F5F5F5
310
F5F5F5F5F5F5F5F5F5F5F5F5F5F5F5F5F5F5F5F5F5F5F5F5F5F5F5F5F5F5F5F5F5F5F5F5F5F5F5F5F5F5F5F5F5F5F5F5F5F5F5F5F5F5F5F5F5F5F5F5F5F5F5F5F5F5F5F5F5F5F5F5F5F5F5F5F5F5F5F5F5F5F5F5F5F5F5F5F5F5F5F5F5F5F5F5F5F5F5F5F5F5F5F5F5F5F5F5F5F5F5F5F5F5F5F5F5F5F5F5F5F5F5F5F5F5F5
310
F5F5F5F5F5F5F5F5F5F5F5F5E2F5F5F5F5F5F5F5F5F5F5F5E2E2F5F5F5F5F5F5F5F5F5F5F5E2F5F5F5F5F5F5F5F5F5F5F5F5F5F5F5F5F5F5F5F5F5F5F5F5F5F5F5F5F5F5F5F5F5F5F5F5F5F5F5F5F5F5F5F5F5F5F5F5F5F5F5F5F5F5F5F5F5F5F5F5F5F5F5F5F5F5F5F5F5F5F5F5F5F5F5F5F5F5F5F5F5F5F5F5F5F5F5F5F5
310
F5F5F5F5F5F5F5F5F5F5F5F5F5F5F5F5F5F5F5F5F5F5F5F5F5F5F5F5F5F5F5F5F5F5F5F5F5F5F5F5F5F5F5F5F5F5F5F5F5F5F5F5F5F5F5F5F5F5F5F5F5F5F5F5F5E2F5F5F5F5F5F5F5F5F5F5F5E2E2F5F5F5F5F5F5F5F5F5F5F5F5F5F5F5F5F5F5F5F5F5F5F5F5F5F5F5F5F5F5F5F5F5F5F5F5F5F5F5F5F5F5F5F5F5F5F5F5
310
F5F5F5F5F5F5F5F5F5F5F5F5F5F5F5F5F5F5F5F5F5F5F5F5F5F5F5F5F5F5F5F5F5F5F5F5F5F5F5F5F5F5F5F5F5F5F5F5F5F5F5F5F5F5F5F5F5F5F5F5F5F5F5F5F5F5F5F5F5F5F5F5F5F5F5F5F5F5F5F5F5F5F5F5F5F5F5F5F5F5F5F5F5F5F5F5F5F5F5F5F5F5F5F5F5F5F5F5F5F5F5F5F5F5F5F5F5F5F5F5F5F5F5F5F5F5F5
310
F5F5F5E2E2F5F5F5F5F5F5F5F5F5F5F5F5F5F5F5F5F5F5F5F5F5F5F5F5F5F5F5F5F5F5F5F5F5F5F5F5F5F5F5F5F5F5F5F5F5F5F5F5F5F5F5F5F5F5F5F5F5F5F5F5F5F5F5F5F5F5F5F5F5F5F5F5F5F5F5F5F5F5F5F5F5F5F5F5F5F5F5F5F5F5F5F5F5F5F5F5F5F5F5F5F5F5F5F5F5F5F5F5F5F5F5F5F5F5F5F5F5F5F5F5F5F5
310
F5F5F5F5F5F5F5F5F5F5F5F5F5F5F5F5F5F5F5F5F5F5F5F5F5F5F5F5F5F5F5F5F5F5F5F5F5F5F5F5F5F5F5F5F5F5F5F5F5F5F5F5F5F5F5F5E2E2F5F5F5F5F5F5F5F5F5F5F5F5F5F5F5F5F5F5F5F5F5F5F5F5F5F5F5F5F5F5F5F5F5F5F5F5F5F5F5F5F5F5F5F5F5F5F5F5F5F5F5F5F5F5F5F5F5F5F5F5F5F5F5F5F5F5F5F5F5
310
F5F5F5F5F5F5F5F5F5F5F5F5F5F5F5F5F5F5F5F5F5F5F5F5F5F5F5F5F5F5F5F5F5F5F5F5F5F5F5F5F5F5F5F5F5F5F5F5F5F5F5F5F5F5F5F5F5F5F5F5F5F5F5F5F5F5F5F5F5F5F5F5F5F5F5F5F5F5F5F5F5F5F5F5F5F5F5F5F5F5F5F5F5F5F5F5F5F5F5F5F5F5F5F5F5F5F5F5F5E2E2F5F5F5F5F5F5F5F5F5F5F5F5F5F5F5F5
310
F5F5F5F5F5F5F5F5F5F5F5F5F5F5F5F5F5F5F5F5F5F5F5F5F5F5F5F5F5F5F5F5F5F5F5F5F5F5F5F5F5F5F5F5F5F5F5F5F5F5F5F5F5F5F5F5F5F5F5F5F5F5F5F5F5F5F5F5F5F5F5F5F5F5F5F5F5F5F5F5F5F5F5F5F5F5F5F5F5F5F5F5F5F5F5F5F5F5F5F5F5F5F5F5F5F5F5F5F5F5F5F5F5F5F5F5F5F5F5F5F5F5F5F5F5F5F5
310
F5F5F5F5F5F5F5F5F5F5F5F5F5F5F5F5F5F5F5F5F5F5F5F5F5F5F5F5F5F5F5F5F5F5F5E2E2F5F5F5F5F5F5F5F5F5F5F5F5F5F5F5F5F5F5F5F5F5F5F5F5F5F5F5F5F5F5F5F5F5F5F5F5F5F5F5F5F5F5F5F5F5F5F5F5F5F5F5F5F5F5F5F5F5F5F5F5F5F5F5F5F5F5F5F5F5F5F5F5F5F5F5F5F5F5F5F5F5F5F5F5F5F5F5F5F5F5
310
F5F5F5F5F5F5F5F5F5F5F5F5F5F5F5F5F5F5F5F5F5F5F5F5F5F5F5F5F5F5F5F5F5F5F5F5F5F5F5F5F5F5F5F5F5F5F5F5F5F5F5F5F5F5F5F5F5F5F5F5F5F5F5F5F5F5F5F5F5F5F5F5F5F5F5F5F5F5F5F5F5F5F5F5F5F5F5F5E2E2F5F5F5F5F5F5F5F5F5F5F5F5F5F5F5F5F5F5F5F5F5F5F5F5F5F5F5F5F5F5F5F5F5F5F5F5F5
310
F5F5F5F5F5F5F5F5F5F5F5F5F5F5F5F5F5F5F5F5F5F5F5F5F5F5F5F5F5F5F5F5F5F5F5F5F5F5F5F5F5F5F5F5F5F5F5F5F5F5F5F5F5F5F5F5F5F5F5F5F5F5F5F5F5F5F5F5F5F5F5F5F5F5F5F5F5F5F5F5F5F5F5F5F5F5F5F5F5F5F5F5F5F5F5F5F5F5F5F5F5F5F5F5F5F5F5F5F5F5F5F5F5F5F5F5F5F5F5F5F5F5F5F5F5F5F5
310
F5F5F5F5F5F5F5F5F5F5F5F5F5F5E2E2F5F5F5F5F5F5F5F5F5F5F5F5F5F5F5F5F5F5F5F5F5F5F5F5F5F5F5F5F5F5F5F5F5F5F5F5F5F5F5F5F5F5F5F5F5F5F5F5F5F5F5F5F5F5F5F5F5F5F5F5F5F5F5F5F5F5F5F5F5F5F5F5F5F5F5F5F5F5F5F5F5F5F5F5F5F5F5F5F5F5F5F5F5F5F5F5F5F5F5F5F5F5F5F5F5F5F5F5F5F5F5
310
F5F5F5F5F5F5F5F5F5F5F5F5F5F5F5F5F5F5F5F5F5F5F5F5F5F5F5F5F5F5F5F5F5F5F5F5F5F5F5F5F5F5F5F5F5F5F5F5F5F5F5F5F5F5F5F5F5F5F5F5F5F5F5F5F5F5F5E2E2F5F5F5F5F5F5F5F5F5F5F5F5F5F5F5F5F5F5F5F5F5F5F5F5F5F5F5F5F5F5F5F5F5F5F5F5F5F5F5F5F5F5F5F5F5F5F5F5F5F5F5F5F5F5F5F5F5F5
310
F5F5F5F5F5F5F5F5F5F5F5F5F5F5F5F5F5F5F5F5F5F5F5F5F5F5F5F5F5F5F5F5F5F5F5F5F5F5F5F5F5F5F5F5F5F5F5F5F5F5F5F5F5F5F5F5F5F5F5F5F5F5F5F5F5F5F5F5F5F5F5F5F5F5F5F5F5F5F5F5F5F5F5F5F5F5F5F5F5F5F5F5F5F5F5F5F5F5F5F5F5F5F5F5F5F5F5F5F5F5F5F5F5F5F5F5F5F5F5F5E2E2F5F5F5F5F5
310
F5F5F5F5F5F5E2F5F5F5F5F5F5F5F5F5F5F5F5F5F5F5F5F5F5F5F5F5F5F5F5F5F5F5F5F5F5F5F5F5F5F5F5F5F5F5F5F5F5F5F5F5F5F5F5F5F5F5F5F5F5F5F5F5F5F5F5F5F5F5F5F5F5F5F5F5F5F5F5F5F5F5F5F5F5F5F5F5F5F5F5F5F5F5F5F5F5F5F5F5F5F5F5F5F5F5F5F5F5F5F5F5F5F5F5F5F5F5F5F5F5F5F5F5F5F5F5
310
F5F5F5F5F5F5F5F5F5F5F5F5F5F5F5F5F5F5F5F5F5F5F5F5F5F5F5F5F5F5F5F5F5F5E2F5F5F5F5F5F5F5F5F5F5F5E2E2F5F5F5F5F5F5F5F5F5F5F5E2F5F5F5F5F5F5F5F5F5F5F5F5F5F5F5F5F5F5F5F5F5F5F5F5F5F5F5F5F5F5F5F5F5F5F5F5F5F5F5F5F5F5F5F5F5F5F5F5F5F5F5F5F5F5F5F5F5F5F5F5F5F5F5F5F5F5F5
310
F5F5F5F5F5F5F5F5F5F5F5F5F5F5F5F5F5F5F5F5F5F5F5F5F5F5F5F5F5F5F5F5F5F5F5F5F5F5F5F5F5F5F5F5F5F5F5F5F5F5F5F5F5F5F5F5F5F5F5F5F5F5F5F5F5F5F5F5F5F5F5F5F5F5F5F5F5F5F5F5F5F5F5F5F5F5F5E2F5F5F5F5F5F5F5F5F5F5F5E2E2F5F5F5F5F5F5F5F5F5F5F5E2F5F5F5F5F5F5F5F5F5F5F5F5F5F5
310
F5F5F5F5F5F5F5F5F5F5F5F5F5F5F5F5F5F5F5F5F5F5F5F5F5F5F5F5F5F5F5F5F5F5F5F5F5F5F5F5F5F5F5F5F5F5F5F5F5F5F5F5F5F5F5F5F5F5F5F5F5F5F5F5F5F5F5F5F5F5F5F5F5F5F5F5F5F5F5F5F5F5F5F5F5F5F5F5F5F5F5F5F5F5F5F5F5F5F5F5F5F5F5F5F5F5F5F5F5F5F5F5F5F5F5F5F5F5F5F5F5F5F5F5F5F5F5
310
F5F5F5F5F5F5F5F5F5F5F5F5F5E2F5F5F5F5F5F5F5F5F5F5F5E2E2F5F5F5F5F5F5F5F5F5F5F5E2F5F5F5F5F5F5F5F5F5F5F5F5F5F5F5F5F5F5F5F5F5F5F5F5F5F5F5F5F5F5F5F5F5F5F5F5F5F5F5F5F5F5F5F5F5F5F5F5F5F5F5F5F5F5F5F5F5F5F5F5F5F5F5F5F5F5F5F5F5F5F5F5F5F5F5F5F5F5F5F5F5F5F5F5F5F5F5F5
310
F5F5F5F5F5F5F5F5F5F5F5F5F5F5F5F5F5F5F5F5F5F5F5F5F5F5F5F5F5F5F5F5F5F5F5F5F5F5F5F5F5F5F5F5F5F5F5F5F5F5F5F5F5F5F5F5F5F5F5F5F5F5F5F5F5F5E2F5F5F5F5F5F5F5F5F5F5F5E2E2F5F5F5F5F5F5F5F5F5F5F5E2F5F5F5F5F5F5F5F5F5F5F5F5F5F5F5F5F5F5F5F5F5F5F5F5F5F5F5F5F5F5F5F5F5F5F5
310
F5F5F5F5F5F5F5F5F5F5F5F5F5F5F5F5F5F5F5F5F5F5F5F5F5F5F5F5F5F5F5F5F5F5F5F5F5F5F5F5F5F5F5F5F5F5F5F5F5F5F5F5F5F5F5F5F5F5F5F5F5F5F5F5F5F5F5F5F5F5F5F5F5F5F5F5F5F5F5F5F5F5F5F5F5F5F5F5F5F5F5F5F5F5F5F5F5F5F5F5F5F5F5F5F5F5F5F5F5F5F5F5F5F5F5F5F5F5F5E2F5F5F5F5F5F5F5
310
F5F5F5F5E2E2F5F5F5F5F5F5F5F5F5F5F5E2F5F5F5F5F5F5F5F5F5F5F5F5F5F5F5F5F5F5F5F5F5F5F5F5F5F5F5F5F5F5F5F5F5F5F5F5F5F5F5F5F5F5F5F5F5F5F5F5F5F5F5F5F5F5F5F5F5F5F5F5F5F5F5F5F5F5F5F5F5F5F5F5F5F5F5F5F5F5F5F5F5F5F5F5F5F5F5F5F5F5F5F5F5F5F5F5F5F5F5F5F5F5F5F5F5F5F5F5F5
310
F5F5F5F5F5F5F5F5F5F5F5F5F5F5F5F5F5F5F5F5F5F5F5F5F5F5F5F5F5F5F5F5F5F5F5F5F5F5F5F5F5F5F5F5F5E2F5F5F5F5F5F5F5F5F5F5F5E2E2F5F5F5F5F5F5F5F5F5F5F5E2F5F5F5F5F5F5F5F5F5F5F5F5F5F5F5F5F5F5F5F5F5F5F5F5F5F5F5F5F5F5F5F5F5F5F5F5F5F5F5F5F5F5F5F5F5F5F5F5F5F5F5F5F5F5F5F5
310
F5F5F5F5F5F5F5F5F5F5F5F5F5F5F5F5F5F5F5F5F5F5F5F5F5F5F5F5F5F5F5F5F5F5F5F5F5F5F5F5F5F5F5F5F5F5F5F5F5F5F5F5F5F5F5F5F5F5F5F5F5F5F5F5F5F5F5F5F5F5F5F5F5F5F5F5F5F5F5F5F5F5F5F5F5F5F5F5F5F5F5F5F5F5F5F5F5F5E2F5F5F5F5F5F5F5F5F5F5F5E2E2F5F5F5F5F5F5F5F5F5F5F5E2E2E2E2
310
E2E2E2E2E2F5F5F5F5F5F5F5F5F5E2E2E2E2E2E2E2E2E2E2E2E2E2E2E2E2E2F5F5F5F5F5F5F5F5F5E2E2E2E2E2E2E2E2E2E2E2E2E2E2E2E2F5F5F5F5F5F5F5F5F5F5E2E2E2E2E2E2E2E2E2E2E2E2E2E2E2E2F5F5F5F5F5F5F5F5F5F5E2E2E2E2E2E2E2E2E2E2E2E2E2E2E2E2F5F5F5F5F5F5F5F5F5E2E2E2E2E2E2E2E2E2E2
310
E2E2E2E2E2E2E2F5F5F5F5F5F5F5F5F5E2E2E2E2E2E2E2E2E2F5F5F5F5F5F5F5F5F5F5F5E2E2F5F5F5F5F5F5F5F5F5F5F5F5F5F5F5F5F5F5F5F5F5F5F5F5F5F5F5F5F5F5F5F5F5F5F5F5F5F5F5F5F5F5F5F5F5F5F5F5F5F5F5F5F5F5F5F5F5F5F5F5F5F5F5F5F5F5F5F5F5F5F5F5F5F5F5F5F5F5F5F5F5F5F5F5F5F5F5F5F5
310
F5F5F5F5F5F5F5F5F5F5F5F5F5F5F5F5F5F5F5F5F5F5F5F5F5F5F5F5F5F5F5F5F5F5F5F5F5F5F5F5F5F5F5F5F5F5F5F5F5F5F5F5F5F5F5F5F5F5F5F5F5F5F5F5F5F5F5F5F5F5F5F5F5F5F5F5F5F5F5F5F5F5F5F5F5F5F5F5F5E2E2F5F5F5F5F5F5F5F5F5F5F5F5F5F5F5F5F5F5F5F5F5F5F5F5F5F5F5F5F5F5F5F5F5F5F5F5
310
F5F5F5F5F5F5F5F5F5F5F5F5F5F5F5F5F5F5F5F5F5F5F5F5F5F5F5F5F5F5F5F5F5F5F5F5F5F5F5F5F5F5F5F5F5F5F5F5F5F5F5F5F5F5F5F5F5F5F5F5F5F5F5F5F5F5F5F5F5F5F5F5F5F5F5F5F5F5F5F5F5F5F5F5F5F5F5F5F5F5F5F5F5F5F5F5F5F5F5F5F5F5F5F5F5F5F5F5F5F5F5F5F5F5F5F5F5F5F5F5F5F5F5F5F5F5F5
310
F5F5F5F5F5F5F5F5F5F5F5F5F5F5F5E2E2F5F5F5F5F5F5F5F5F5F5F5F5F5F5F5F5F5F5F5F5F5F5F5F5F5F5F5F5F5F5F5F5F5F5F5F5F5F5F5F5F5F5F5F5F5F5F5F5F5F5F5F5F5F5F5F5F5F5F5F5F5F5F5F5F5F5F5F5F5F5F5F5F5F5F5F5F5F5F5F5F5F5F5F5F5F5F5F5F5F5F5F5F5F5F5F5F5F5F5F5F5F5F5F5F5F5F5F5F5F5
310
F5F5F5F5F5F5F5F5F5F5F5F5F5F5F5F5F5F5F5F5F5F5F5F5F5F5F5F5F5F5F5F5F5F5F5F5F5F5F5F5F5F5F5F5F5F5F5F5F5F5F5F5F5F5F5F5F5F5F5F5F5F5F5F5F5F5F5F5E2E2F5F5F5F5F5F5F5F5F5F5F5F5F5F5F5F5F5F5F5F5F5F5F5F5F5F5F5F5F5F5F5F5F5F5F5F5F5F5F5F5F5F5F5F5F5F5F5F5F5F5F5F5F5F5F5F5F5
310
F5F5F5F5F5F5F5F5F5F5F5F5F5F5F5F5F5F5F5F5F5F5F5F5F5F5F5F5F5F5F5F5F5F5F5F5F5F5F5F5F5F5F5F5F5F5F5F5F5F5F5F5F5F5F5F5F5F5F5F5F5F5F5F5F5F5F5F5F5F5F5F5F5F5F5F5F5F5F5F5F5F5F5F5F5F5F5F5F5F5F5F5F5F5F5F5F5F5F5F5F5F5F5F5F5F5F5F5F5F5F5F5F5F5F5F5F5F5F5F5F5E2E2E2E2E2E2
310
E2E2E2E2E2E2E2E2E2E2E2E2E2E2E2E2E2E2E2E2E2E2E2E2E2E2E2E2E2E2E2E2E2E2E2E2E2E2E2E2E2E2E2E2E2E2E2E2E2E2E2E2E2E2E2E2E2E2E2E2E2E2E2E2E2E2E2E2E2E2E2E2E2E2E2E2E2E2E2E2E2E2E2E2E2E2E2E2E2E2E2E2E2E2E2E2E2E2E2E2E2E2E2E2E2E2E2E2E2E2E2E2E2E2E2E2E2E2E2E2E2E2E2E2E2E2E2
310
E2E2E2E2E2E2E2E2E2E2E2E2E2E2E2E2E2E2E2E2E2E2E2E2E2E2E2E2E2E2E2E2E2E2E2E2E2E2E2E2E2E2E2E2E2E2E2E2
  0
ENDSEC
  0
EOF
